  0
SECTION
  2
HEADER
  9
$ACADVER
  1
AC1014
  9
$ACADMAINTVER
 70
     9
  9
$DWGCODEPAGE
  3
ANSI_1250
  9
$INSBASE
 10
0.0
 20
0.0
 30
0.0
  9
$EXTMIN
 10
-31.9715
 20
-17.8219
 30
0.0
  9
$EXTMAX
 10
31.9716
 20
17.7398
 30
0.0
  9
$LIMMIN
 10
0.0
 20
0.0
  9
$LIMMAX
 10
12.0
 20
9.0
  9
$ORTHOMODE
 70
     0
  9
$REGENMODE
 70
     1
  9
$FILLMODE
 70
     1
  9
$QTEXTMODE
 70
     0
  9
$MIRRTEXT
 70
     1
  9
$DRAGMODE
 70
     2
  9
$LTSCALE
 40
1.0
  9
$OSMODE
 70
    37
  9
$ATTMODE
 70
     1
  9
$TEXTSIZE
 40
0.2
  9
$TRACEWID
 40
0.05
  9
$TEXTSTYLE
  7
STANDARD
  9
$CLAYER
  8
0
  9
$CELTYPE
  6
BYLAYER
  9
$CECOLOR
 62
   256
  9
$CELTSCALE
 40
1.0
  9
$DELOBJ
 70
     1
  9
$DISPSILH
 70
     0
  9
$DIMSCALE
 40
1.0
  9
$DIMASZ
 40
0.18
  9
$DIMEXO
 40
0.0625
  9
$DIMDLI
 40
0.38
  9
$DIMRND
 40
0.0
  9
$DIMDLE
 40
0.0
  9
$DIMEXE
 40
0.18
  9
$DIMTP
 40
0.0
  9
$DIMTM
 40
0.0
  9
$DIMTXT
 40
0.18
  9
$DIMCEN
 40
0.09
  9
$DIMTSZ
 40
0.0
  9
$DIMTOL
 70
     0
  9
$DIMLIM
 70
     0
  9
$DIMTIH
 70
     1
  9
$DIMTOH
 70
     1
  9
$DIMSE1
 70
     0
  9
$DIMSE2
 70
     0
  9
$DIMTAD
 70
     0
  9
$DIMZIN
 70
     0
  9
$DIMBLK
  1

  9
$DIMASO
 70
     1
  9
$DIMSHO
 70
     1
  9
$DIMPOST
  1

  9
$DIMAPOST
  1

  9
$DIMALT
 70
     0
  9
$DIMALTD
 70
     2
  9
$DIMALTF
 40
25.4
  9
$DIMLFAC
 40
1.0
  9
$DIMTOFL
 70
     0
  9
$DIMTVP
 40
0.0
  9
$DIMTIX
 70
     0
  9
$DIMSOXD
 70
     0
  9
$DIMSAH
 70
     0
  9
$DIMBLK1
  1

  9
$DIMBLK2
  1

  9
$DIMSTYLE
  2
STANDARD
  9
$DIMCLRD
 70
     0
  9
$DIMCLRE
 70
     0
  9
$DIMCLRT
 70
     0
  9
$DIMTFAC
 40
1.0
  9
$DIMGAP
 40
0.09
  9
$DIMJUST
 70
     0
  9
$DIMSD1
 70
     0
  9
$DIMSD2
 70
     0
  9
$DIMTOLJ
 70
     1
  9
$DIMTZIN
 70
     0
  9
$DIMALTZ
 70
     0
  9
$DIMALTTZ
 70
     0
  9
$DIMFIT
 70
     3
  9
$DIMUPT
 70
     0
  9
$DIMUNIT
 70
     2
  9
$DIMDEC
 70
     4
  9
$DIMTDEC
 70
     4
  9
$DIMALTU
 70
     2
  9
$DIMALTTD
 70
     2
  9
$DIMTXSTY
  7
STANDARD
  9
$DIMAUNIT
 70
     0
  9
$LUNITS
 70
     2
  9
$LUPREC
 70
     4
  9
$SKETCHINC
 40
0.1
  9
$FILLETRAD
 40
0.5
  9
$AUNITS
 70
     0
  9
$AUPREC
 70
     0
  9
$MENU
  1
.
  9
$ELEVATION
 40
0.0
  9
$PELEVATION
 40
0.0
  9
$THICKNESS
 40
0.0
  9
$LIMCHECK
 70
     0
  9
$CHAMFERA
 40
0.5
  9
$CHAMFERB
 40
0.5
  9
$CHAMFERC
 40
1.0
  9
$CHAMFERD
 40
0.0
  9
$SKPOLY
 70
     0
  9
$TDCREATE
 40
2456303.510777384
  9
$TDUPDATE
 40
2456303.510777396
  9
$TDINDWG
 40
0.0000000116
  9
$TDUSRTIMER
 40
0.0000000116
  9
$USRTIMER
 70
     1
  9
$ANGBASE
 50
0.0
  9
$ANGDIR
 70
     0
  9
$PDMODE
 70
     0
  9
$PDSIZE
 40
0.0
  9
$PLINEWID
 40
0.0
  9
$COORDS
 70
     1
  9
$SPLFRAME
 70
     0
  9
$SPLINETYPE
 70
     6
  9
$SPLINESEGS
 70
     8
  9
$ATTDIA
 70
     0
  9
$ATTREQ
 70
     1
  9
$HANDLING
 70
     1
  9
$HANDSEED
  5
D4
  9
$SURFTAB1
 70
     6
  9
$SURFTAB2
 70
     6
  9
$SURFTYPE
 70
     6
  9
$SURFU
 70
     6
  9
$SURFV
 70
     6
  9
$UCSNAME
  2

  9
$UCSORG
 10
0.0
 20
0.0
 30
0.0
  9
$UCSXDIR
 10
1.0
 20
0.0
 30
0.0
  9
$UCSYDIR
 10
0.0
 20
1.0
 30
0.0
  9
$PUCSNAME
  2

  9
$PUCSORG
 10
0.0
 20
0.0
 30
0.0
  9
$PUCSXDIR
 10
1.0
 20
0.0
 30
0.0
  9
$PUCSYDIR
 10
0.0
 20
1.0
 30
0.0
  9
$USERI1
 70
     0
  9
$USERI2
 70
     0
  9
$USERI3
 70
     0
  9
$USERI4
 70
     0
  9
$USERI5
 70
     0
  9
$USERR1
 40
0.0
  9
$USERR2
 40
0.0
  9
$USERR3
 40
0.0
  9
$USERR4
 40
0.0
  9
$USERR5
 40
0.0
  9
$WORLDVIEW
 70
     1
  9
$SHADEDGE
 70
     3
  9
$SHADEDIF
 70
    70
  9
$TILEMODE
 70
     1
  9
$MAXACTVP
 70
    64
  9
$PINSBASE
 10
0.0
 20
0.0
 30
0.0
  9
$PLIMCHECK
 70
     0
  9
$PEXTMIN
 10
1.000000000000000E+20
 20
1.000000000000000E+20
 30
1.000000000000000E+20
  9
$PEXTMAX
 10
-1.000000000000000E+20
 20
-1.000000000000000E+20
 30
-1.000000000000000E+20
  9
$PLIMMIN
 10
0.0
 20
0.0
  9
$PLIMMAX
 10
12.0
 20
9.0
  9
$UNITMODE
 70
     0
  9
$VISRETAIN
 70
     1
  9
$PLINEGEN
 70
     0
  9
$PSLTSCALE
 70
     1
  9
$TREEDEPTH
 70
  3020
  9
$PICKSTYLE
 70
     1
  9
$CMLSTYLE
  2
STANDARD
  9
$CMLJUST
 70
     0
  9
$CMLSCALE
 40
1.0
  9
$PROXYGRAPHICS
 70
     1
  9
$MEASUREMENT
 70
     0
  0
ENDSEC
  0
SECTION
  2
CLASSES
  0
CLASS
  1
ACDBDICTIONARYWDFLT
  2
AcDbDictionaryWithDefault
  3
ObjectDBX Classes
 90
        0
280
     0
281
     0
  0
CLASS
  1
VISUALSTYLE
  2
AcDbVisualStyle
  3
ObjectDBX Classes
 90
     4095
280
     0
281
     0
  0
CLASS
  1
MATERIAL
  2
AcDbMaterial
  3
ObjectDBX Classes
 90
     1153
280
     0
281
     0
  0
CLASS
  1
DICTIONARYVAR
  2
AcDbDictionaryVar
  3
ObjectDBX Classes
 90
        0
280
     0
281
     0
  0
CLASS
  1
XRECORD
  2
AcDbXrecord
  3
AutoCAD 2000
 90
        0
280
     0
281
     0
  0
CLASS
  1
LWPOLYLINE
  2
AcDbPolyline
  3
AutoCAD 2000
 90
        0
280
     0
281
     1
  0
CLASS
  1
HATCH
  2
AcDbHatch
  3
AutoCAD 2000
 90
        0
280
     0
281
     1
  0
CLASS
  1
ACDBPLACEHOLDER
  2
AcDbPlaceHolder
  3
ObjectDBX Classes
 90
        0
280
     0
281
     0
  0
CLASS
  1
LAYOUT
  2
AcDbLayout
  3
ObjectDBX Classes
 90
        0
280
     0
281
     0
  0
ENDSEC
  0
SECTION
  2
TABLES
  0
TABLE
  2
VPORT
  5
8
330
0
100
AcDbSymbolTable
 70
     1
  0
VPORT
  5
29
330
8
100
AcDbSymbolTableRecord
100
AcDbViewportTableRecord
  2
*ACTIVE
 70
     0
 10
0.0
 20
0.0
 11
1.0
 21
1.0
 12
10.42990654205607
 22
4.5
 13
0.0
 23
0.0
 14
0.5
 24
0.5
 15
0.5
 25
0.5
 16
0.0
 26
0.0
 36
1.0
 17
0.0
 27
0.0
 37
0.0
 40
9.0
 41
1.972972972850329
 42
50.0
 43
0.0
 44
0.0
 50
0.0
 51
0.0
 71
     0
 72
   100
 73
     1
 74
     3
 75
     0
 76
     0
 77
     0
 78
     0
  0
ENDTAB
  0
TABLE
  2
LTYPE
  5
5
330
0
100
AcDbSymbolTable
 70
     1
  0
LTYPE
  5
14
330
5
100
AcDbSymbolTableRecord
100
AcDbLinetypeTableRecord
  2
BYBLOCK
 70
     0
  3

 72
    65
 73
     0
 40
0.0
  0
LTYPE
  5
15
330
5
100
AcDbSymbolTableRecord
100
AcDbLinetypeTableRecord
  2
BYLAYER
 70
     0
  3

 72
    65
 73
     0
 40
0.0
  0
LTYPE
  5
16
330
5
100
AcDbSymbolTableRecord
100
AcDbLinetypeTableRecord
  2
CONTINUOUS
 70
     0
  3
Solid line
 72
    65
 73
     0
 40
0.0
  0
ENDTAB
  0
TABLE
  2
LAYER
  5
2
330
0
100
AcDbSymbolTable
 70
     2
  0
LAYER
  5
10
330
2
100
AcDbSymbolTableRecord
100
AcDbLayerTableRecord
  2
0
 70
     0
 62
     7
  6
CONTINUOUS
  0
LAYER
  5
40
330
2
100
AcDbSymbolTableRecord
100
AcDbLayerTableRecord
  2
AXIS
 70
     0
 62
     7
  6
CONTINUOUS
  0
ENDTAB
  0
TABLE
  2
STYLE
  5
3
330
0
100
AcDbSymbolTable
 70
     1
  0
STYLE
  5
11
330
3
100
AcDbSymbolTableRecord
100
AcDbTextStyleTableRecord
  2
STANDARD
 70
     0
 40
0.0
 41
1.0
 50
0.0
 71
     0
 42
0.2
  3
txt
  4

  0
ENDTAB
  0
TABLE
  2
VIEW
  5
6
330
0
100
AcDbSymbolTable
 70
     0
  0
ENDTAB
  0
TABLE
  2
UCS
  5
7
330
0
100
AcDbSymbolTable
 70
     0
  0
ENDTAB
  0
TABLE
  2
APPID
  5
9
330
0
100
AcDbSymbolTable
 70
     2
  0
APPID
  5
12
330
9
100
AcDbSymbolTableRecord
100
AcDbRegAppTableRecord
  2
ACAD
 70
     0
  0
APPID
  5
3F
330
9
100
AcDbSymbolTableRecord
100
AcDbRegAppTableRecord
  2
ODA
 70
     0
  0
ENDTAB
  0
TABLE
  2
DIMSTYLE
  5
A
330
0
100
AcDbSymbolTable
 70
     1
  0
DIMSTYLE
105
27
330
A
100
AcDbSymbolTableRecord
100
AcDbDimStyleTableRecord
  2
STANDARD
 70
     0
  3

  4

  5

  6

  7

 40
1.0
 41
0.18
 42
0.0625
 43
0.38
 44
0.18
 45
0.0
 46
0.0
 47
0.0
 48
0.0
140
0.18
141
0.09
142
0.0
143
25.4
144
1.0
145
0.0
146
1.0
147
0.09
 71
     0
 72
     0
 73
     1
 74
     1
 75
     0
 76
     0
 77
     0
 78
     0
170
     0
171
     2
172
     0
173
     0
174
     0
175
     0
176
     0
177
     0
178
     0
270
     2
271
     4
272
     4
273
     2
274
     2
340
11
275
     0
280
     0
281
     0
282
     0
283
     1
284
     0
285
     0
286
     0
287
     3
288
     0
  0
ENDTAB
  0
TABLE
  2
BLOCK_RECORD
  5
1
330
0
100
AcDbSymbolTable
 70
     1
  0
BLOCK_RECORD
  5
1F
330
1
100
AcDbSymbolTableRecord
100
AcDbBlockTableRecord
  2
*MODEL_SPACE
  0
BLOCK_RECORD
  5
1B
330
1
100
AcDbSymbolTableRecord
100
AcDbBlockTableRecord
  2
*PAPER_SPACE
  0
ENDTAB
  0
ENDSEC
  0
SECTION
  2
BLOCKS
  0
BLOCK
  5
20
330
1F
100
AcDbEntity
  8
0
100
AcDbBlockBegin
  2
*MODEL_SPACE
 70
     0
 10
0.0
 20
0.0
 30
0.0
  3
*MODEL_SPACE
  1

  0
ENDBLK
  5
21
330
1F
100
AcDbEntity
  8
0
100
AcDbBlockEnd
  0
BLOCK
  5
1C
330
1B
100
AcDbEntity
 67
     1
  8
0
100
AcDbBlockBegin
  2
*PAPER_SPACE
 70
     0
 10
0.0
 20
0.0
 30
0.0
  3
*PAPER_SPACE
  1

  0
ENDBLK
  5
1D
330
1B
100
AcDbEntity
 67
     1
  8
0
100
AcDbBlockEnd
  0
ENDSEC
  0
SECTION
  2
ENTITIES
  0
SPLINE
  5
41
330
1F
100
AcDbEntity
  8
AXIS
 62
   250
100
AcDbSpline
210
0.0
220
0.0
230
1.0
 70
    11
 71
     3
 72
    20
 73
    16
 74
     0
 42
0.0000000001
 43
0.0000000001
 40
0.0
 40
0.0
 40
0.0
 40
0.0
 40
0.2
 40
0.2
 40
0.2
 40
0.2
 40
0.4
 40
0.4
 40
0.4
 40
0.4
 40
0.6
 40
0.6
 40
0.6
 40
0.6
 40
1.0
 40
1.0
 40
1.0
 40
1.0
 10
-29.2248
 20
-12.4631
 30
0.0
 10
-29.2248
 20
-12.4631
 30
0.0
 10
-29.6482
 20
-15.4633
 30
0.0
 10
-29.6482
 20
-15.4633
 30
0.0
 10
-29.6482
 20
-15.4633
 30
0.0
 10
-29.6482
 20
-15.4633
 30
0.0
 10
-29.7422
 20
-15.4633
 30
0.0
 10
-29.7422
 20
-15.4633
 30
0.0
 10
-29.7422
 20
-15.4633
 30
0.0
 10
-29.7422
 20
-15.4633
 30
0.0
 10
-30.1938
 20
-12.4631
 30
0.0
 10
-30.1938
 20
-12.4631
 30
0.0
 10
-30.1938
 20
-12.4631
 30
0.0
 10
-30.1938
 20
-12.4631
 30
0.0
 10
-29.2248
 20
-12.4631
 30
0.0
 10
-29.2248
 20
-12.4631
 30
0.0
  0
SPLINE
  5
42
330
1F
100
AcDbEntity
  8
AXIS
 62
   250
100
AcDbSpline
210
0.0
220
0.0
230
1.0
 70
    11
 71
     3
 72
    20
 73
    16
 74
     0
 42
0.0000000001
 43
0.0000000001
 40
0.0
 40
0.0
 40
0.0
 40
0.0
 40
0.2
 40
0.2
 40
0.2
 40
0.2
 40
0.4
 40
0.4
 40
0.4
 40
0.4
 40
0.6
 40
0.6
 40
0.6
 40
0.6
 40
1.0
 40
1.0
 40
1.0
 40
1.0
 10
-19.5505
 20
-3.4062
 30
0.0
 10
-19.5505
 20
-3.4062
 30
0.0
 10
-19.9739
 20
-6.4064
 30
0.0
 10
-19.9739
 20
-6.4064
 30
0.0
 10
-19.9739
 20
-6.4064
 30
0.0
 10
-19.9739
 20
-6.4064
 30
0.0
 10
-20.0679
 20
-6.4064
 30
0.0
 10
-20.0679
 20
-6.4064
 30
0.0
 10
-20.0679
 20
-6.4064
 30
0.0
 10
-20.0679
 20
-6.4064
 30
0.0
 10
-20.5195
 20
-3.4062
 30
0.0
 10
-20.5195
 20
-3.4062
 30
0.0
 10
-20.5195
 20
-3.4062
 30
0.0
 10
-20.5195
 20
-3.4062
 30
0.0
 10
-19.5505
 20
-3.4062
 30
0.0
 10
-19.5505
 20
-3.4062
 30
0.0
  0
SPLINE
  5
43
330
1F
100
AcDbEntity
  8
AXIS
 62
   250
100
AcDbSpline
210
0.0
220
0.0
230
1.0
 70
    11
 71
     3
 72
    20
 73
    16
 74
     0
 42
0.0000000001
 43
0.0000000001
 40
0.0
 40
0.0
 40
0.0
 40
0.0
 40
0.2
 40
0.2
 40
0.2
 40
0.2
 40
0.4
 40
0.4
 40
0.4
 40
0.4
 40
0.6
 40
0.6
 40
0.6
 40
0.6
 40
1.0
 40
1.0
 40
1.0
 40
1.0
 10
-30.149
 20
8.8557
 30
0.0
 10
-30.149
 20
8.8557
 30
0.0
 10
-29.7256
 20
11.856
 30
0.0
 10
-29.7256
 20
11.856
 30
0.0
 10
-29.7256
 20
11.856
 30
0.0
 10
-29.7256
 20
11.856
 30
0.0
 10
-29.6315
 20
11.856
 30
0.0
 10
-29.6315
 20
11.856
 30
0.0
 10
-29.6315
 20
11.856
 30
0.0
 10
-29.6315
 20
11.856
 30
0.0
 10
-29.18
 20
8.8557
 30
0.0
 10
-29.18
 20
8.8557
 30
0.0
 10
-29.18
 20
8.8557
 30
0.0
 10
-29.18
 20
8.8557
 30
0.0
 10
-30.149
 20
8.8557
 30
0.0
 10
-30.149
 20
8.8557
 30
0.0
  0
SPLINE
  5
44
330
1F
100
AcDbEntity
  8
AXIS
 62
   250
100
AcDbSpline
210
0.0
220
0.0
230
1.0
 70
    11
 71
     3
 72
    20
 73
    16
 74
     0
 42
0.0000000001
 43
0.0000000001
 40
0.0
 40
0.0
 40
0.0
 40
0.0
 40
0.2
 40
0.2
 40
0.2
 40
0.2
 40
0.4
 40
0.4
 40
0.4
 40
0.4
 40
0.6
 40
0.6
 40
0.6
 40
0.6
 40
1.0
 40
1.0
 40
1.0
 40
1.0
 10
-20.4968
 20
-11.346
 30
0.0
 10
-20.4968
 20
-11.346
 30
0.0
 10
-20.0734
 20
-8.3457
 30
0.0
 10
-20.0734
 20
-8.3457
 30
0.0
 10
-20.0734
 20
-8.3457
 30
0.0
 10
-20.0734
 20
-8.3457
 30
0.0
 10
-19.9793
 20
-8.3457
 30
0.0
 10
-19.9793
 20
-8.3457
 30
0.0
 10
-19.9793
 20
-8.3457
 30
0.0
 10
-19.9793
 20
-8.3457
 30
0.0
 10
-19.5278
 20
-11.346
 30
0.0
 10
-19.5278
 20
-11.346
 30
0.0
 10
-19.5278
 20
-11.346
 30
0.0
 10
-19.5278
 20
-11.346
 30
0.0
 10
-20.4968
 20
-11.346
 30
0.0
 10
-20.4968
 20
-11.346
 30
0.0
  0
SPLINE
  5
45
330
1F
100
AcDbEntity
  8
AXIS
 62
   250
100
AcDbSpline
210
0.0
220
0.0
230
1.0
 70
    11
 71
     3
 72
    20
 73
    16
 74
     0
 42
0.0000000001
 43
0.0000000001
 40
0.0
 40
0.0
 40
0.0
 40
0.0
 40
0.2
 40
0.2
 40
0.2
 40
0.2
 40
0.4
 40
0.4
 40
0.4
 40
0.4
 40
0.6
 40
0.6
 40
0.6
 40
0.6
 40
1.0
 40
1.0
 40
1.0
 40
1.0
 10
13.4547
 20
15.7815
 30
0.0
 10
13.4547
 20
15.7815
 30
0.0
 10
16.4577
 20
15.3577
 30
0.0
 10
16.4577
 20
15.3577
 30
0.0
 10
16.4577
 20
15.3577
 30
0.0
 10
16.4577
 20
15.3577
 30
0.0
 10
16.4577
 20
15.2636
 30
0.0
 10
16.4577
 20
15.2636
 30
0.0
 10
16.4577
 20
15.2636
 30
0.0
 10
16.4577
 20
15.2636
 30
0.0
 10
13.4547
 20
14.8116
 30
0.0
 10
13.4547
 20
14.8116
 30
0.0
 10
13.4547
 20
14.8116
 30
0.0
 10
13.4547
 20
14.8116
 30
0.0
 10
13.4547
 20
15.7815
 30
0.0
 10
13.4547
 20
15.7815
 30
0.0
  0
SPLINE
  5
46
330
1F
100
AcDbEntity
  8
AXIS
 62
   250
100
AcDbSpline
210
0.0
220
0.0
230
1.0
 70
    11
 71
     3
 72
    20
 73
    16
 74
     0
 42
0.0000000001
 43
0.0000000001
 40
0.0
 40
0.0
 40
0.0
 40
0.0
 40
0.2
 40
0.2
 40
0.2
 40
0.2
 40
0.4
 40
0.4
 40
0.4
 40
0.4
 40
0.6
 40
0.6
 40
0.6
 40
0.6
 40
1.0
 40
1.0
 40
1.0
 40
1.0
 10
-4.2333
 20
-3.2123
 30
0.0
 10
-4.2333
 20
-3.2123
 30
0.0
 10
-1.2303
 20
-3.6361
 30
0.0
 10
-1.2303
 20
-3.6361
 30
0.0
 10
-1.2303
 20
-3.6361
 30
0.0
 10
-1.2303
 20
-3.6361
 30
0.0
 10
-1.2303
 20
-3.7302
 30
0.0
 10
-1.2303
 20
-3.7302
 30
0.0
 10
-1.2303
 20
-3.7302
 30
0.0
 10
-1.2303
 20
-3.7302
 30
0.0
 10
-4.2333
 20
-4.1822
 30
0.0
 10
-4.2333
 20
-4.1822
 30
0.0
 10
-4.2333
 20
-4.1822
 30
0.0
 10
-4.2333
 20
-4.1822
 30
0.0
 10
-4.2333
 20
-3.2123
 30
0.0
 10
-4.2333
 20
-3.2123
 30
0.0
  0
SPLINE
  5
47
330
1F
100
AcDbEntity
  8
AXIS
 62
   250
100
AcDbSpline
210
0.0
220
0.0
230
1.0
 70
    11
 71
     3
 72
    20
 73
    16
 74
     0
 42
0.0000000001
 43
0.0000000001
 40
0.0
 40
0.0
 40
0.0
 40
0.0
 40
0.2
 40
0.2
 40
0.2
 40
0.2
 40
0.4
 40
0.4
 40
0.4
 40
0.4
 40
0.6
 40
0.6
 40
0.6
 40
0.6
 40
1.0
 40
1.0
 40
1.0
 40
1.0
 10
-21.5132
 20
14.8336
 30
0.0
 10
-21.5132
 20
14.8336
 30
0.0
 10
-24.5132
 20
15.2569
 30
0.0
 10
-24.5132
 20
15.2569
 30
0.0
 10
-24.5132
 20
15.2569
 30
0.0
 10
-24.5132
 20
15.2569
 30
0.0
 10
-24.5132
 20
15.351
 30
0.0
 10
-24.5132
 20
15.351
 30
0.0
 10
-24.5132
 20
15.351
 30
0.0
 10
-24.5132
 20
15.351
 30
0.0
 10
-21.5132
 20
15.8025
 30
0.0
 10
-21.5132
 20
15.8025
 30
0.0
 10
-21.5132
 20
15.8025
 30
0.0
 10
-21.5132
 20
15.8025
 30
0.0
 10
-21.5132
 20
14.8336
 30
0.0
 10
-21.5132
 20
14.8336
 30
0.0
  0
SPLINE
  5
48
330
1F
100
AcDbEntity
  8
AXIS
 62
   250
100
AcDbSpline
210
0.0
220
0.0
230
1.0
 70
    11
 71
     3
 72
    20
 73
    16
 74
     0
 42
0.0000000001
 43
0.0000000001
 40
0.0
 40
0.0
 40
0.0
 40
0.0
 40
0.2
 40
0.2
 40
0.2
 40
0.2
 40
0.4
 40
0.4
 40
0.4
 40
0.4
 40
0.6
 40
0.6
 40
0.6
 40
0.6
 40
1.0
 40
1.0
 40
1.0
 40
1.0
 10
-14.5288
 20
-4.1161
 30
0.0
 10
-14.5288
 20
-4.1161
 30
0.0
 10
-17.5288
 20
-3.6928
 30
0.0
 10
-17.5288
 20
-3.6928
 30
0.0
 10
-17.5288
 20
-3.6928
 30
0.0
 10
-17.5288
 20
-3.6928
 30
0.0
 10
-17.5288
 20
-3.5987
 30
0.0
 10
-17.5288
 20
-3.5987
 30
0.0
 10
-17.5288
 20
-3.5987
 30
0.0
 10
-17.5288
 20
-3.5987
 30
0.0
 10
-14.5288
 20
-3.1472
 30
0.0
 10
-14.5288
 20
-3.1472
 30
0.0
 10
-14.5288
 20
-3.1472
 30
0.0
 10
-14.5288
 20
-3.1472
 30
0.0
 10
-14.5288
 20
-4.1161
 30
0.0
 10
-14.5288
 20
-4.1161
 30
0.0
  0
SPLINE
  5
49
330
1F
100
AcDbEntity
  8
AXIS
 62
   250
100
AcDbSpline
210
0.0
220
0.0
230
1.0
 70
    11
 71
     3
 72
    20
 73
    16
 74
     0
 42
0.0000000001
 43
0.0000000001
 40
0.0
 40
0.0
 40
0.0
 40
0.0
 40
0.2
 40
0.2
 40
0.2
 40
0.2
 40
0.4
 40
0.4
 40
0.4
 40
0.4
 40
0.6
 40
0.6
 40
0.6
 40
0.6
 40
1.0
 40
1.0
 40
1.0
 40
1.0
 10
21.2603
 20
14.913
 30
0.0
 10
21.2603
 20
14.913
 30
0.0
 10
24.262
 20
14.4894
 30
0.0
 10
24.262
 20
14.4894
 30
0.0
 10
24.262
 20
14.4894
 30
0.0
 10
24.262
 20
14.4894
 30
0.0
 10
24.262
 20
14.3953
 30
0.0
 10
24.262
 20
14.3953
 30
0.0
 10
24.262
 20
14.3953
 30
0.0
 10
24.262
 20
14.3953
 30
0.0
 10
21.2603
 20
13.9435
 30
0.0
 10
21.2603
 20
13.9435
 30
0.0
 10
21.2603
 20
13.9435
 30
0.0
 10
21.2603
 20
13.9435
 30
0.0
 10
21.2603
 20
14.913
 30
0.0
 10
21.2603
 20
14.913
 30
0.0
  0
SPLINE
  5
4A
330
1F
100
AcDbEntity
  8
AXIS
 62
   250
100
AcDbSpline
210
0.0
220
0.0
230
1.0
 70
    11
 71
     3
 72
    20
 73
    16
 74
     0
 42
0.0000000001
 43
0.0000000001
 40
0.0
 40
0.0
 40
0.0
 40
0.0
 40
0.2
 40
0.2
 40
0.2
 40
0.2
 40
0.4
 40
0.4
 40
0.4
 40
0.4
 40
0.6
 40
0.6
 40
0.6
 40
0.6
 40
1.0
 40
1.0
 40
1.0
 40
1.0
 10
21.9305
 20
-16.7704
 30
0.0
 10
21.9305
 20
-16.7704
 30
0.0
 10
24.9322
 20
-17.194
 30
0.0
 10
24.9322
 20
-17.194
 30
0.0
 10
24.9322
 20
-17.194
 30
0.0
 10
24.9322
 20
-17.194
 30
0.0
 10
24.9322
 20
-17.2881
 30
0.0
 10
24.9322
 20
-17.2881
 30
0.0
 10
24.9322
 20
-17.2881
 30
0.0
 10
24.9322
 20
-17.2881
 30
0.0
 10
21.9305
 20
-17.7399
 30
0.0
 10
21.9305
 20
-17.7399
 30
0.0
 10
21.9305
 20
-17.7399
 30
0.0
 10
21.9305
 20
-17.7399
 30
0.0
 10
21.9305
 20
-16.7704
 30
0.0
 10
21.9305
 20
-16.7704
 30
0.0
  0
SPLINE
  5
4B
330
1F
100
AcDbEntity
  8
AXIS
 62
   250
100
AcDbSpline
210
0.0
220
0.0
230
1.0
 70
    11
 71
     3
 72
    20
 73
    16
 74
     0
 42
0.0000000001
 43
0.0000000001
 40
0.0
 40
0.0
 40
0.0
 40
0.0
 40
0.2
 40
0.2
 40
0.2
 40
0.2
 40
0.4
 40
0.4
 40
0.4
 40
0.4
 40
0.6
 40
0.6
 40
0.6
 40
0.6
 40
1.0
 40
1.0
 40
1.0
 40
1.0
 10
22.3553
 20
-1.5344
 30
0.0
 10
22.3553
 20
-1.5344
 30
0.0
 10
25.357
 20
-1.958
 30
0.0
 10
25.357
 20
-1.958
 30
0.0
 10
25.357
 20
-1.958
 30
0.0
 10
25.357
 20
-1.958
 30
0.0
 10
25.357
 20
-2.0521
 30
0.0
 10
25.357
 20
-2.0521
 30
0.0
 10
25.357
 20
-2.0521
 30
0.0
 10
25.357
 20
-2.0521
 30
0.0
 10
22.3553
 20
-2.5039
 30
0.0
 10
22.3553
 20
-2.5039
 30
0.0
 10
22.3553
 20
-2.5039
 30
0.0
 10
22.3553
 20
-2.5039
 30
0.0
 10
22.3553
 20
-1.5344
 30
0.0
 10
22.3553
 20
-1.5344
 30
0.0
  0
SPLINE
  5
4C
330
1F
100
AcDbEntity
  8
AXIS
 62
   250
100
AcDbSpline
210
0.0
220
0.0
230
1.0
 70
    11
 71
     3
 72
    20
 73
    16
 74
     0
 42
0.0000000001
 43
0.0000000001
 40
0.0
 40
0.0
 40
0.0
 40
0.0
 40
0.2
 40
0.2
 40
0.2
 40
0.2
 40
0.4
 40
0.4
 40
0.4
 40
0.4
 40
0.6
 40
0.6
 40
0.6
 40
0.6
 40
1.0
 40
1.0
 40
1.0
 40
1.0
 10
28.4193
 20
13.9551
 30
0.0
 10
28.4193
 20
13.9551
 30
0.0
 10
25.4171
 20
14.3787
 30
0.0
 10
25.4171
 20
14.3787
 30
0.0
 10
25.4171
 20
14.3787
 30
0.0
 10
25.4171
 20
14.3787
 30
0.0
 10
25.4171
 20
14.4728
 30
0.0
 10
25.4171
 20
14.4728
 30
0.0
 10
25.4171
 20
14.4728
 30
0.0
 10
25.4171
 20
14.4728
 30
0.0
 10
28.4193
 20
14.9247
 30
0.0
 10
28.4193
 20
14.9247
 30
0.0
 10
28.4193
 20
14.9247
 30
0.0
 10
28.4193
 20
14.9247
 30
0.0
 10
28.4193
 20
13.9551
 30
0.0
 10
28.4193
 20
13.9551
 30
0.0
  0
SPLINE
  5
4D
330
1F
100
AcDbEntity
  8
AXIS
 62
   250
100
AcDbSpline
210
0.0
220
0.0
230
1.0
 70
    11
 71
     3
 72
    20
 73
    16
 74
     0
 42
0.0000000001
 43
0.0000000001
 40
0.0
 40
0.0
 40
0.0
 40
0.0
 40
0.2
 40
0.2
 40
0.2
 40
0.2
 40
0.4
 40
0.4
 40
0.4
 40
0.4
 40
0.6
 40
0.6
 40
0.6
 40
0.6
 40
1.0
 40
1.0
 40
1.0
 40
1.0
 10
28.3289
 20
-17.7036
 30
0.0
 10
28.3289
 20
-17.7036
 30
0.0
 10
25.3267
 20
-17.28
 30
0.0
 10
25.3267
 20
-17.28
 30
0.0
 10
25.3267
 20
-17.28
 30
0.0
 10
25.3267
 20
-17.28
 30
0.0
 10
25.3267
 20
-17.1859
 30
0.0
 10
25.3267
 20
-17.1859
 30
0.0
 10
25.3267
 20
-17.1859
 30
0.0
 10
25.3267
 20
-17.1859
 30
0.0
 10
28.3289
 20
-16.734
 30
0.0
 10
28.3289
 20
-16.734
 30
0.0
 10
28.3289
 20
-16.734
 30
0.0
 10
28.3289
 20
-16.734
 30
0.0
 10
28.3289
 20
-17.7036
 30
0.0
 10
28.3289
 20
-17.7036
 30
0.0
  0
SPLINE
  5
4E
330
1F
100
AcDbEntity
  8
AXIS
 62
   250
100
AcDbSpline
210
0.0
220
0.0
230
1.0
 70
    11
 71
     3
 72
    20
 73
    16
 74
     0
 42
0.0000000001
 43
0.0000000001
 40
0.0
 40
0.0
 40
0.0
 40
0.0
 40
0.2
 40
0.2
 40
0.2
 40
0.2
 40
0.4
 40
0.4
 40
0.4
 40
0.4
 40
0.6
 40
0.6
 40
0.6
 40
0.6
 40
1.0
 40
1.0
 40
1.0
 40
1.0
 10
31.4107
 20
-2.429
 30
0.0
 10
31.4107
 20
-2.429
 30
0.0
 10
28.4085
 20
-2.0054
 30
0.0
 10
28.4085
 20
-2.0054
 30
0.0
 10
28.4085
 20
-2.0054
 30
0.0
 10
28.4085
 20
-2.0054
 30
0.0
 10
28.4085
 20
-1.9113
 30
0.0
 10
28.4085
 20
-1.9113
 30
0.0
 10
28.4085
 20
-1.9113
 30
0.0
 10
28.4085
 20
-1.9113
 30
0.0
 10
31.4107
 20
-1.4594
 30
0.0
 10
31.4107
 20
-1.4594
 30
0.0
 10
31.4107
 20
-1.4594
 30
0.0
 10
31.4107
 20
-1.4594
 30
0.0
 10
31.4107
 20
-2.429
 30
0.0
 10
31.4107
 20
-2.429
 30
0.0
  0
SPLINE
  5
4F
330
1F
100
AcDbEntity
  8
AXIS
 62
   250
100
AcDbSpline
210
0.0
220
0.0
230
1.0
 70
    24
 71
     3
 72
     8
 73
     4
 74
     0
 42
0.0000000001
 43
0.0000000001
 40
0.0
 40
0.0
 40
0.0
 40
0.0
 40
1.0
 40
1.0
 40
1.0
 40
1.0
 10
-24.7845
 20
-15.516
 30
0.0
 10
-24.7845
 20
-15.516
 30
0.0
 10
-29.9346
 20
-15.516
 30
0.0
 10
-29.9346
 20
-15.516
 30
0.0
  0
SPLINE
  5
50
330
1F
100
AcDbEntity
  8
AXIS
 62
   250
100
AcDbSpline
210
0.0
220
0.0
230
1.0
 70
    24
 71
     3
 72
     8
 73
     4
 74
     0
 42
0.0000000001
 43
0.0000000001
 40
0.0
 40
0.0
 40
0.0
 40
0.0
 40
1.0
 40
1.0
 40
1.0
 40
1.0
 10
-24.851
 20
11.9552
 30
0.0
 10
-24.851
 20
11.9552
 30
0.0
 10
-29.9346
 20
11.9552
 30
0.0
 10
-29.9346
 20
11.9552
 30
0.0
  0
SPLINE
  5
51
330
1F
100
AcDbEntity
  8
AXIS
 62
   250
100
AcDbSpline
210
0.0
220
0.0
230
1.0
 70
    24
 71
     3
 72
     8
 73
     4
 74
     0
 42
0.0000000001
 43
0.0000000001
 40
0.0
 40
0.0
 40
0.0
 40
0.0
 40
1.0
 40
1.0
 40
1.0
 40
1.0
 10
-29.6968
 20
11.9552
 30
0.0
 10
-29.6968
 20
11.9552
 30
0.0
 10
-29.6968
 20
-15.0893
 30
0.0
 10
-29.6968
 20
-15.0893
 30
0.0
  0
SPLINE
  5
52
330
1F
100
AcDbEntity
  8
AXIS
 62
   250
100
AcDbSpline
210
0.0
220
0.0
230
1.0
 70
    24
 71
     3
 72
     8
 73
     4
 74
     0
 42
0.0000000001
 43
0.0000000001
 40
0.0
 40
0.0
 40
0.0
 40
0.0
 40
1.0
 40
1.0
 40
1.0
 40
1.0
 10
16.5287
 20
12.7421
 30
0.0
 10
16.5287
 20
12.7421
 30
0.0
 10
16.5287
 20
15.5542
 30
0.0
 10
16.5287
 20
15.5542
 30
0.0
  0
SPLINE
  5
53
330
1F
100
AcDbEntity
  8
AXIS
 62
   250
100
AcDbSpline
210
0.0
220
0.0
230
1.0
 70
    24
 71
     3
 72
     8
 73
     4
 74
     0
 42
0.0000000001
 43
0.0000000001
 40
0.0
 40
0.0
 40
0.0
 40
0.0
 40
1.0
 40
1.0
 40
1.0
 40
1.0
 10
-1.1152
 20
-6.252
 30
0.0
 10
-1.1152
 20
-6.252
 30
0.0
 10
-1.1152
 20
-3.134
 30
0.0
 10
-1.1152
 20
-3.134
 30
0.0
  0
SPLINE
  5
54
330
1F
100
AcDbEntity
  8
AXIS
 62
   250
100
AcDbSpline
210
0.0
220
0.0
230
1.0
 70
    24
 71
     3
 72
     8
 73
     4
 74
     0
 42
0.0000000001
 43
0.0000000001
 40
0.0
 40
0.0
 40
0.0
 40
0.0
 40
1.0
 40
1.0
 40
1.0
 40
1.0
 10
-24.5947
 20
12.7372
 30
0.0
 10
-24.5947
 20
12.7372
 30
0.0
 10
-24.5947
 20
15.5542
 30
0.0
 10
-24.5947
 20
15.5542
 30
0.0
  0
SPLINE
  5
55
330
1F
100
AcDbEntity
  8
AXIS
 62
   250
100
AcDbSpline
210
0.0
220
0.0
230
1.0
 70
    24
 71
     3
 72
     8
 73
     4
 74
     0
 42
0.0000000001
 43
0.0000000001
 40
0.0
 40
0.0
 40
0.0
 40
0.0
 40
1.0
 40
1.0
 40
1.0
 40
1.0
 10
-17.5221
 20
-6.2648
 30
0.0
 10
-17.5221
 20
-6.2648
 30
0.0
 10
-17.5221
 20
-3.0016
 30
0.0
 10
-17.5221
 20
-3.0016
 30
0.0
  0
SPLINE
  5
56
330
1F
100
AcDbEntity
  8
AXIS
 62
   250
100
AcDbSpline
210
0.0
220
0.0
230
1.0
 70
    24
 71
     3
 72
     8
 73
     4
 74
     0
 42
0.0000000001
 43
0.0000000001
 40
0.0
 40
0.0
 40
0.0
 40
0.0
 40
1.0
 40
1.0
 40
1.0
 40
1.0
 10
16.5287
 20
15.3163
 30
0.0
 10
16.5287
 20
15.3163
 30
0.0
 10
-24.2014
 20
15.3163
 30
0.0
 10
-24.2014
 20
15.3163
 30
0.0
  0
SPLINE
  5
57
330
1F
100
AcDbEntity
  8
AXIS
 62
   250
100
AcDbSpline
210
0.0
220
0.0
230
1.0
 70
    24
 71
     3
 72
     8
 73
     4
 74
     0
 42
0.0000000001
 43
0.0000000001
 40
0.0
 40
0.0
 40
0.0
 40
0.0
 40
1.0
 40
1.0
 40
1.0
 40
1.0
 10
-1.8877
 20
-3.6774
 30
0.0
 10
-1.8877
 20
-3.6774
 30
0.0
 10
-17.2557
 20
-3.6774
 30
0.0
 10
-17.2557
 20
-3.6774
 30
0.0
  0
SPLINE
  5
58
330
1F
100
AcDbEntity
  8
AXIS
 62
   250
100
AcDbSpline
210
0.0
220
0.0
230
1.0
 70
    24
 71
     3
 72
     8
 73
     4
 74
     0
 42
0.0000000001
 43
0.0000000001
 40
0.0
 40
0.0
 40
0.0
 40
0.0
 40
1.0
 40
1.0
 40
1.0
 40
1.0
 10
24.318
 20
14.7832
 30
0.0
 10
24.318
 20
14.7832
 30
0.0
 10
24.318
 20
12.2115
 30
0.0
 10
24.318
 20
12.2115
 30
0.0
  0
SPLINE
  5
59
330
1F
100
AcDbEntity
  8
AXIS
 62
   250
100
AcDbSpline
210
0.0
220
0.0
230
1.0
 70
    24
 71
     3
 72
     8
 73
     4
 74
     0
 42
0.0000000001
 43
0.0000000001
 40
0.0
 40
0.0
 40
0.0
 40
0.0
 40
1.0
 40
1.0
 40
1.0
 40
1.0
 10
24.9717
 20
-15.7056
 30
0.0
 10
24.9717
 20
-15.7056
 30
0.0
 10
24.9717
 20
-17.6403
 30
0.0
 10
24.9717
 20
-17.6403
 30
0.0
  0
SPLINE
  5
5A
330
1F
100
AcDbEntity
  8
AXIS
 62
   250
100
AcDbSpline
210
0.0
220
0.0
230
1.0
 70
    24
 71
     3
 72
     8
 73
     4
 74
     0
 42
0.0000000001
 43
0.0000000001
 40
0.0
 40
0.0
 40
0.0
 40
0.0
 40
1.0
 40
1.0
 40
1.0
 40
1.0
 10
25.3215
 20
14.7169
 30
0.0
 10
25.3215
 20
14.7169
 30
0.0
 10
25.3215
 20
12.0626
 30
0.0
 10
25.3215
 20
12.0626
 30
0.0
  0
SPLINE
  5
5B
330
1F
100
AcDbEntity
  8
AXIS
 62
   250
100
AcDbSpline
210
0.0
220
0.0
230
1.0
 70
    24
 71
     3
 72
     8
 73
     4
 74
     0
 42
0.0000000001
 43
0.0000000001
 40
0.0
 40
0.0
 40
0.0
 40
0.0
 40
1.0
 40
1.0
 40
1.0
 40
1.0
 10
25.2475
 20
-15.6561
 30
0.0
 10
25.2475
 20
-15.6561
 30
0.0
 10
25.2475
 20
-17.6403
 30
0.0
 10
25.2475
 20
-17.6403
 30
0.0
  0
SPLINE
  5
5C
330
1F
100
AcDbEntity
  8
AXIS
 62
   250
100
AcDbSpline
210
0.0
220
0.0
230
1.0
 70
    24
 71
     3
 72
     8
 73
     4
 74
     0
 42
0.0000000001
 43
0.0000000001
 40
0.0
 40
0.0
 40
0.0
 40
0.0
 40
1.0
 40
1.0
 40
1.0
 40
1.0
 10
28.2853
 20
-1.6748
 30
0.0
 10
28.2853
 20
-1.6748
 30
0.0
 10
28.2853
 20
-6.5184
 30
0.0
 10
28.2853
 20
-6.5184
 30
0.0
  0
SPLINE
  5
5D
330
1F
100
AcDbEntity
  8
AXIS
 62
   250
100
AcDbSpline
210
0.0
220
0.0
230
1.0
 70
    24
 71
     3
 72
     8
 73
     4
 74
     0
 42
0.0000000001
 43
0.0000000001
 40
0.0
 40
0.0
 40
0.0
 40
0.0
 40
1.0
 40
1.0
 40
1.0
 40
1.0
 10
29.3496
 20
14.4173
 30
0.0
 10
29.3496
 20
14.4173
 30
0.0
 10
19.9899
 20
14.4173
 30
0.0
 10
19.9899
 20
14.4173
 30
0.0
  0
SPLINE
  5
5E
330
1F
100
AcDbEntity
  8
AXIS
 62
   250
100
AcDbSpline
210
0.0
220
0.0
230
1.0
 70
    24
 71
     3
 72
     8
 73
     4
 74
     0
 42
0.0000000001
 43
0.0000000001
 40
0.0
 40
0.0
 40
0.0
 40
0.0
 40
1.0
 40
1.0
 40
1.0
 40
1.0
 10
29.3088
 20
-17.2331
 30
0.0
 10
29.3088
 20
-17.2331
 30
0.0
 10
19.1388
 20
-17.2331
 30
0.0
 10
19.1388
 20
-17.2331
 30
0.0
  0
SPLINE
  5
5F
330
1F
100
AcDbEntity
  8
AXIS
 62
   250
100
AcDbSpline
210
0.0
220
0.0
230
1.0
 70
    24
 71
     3
 72
     8
 73
     4
 74
     0
 42
0.0000000001
 43
0.0000000001
 40
0.0
 40
0.0
 40
0.0
 40
0.0
 40
1.0
 40
1.0
 40
1.0
 40
1.0
 10
31.9716
 20
-2.0026
 30
0.0
 10
31.9716
 20
-2.0026
 30
0.0
 10
21.156
 20
-2.0026
 30
0.0
 10
21.156
 20
-2.0026
 30
0.0
  0
SPLINE
  5
60
330
1F
100
AcDbEntity
  8
AXIS
 62
   250
100
AcDbSpline
210
0.0
220
0.0
230
1.0
 70
    11
 71
     3
 72
    92
 73
    88
 74
     0
 42
0.0000000001
 43
0.0000000001
 40
0.0
 40
0.0
 40
0.0
 40
0.0
 40
0.0434782608695652
 40
0.0434782608695652
 40
0.0434782608695652
 40
0.0434782608695652
 40
0.0869565217391304
 40
0.0869565217391304
 40
0.0869565217391304
 40
0.0869565217391304
 40
0.1304347826086956
 40
0.1304347826086956
 40
0.1304347826086956
 40
0.1304347826086956
 40
0.1739130434782609
 40
0.1739130434782609
 40
0.1739130434782609
 40
0.1739130434782609
 40
0.2173913043478261
 40
0.2173913043478261
 40
0.2173913043478261
 40
0.2173913043478261
 40
0.2608695652173913
 40
0.2608695652173913
 40
0.2608695652173913
 40
0.2608695652173913
 40
0.3043478260869565
 40
0.3043478260869565
 40
0.3043478260869565
 40
0.3043478260869565
 40
0.3478260869565217
 40
0.3478260869565217
 40
0.3478260869565217
 40
0.3478260869565217
 40
0.391304347826087
 40
0.391304347826087
 40
0.391304347826087
 40
0.391304347826087
 40
0.4347826086956522
 40
0.4347826086956522
 40
0.4347826086956522
 40
0.4347826086956522
 40
0.4782608695652174
 40
0.4782608695652174
 40
0.4782608695652174
 40
0.4782608695652174
 40
0.5217391304347826
 40
0.5217391304347826
 40
0.5217391304347826
 40
0.5217391304347826
 40
0.5652173913043478
 40
0.5652173913043478
 40
0.5652173913043478
 40
0.5652173913043478
 40
0.6086956521739131
 40
0.6086956521739131
 40
0.6086956521739131
 40
0.6086956521739131
 40
0.6521739130434783
 40
0.6521739130434783
 40
0.6521739130434783
 40
0.6521739130434783
 40
0.6956521739130435
 40
0.6956521739130435
 40
0.6956521739130435
 40
0.6956521739130435
 40
0.7391304347826086
 40
0.7391304347826086
 40
0.7391304347826086
 40
0.7391304347826086
 40
0.782608695652174
 40
0.782608695652174
 40
0.782608695652174
 40
0.782608695652174
 40
0.8260869565217391
 40
0.8260869565217391
 40
0.8260869565217391
 40
0.8260869565217391
 40
0.8695652173913043
 40
0.8695652173913043
 40
0.8695652173913043
 40
0.8695652173913043
 40
0.9130434782608695
 40
0.9130434782608695
 40
0.9130434782608695
 40
0.9130434782608695
 40
1.0
 40
1.0
 40
1.0
 40
1.0
 10
24.2493
 20
15.7116
 30
0.0
 10
24.2493
 20
15.7116
 30
0.0
 10
24.5099
 20
15.7337
 30
0.0
 10
24.5099
 20
15.7337
 30
0.0
 10
24.5099
 20
15.7337
 30
0.0
 10
24.5292
 20
15.6067
 30
0.0
 10
24.5739
 20
15.5117
 30
0.0
 10
24.644
 20
15.4477
 30
0.0
 10
24.644
 20
15.4477
 30
0.0
 10
24.7145
 20
15.3837
 30
0.0
 10
24.7992
 20
15.3517
 30
0.0
 10
24.8984
 20
15.3517
 30
0.0
 10
24.8984
 20
15.3517
 30
0.0
 10
25.0179
 20
15.3517
 30
0.0
 10
25.119
 20
15.3969
 30
0.0
 10
25.2013
 20
15.4867
 30
0.0
 10
25.2013
 20
15.4867
 30
0.0
 10
25.2841
 20
15.577
 30
0.0
 10
25.3255
 20
15.6965
 30
0.0
 10
25.3255
 20
15.8451
 30
0.0
 10
25.3255
 20
15.8451
 30
0.0
 10
25.3255
 20
15.9867
 30
0.0
 10
25.286
 20
16.0982
 30
0.0
 10
25.2065
 20
16.18
 30
0.0
 10
25.2065
 20
16.18
 30
0.0
 10
25.127
 20
16.2619
 30
0.0
 10
25.0231
 20
16.3028
 30
0.0
 10
24.8942
 20
16.3028
 30
0.0
 10
24.8942
 20
16.3028
 30
0.0
 10
24.8142
 20
16.3028
 30
0.0
 10
24.7423
 20
16.2845
 30
0.0
 10
24.6778
 20
16.2483
 30
0.0
 10
24.6778
 20
16.2483
 30
0.0
 10
24.6134
 20
16.212
 30
0.0
 10
24.5631
 20
16.165
 30
0.0
 10
24.5264
 20
16.1071
 30
0.0
 10
24.5264
 20
16.1071
 30
0.0
 10
24.5264
 20
16.1071
 30
0.0
 10
24.2935
 20
16.1372
 30
0.0
 10
24.2935
 20
16.1372
 30
0.0
 10
24.2935
 20
16.1372
 30
0.0
 10
24.2935
 20
16.1372
 30
0.0
 10
24.4892
 20
17.1749
 30
0.0
 10
24.4892
 20
17.1749
 30
0.0
 10
24.4892
 20
17.1749
 30
0.0
 10
24.4892
 20
17.1749
 30
0.0
 10
25.4939
 20
17.1749
 30
0.0
 10
25.4939
 20
17.1749
 30
0.0
 10
25.4939
 20
17.1749
 30
0.0
 10
25.4939
 20
17.1749
 30
0.0
 10
25.4939
 20
16.9378
 30
0.0
 10
25.4939
 20
16.9378
 30
0.0
 10
25.4939
 20
16.9378
 30
0.0
 10
25.4939
 20
16.9378
 30
0.0
 10
24.6877
 20
16.9378
 30
0.0
 10
24.6877
 20
16.9378
 30
0.0
 10
24.6877
 20
16.9378
 30
0.0
 10
24.6877
 20
16.9378
 30
0.0
 10
24.5786
 20
16.395
 30
0.0
 10
24.5786
 20
16.395
 30
0.0
 10
24.5786
 20
16.395
 30
0.0
 10
24.6999
 20
16.4797
 30
0.0
 10
24.8274
 20
16.522
 30
0.0
 10
24.9605
 20
16.522
 30
0.0
 10
24.9605
 20
16.522
 30
0.0
 10
25.1369
 20
16.522
 30
0.0
 10
25.2855
 20
16.4609
 30
0.0
 10
25.4069
 20
16.3386
 30
0.0
 10
25.4069
 20
16.3386
 30
0.0
 10
25.5282
 20
16.2163
 30
0.0
 10
25.5889
 20
16.0592
 30
0.0
 10
25.5889
 20
15.8673
 30
0.0
 10
25.5889
 20
15.8673
 30
0.0
 10
25.5889
 20
15.6843
 30
0.0
 10
25.5353
 20
15.5262
 30
0.0
 10
25.429
 20
15.3931
 30
0.0
 10
25.429
 20
15.3931
 30
0.0
 10
25.2992
 20
15.2299
 30
0.0
 10
25.1223
 20
15.1481
 30
0.0
 10
24.8984
 20
15.1481
 30
0.0
 10
24.8984
 20
15.1481
 30
0.0
 10
24.7145
 20
15.1481
 30
0.0
 10
24.5645
 20
15.1993
 30
0.0
 10
24.4483
 20
15.3023
 30
0.0
 10
24.4483
 20
15.3023
 30
0.0
 10
24.3321
 20
15.4054
 30
0.0
 10
24.2658
 20
15.5418
 30
0.0
 10
24.2493
 20
15.7116
 30
0.0
  0
SPLINE
  5
61
330
1F
100
AcDbEntity
  8
AXIS
 62
   250
100
AcDbSpline
210
0.0
220
0.0
230
1.0
 70
    11
 71
     3
 72
    92
 73
    88
 74
     0
 42
0.0000000001
 43
0.0000000001
 40
0.0
 40
0.0
 40
0.0
 40
0.0
 40
0.0434782608695652
 40
0.0434782608695652
 40
0.0434782608695652
 40
0.0434782608695652
 40
0.0869565217391304
 40
0.0869565217391304
 40
0.0869565217391304
 40
0.0869565217391304
 40
0.1304347826086956
 40
0.1304347826086956
 40
0.1304347826086956
 40
0.1304347826086956
 40
0.1739130434782609
 40
0.1739130434782609
 40
0.1739130434782609
 40
0.1739130434782609
 40
0.2173913043478261
 40
0.2173913043478261
 40
0.2173913043478261
 40
0.2173913043478261
 40
0.2608695652173913
 40
0.2608695652173913
 40
0.2608695652173913
 40
0.2608695652173913
 40
0.3043478260869565
 40
0.3043478260869565
 40
0.3043478260869565
 40
0.3043478260869565
 40
0.3478260869565217
 40
0.3478260869565217
 40
0.3478260869565217
 40
0.3478260869565217
 40
0.391304347826087
 40
0.391304347826087
 40
0.391304347826087
 40
0.391304347826087
 40
0.4347826086956522
 40
0.4347826086956522
 40
0.4347826086956522
 40
0.4347826086956522
 40
0.4782608695652174
 40
0.4782608695652174
 40
0.4782608695652174
 40
0.4782608695652174
 40
0.5217391304347826
 40
0.5217391304347826
 40
0.5217391304347826
 40
0.5217391304347826
 40
0.5652173913043478
 40
0.5652173913043478
 40
0.5652173913043478
 40
0.5652173913043478
 40
0.6086956521739131
 40
0.6086956521739131
 40
0.6086956521739131
 40
0.6086956521739131
 40
0.6521739130434783
 40
0.6521739130434783
 40
0.6521739130434783
 40
0.6521739130434783
 40
0.6956521739130435
 40
0.6956521739130435
 40
0.6956521739130435
 40
0.6956521739130435
 40
0.7391304347826086
 40
0.7391304347826086
 40
0.7391304347826086
 40
0.7391304347826086
 40
0.782608695652174
 40
0.782608695652174
 40
0.782608695652174
 40
0.782608695652174
 40
0.8260869565217391
 40
0.8260869565217391
 40
0.8260869565217391
 40
0.8260869565217391
 40
0.8695652173913043
 40
0.8695652173913043
 40
0.8695652173913043
 40
0.8695652173913043
 40
0.9130434782608695
 40
0.9130434782608695
 40
0.9130434782608695
 40
0.9130434782608695
 40
1.0
 40
1.0
 40
1.0
 40
1.0
 10
21.4029
 20
-16.4445
 30
0.0
 10
21.4029
 20
-16.4445
 30
0.0
 10
21.4029
 20
-16.683
 30
0.0
 10
21.4029
 20
-16.683
 30
0.0
 10
21.4029
 20
-16.683
 30
0.0
 10
21.4029
 20
-16.683
 30
0.0
 10
20.0675
 20
-16.683
 30
0.0
 10
20.0675
 20
-16.683
 30
0.0
 10
20.0675
 20
-16.683
 30
0.0
 10
20.0656
 20
-16.6233
 30
0.0
 10
20.075
 20
-16.5659
 30
0.0
 10
20.0962
 20
-16.5108
 30
0.0
 10
20.0962
 20
-16.5108
 30
0.0
 10
20.1301
 20
-16.4196
 30
0.0
 10
20.1846
 20
-16.3302
 30
0.0
 10
20.2594
 20
-16.2418
 30
0.0
 10
20.2594
 20
-16.2418
 30
0.0
 10
20.3347
 20
-16.1538
 30
0.0
 10
20.4429
 20
-16.0518
 30
0.0
 10
20.584
 20
-15.9361
 30
0.0
 10
20.584
 20
-15.9361
 30
0.0
 10
20.8036
 20
-15.7559
 30
0.0
 10
20.9523
 20
-15.6134
 30
0.0
 10
21.0294
 20
-15.508
 30
0.0
 10
21.0294
 20
-15.508
 30
0.0
 10
21.1065
 20
-15.4031
 30
0.0
 10
21.1451
 20
-15.3034
 30
0.0
 10
21.1451
 20
-15.2098
 30
0.0
 10
21.1451
 20
-15.2098
 30
0.0
 10
21.1451
 20
-15.1115
 30
0.0
 10
21.1098
 20
-15.0287
 30
0.0
 10
21.0398
 20
-14.961
 30
0.0
 10
21.0398
 20
-14.961
 30
0.0
 10
20.9692
 20
-14.8937
 30
0.0
 10
20.8775
 20
-14.8599
 30
0.0
 10
20.7646
 20
-14.8599
 30
0.0
 10
20.7646
 20
-14.8599
 30
0.0
 10
20.6451
 20
-14.8599
 30
0.0
 10
20.5496
 20
-14.8956
 30
0.0
 10
20.4781
 20
-14.9676
 30
0.0
 10
20.4781
 20
-14.9676
 30
0.0
 10
20.4062
 20
-15.0391
 30
0.0
 10
20.37
 20
-15.1383
 30
0.0
 10
20.369
 20
-15.2648
 30
0.0
 10
20.369
 20
-15.2648
 30
0.0
 10
20.369
 20
-15.2648
 30
0.0
 10
20.1141
 20
-15.239
 30
0.0
 10
20.1141
 20
-15.239
 30
0.0
 10
20.1141
 20
-15.239
 30
0.0
 10
20.1315
 20
-15.0485
 30
0.0
 10
20.1973
 20
-14.9036
 30
0.0
 10
20.3112
 20
-14.8039
 30
0.0
 10
20.3112
 20
-14.8039
 30
0.0
 10
20.425
 20
-14.7042
 30
0.0
 10
20.5783
 20
-14.6543
 30
0.0
 10
20.7702
 20
-14.6543
 30
0.0
 10
20.7702
 20
-14.6543
 30
0.0
 10
20.964
 20
-14.6543
 30
0.0
 10
21.1174
 20
-14.7084
 30
0.0
 10
21.2303
 20
-14.8156
 30
0.0
 10
21.2303
 20
-14.8156
 30
0.0
 10
21.3436
 20
-14.9234
 30
0.0
 10
21.4001
 20
-15.0565
 30
0.0
 10
21.4001
 20
-15.2155
 30
0.0
 10
21.4001
 20
-15.2155
 30
0.0
 10
21.4001
 20
-15.2964
 30
0.0
 10
21.3836
 20
-15.3759
 30
0.0
 10
21.3502
 20
-15.4539
 30
0.0
 10
21.3502
 20
-15.4539
 30
0.0
 10
21.3173
 20
-15.532
 30
0.0
 10
21.2622
 20
-15.6143
 30
0.0
 10
21.1856
 20
-15.7004
 30
0.0
 10
21.1856
 20
-15.7004
 30
0.0
 10
21.1089
 20
-15.787
 30
0.0
 10
20.9814
 20
-15.9055
 30
0.0
 10
20.8032
 20
-16.056
 30
0.0
 10
20.8032
 20
-16.056
 30
0.0
 10
20.6545
 20
-16.1811
 30
0.0
 10
20.559
 20
-16.2658
 30
0.0
 10
20.5167
 20
-16.3105
 30
0.0
 10
20.5167
 20
-16.3105
 30
0.0
 10
20.4744
 20
-16.3547
 30
0.0
 10
20.4396
 20
-16.3994
 30
0.0
 10
20.4118
 20
-16.4445
 30
0.0
 10
20.4118
 20
-16.4445
 30
0.0
 10
20.4118
 20
-16.4445
 30
0.0
 10
21.4029
 20
-16.4445
 30
0.0
 10
21.4029
 20
-16.4445
 30
0.0
  0
SPLINE
  5
62
330
1F
100
AcDbEntity
  8
AXIS
 62
   250
100
AcDbSpline
210
0.0
220
0.0
230
1.0
 70
    11
 71
     3
 72
    40
 73
    36
 74
     0
 42
0.0000000001
 43
0.0000000001
 40
0.0
 40
0.0
 40
0.0
 40
0.0
 40
0.1
 40
0.1
 40
0.1
 40
0.1
 40
0.2
 40
0.2
 40
0.2
 40
0.2
 40
0.3
 40
0.3
 40
0.3
 40
0.3
 40
0.4
 40
0.4
 40
0.4
 40
0.4
 40
0.5
 40
0.5
 40
0.5
 40
0.5
 40
0.6
 40
0.6
 40
0.6
 40
0.6
 40
0.7
 40
0.7
 40
0.7
 40
0.7
 40
0.8
 40
0.8
 40
0.8
 40
0.8
 40
1.0
 40
1.0
 40
1.0
 40
1.0
 10
26.5624
 20
-1.1658
 30
0.0
 10
26.5624
 20
-1.1658
 30
0.0
 10
26.3145
 20
-1.1658
 30
0.0
 10
26.3145
 20
-1.1658
 30
0.0
 10
26.3145
 20
-1.1658
 30
0.0
 10
26.3145
 20
-1.1658
 30
0.0
 10
26.3145
 20
0.4146
 30
0.0
 10
26.3145
 20
0.4146
 30
0.0
 10
26.3145
 20
0.4146
 30
0.0
 10
26.2547
 20
0.3577
 30
0.0
 10
26.1767
 20
0.3008
 30
0.0
 10
26.0798
 20
0.2439
 30
0.0
 10
26.0798
 20
0.2439
 30
0.0
 10
25.9824
 20
0.187
 30
0.0
 10
25.8954
 20
0.1442
 30
0.0
 10
25.8182
 20
0.1159
 30
0.0
 10
25.8182
 20
0.1159
 30
0.0
 10
25.8182
 20
0.1159
 30
0.0
 10
25.8182
 20
0.3554
 30
0.0
 10
25.8182
 20
0.3554
 30
0.0
 10
25.8182
 20
0.3554
 30
0.0
 10
25.957
 20
0.4207
 30
0.0
 10
26.0784
 20
0.4998
 30
0.0
 10
26.1823
 20
0.5924
 30
0.0
 10
26.1823
 20
0.5924
 30
0.0
 10
26.2858
 20
0.6856
 30
0.0
 10
26.3596
 20
0.7754
 30
0.0
 10
26.4029
 20
0.8629
 30
0.0
 10
26.4029
 20
0.8629
 30
0.0
 10
26.4029
 20
0.8629
 30
0.0
 10
26.5624
 20
0.8629
 30
0.0
 10
26.5624
 20
0.8629
 30
0.0
 10
26.5624
 20
0.8629
 30
0.0
 10
26.5624
 20
0.8629
 30
0.0
 10
26.5624
 20
-1.1658
 30
0.0
 10
26.5624
 20
-1.1658
 30
0.0
  0
SPLINE
  5
63
330
1F
100
AcDbEntity
  8
AXIS
 62
   250
100
AcDbSpline
210
0.0
220
0.0
230
1.0
 70
    11
 71
     3
 72
    92
 73
    88
 74
     0
 42
0.0000000001
 43
0.0000000001
 40
0.0
 40
0.0
 40
0.0
 40
0.0
 40
0.0434782608695652
 40
0.0434782608695652
 40
0.0434782608695652
 40
0.0434782608695652
 40
0.0869565217391304
 40
0.0869565217391304
 40
0.0869565217391304
 40
0.0869565217391304
 40
0.1304347826086956
 40
0.1304347826086956
 40
0.1304347826086956
 40
0.1304347826086956
 40
0.1739130434782609
 40
0.1739130434782609
 40
0.1739130434782609
 40
0.1739130434782609
 40
0.2173913043478261
 40
0.2173913043478261
 40
0.2173913043478261
 40
0.2173913043478261
 40
0.2608695652173913
 40
0.2608695652173913
 40
0.2608695652173913
 40
0.2608695652173913
 40
0.3043478260869565
 40
0.3043478260869565
 40
0.3043478260869565
 40
0.3043478260869565
 40
0.3478260869565217
 40
0.3478260869565217
 40
0.3478260869565217
 40
0.3478260869565217
 40
0.391304347826087
 40
0.391304347826087
 40
0.391304347826087
 40
0.391304347826087
 40
0.4347826086956522
 40
0.4347826086956522
 40
0.4347826086956522
 40
0.4347826086956522
 40
0.4782608695652174
 40
0.4782608695652174
 40
0.4782608695652174
 40
0.4782608695652174
 40
0.5217391304347826
 40
0.5217391304347826
 40
0.5217391304347826
 40
0.5217391304347826
 40
0.5652173913043478
 40
0.5652173913043478
 40
0.5652173913043478
 40
0.5652173913043478
 40
0.6086956521739131
 40
0.6086956521739131
 40
0.6086956521739131
 40
0.6086956521739131
 40
0.6521739130434783
 40
0.6521739130434783
 40
0.6521739130434783
 40
0.6521739130434783
 40
0.6956521739130435
 40
0.6956521739130435
 40
0.6956521739130435
 40
0.6956521739130435
 40
0.7391304347826086
 40
0.7391304347826086
 40
0.7391304347826086
 40
0.7391304347826086
 40
0.782608695652174
 40
0.782608695652174
 40
0.782608695652174
 40
0.782608695652174
 40
0.8260869565217391
 40
0.8260869565217391
 40
0.8260869565217391
 40
0.8260869565217391
 40
0.8695652173913043
 40
0.8695652173913043
 40
0.8695652173913043
 40
0.8695652173913043
 40
0.9130434782608695
 40
0.9130434782608695
 40
0.9130434782608695
 40
0.9130434782608695
 40
1.0
 40
1.0
 40
1.0
 40
1.0
 10
27.1978
 20
-0.6366
 30
0.0
 10
27.1978
 20
-0.6366
 30
0.0
 10
27.4584
 20
-0.6145
 30
0.0
 10
27.4584
 20
-0.6145
 30
0.0
 10
27.4584
 20
-0.6145
 30
0.0
 10
27.4777
 20
-0.7415
 30
0.0
 10
27.5224
 20
-0.8365
 30
0.0
 10
27.5925
 20
-0.9005
 30
0.0
 10
27.5925
 20
-0.9005
 30
0.0
 10
27.663
 20
-0.9645
 30
0.0
 10
27.7477
 20
-0.9965
 30
0.0
 10
27.8469
 20
-0.9965
 30
0.0
 10
27.8469
 20
-0.9965
 30
0.0
 10
27.9664
 20
-0.9965
 30
0.0
 10
28.0675
 20
-0.9513
 30
0.0
 10
28.1498
 20
-0.8615
 30
0.0
 10
28.1498
 20
-0.8615
 30
0.0
 10
28.2326
 20
-0.7712
 30
0.0
 10
28.274
 20
-0.6517
 30
0.0
 10
28.274
 20
-0.5031
 30
0.0
 10
28.274
 20
-0.5031
 30
0.0
 10
28.274
 20
-0.3615
 30
0.0
 10
28.2345
 20
-0.25
 30
0.0
 10
28.155
 20
-0.1682
 30
0.0
 10
28.155
 20
-0.1682
 30
0.0
 10
28.0755
 20
-0.0863
 30
0.0
 10
27.9716
 20
-0.0454
 30
0.0
 10
27.8427
 20
-0.0454
 30
0.0
 10
27.8427
 20
-0.0454
 30
0.0
 10
27.7627
 20
-0.0454
 30
0.0
 10
27.6908
 20
-0.0637
 30
0.0
 10
27.6263
 20
-0.0999
 30
0.0
 10
27.6263
 20
-0.0999
 30
0.0
 10
27.5619
 20
-0.1362
 30
0.0
 10
27.5116
 20
-0.1832
 30
0.0
 10
27.4749
 20
-0.2411
 30
0.0
 10
27.4749
 20
-0.2411
 30
0.0
 10
27.4749
 20
-0.2411
 30
0.0
 10
27.242
 20
-0.211
 30
0.0
 10
27.242
 20
-0.211
 30
0.0
 10
27.242
 20
-0.211
 30
0.0
 10
27.242
 20
-0.211
 30
0.0
 10
27.4377
 20
0.8267
 30
0.0
 10
27.4377
 20
0.8267
 30
0.0
 10
27.4377
 20
0.8267
 30
0.0
 10
27.4377
 20
0.8267
 30
0.0
 10
28.4424
 20
0.8267
 30
0.0
 10
28.4424
 20
0.8267
 30
0.0
 10
28.4424
 20
0.8267
 30
0.0
 10
28.4424
 20
0.8267
 30
0.0
 10
28.4424
 20
0.5896
 30
0.0
 10
28.4424
 20
0.5896
 30
0.0
 10
28.4424
 20
0.5896
 30
0.0
 10
28.4424
 20
0.5896
 30
0.0
 10
27.6362
 20
0.5896
 30
0.0
 10
27.6362
 20
0.5896
 30
0.0
 10
27.6362
 20
0.5896
 30
0.0
 10
27.6362
 20
0.5896
 30
0.0
 10
27.5271
 20
0.0468
 30
0.0
 10
27.5271
 20
0.0468
 30
0.0
 10
27.5271
 20
0.0468
 30
0.0
 10
27.6484
 20
0.1315
 30
0.0
 10
27.7759
 20
0.1738
 30
0.0
 10
27.909
 20
0.1738
 30
0.0
 10
27.909
 20
0.1738
 30
0.0
 10
28.0854
 20
0.1738
 30
0.0
 10
28.234
 20
0.1127
 30
0.0
 10
28.3554
 20
-0.0096
 30
0.0
 10
28.3554
 20
-0.0096
 30
0.0
 10
28.4767
 20
-0.1319
 30
0.0
 10
28.5374
 20
-0.289
 30
0.0
 10
28.5374
 20
-0.4809
 30
0.0
 10
28.5374
 20
-0.4809
 30
0.0
 10
28.5374
 20
-0.6639
 30
0.0
 10
28.4838
 20
-0.822
 30
0.0
 10
28.3775
 20
-0.9551
 30
0.0
 10
28.3775
 20
-0.9551
 30
0.0
 10
28.2477
 20
-1.1183
 30
0.0
 10
28.0708
 20
-1.2001
 30
0.0
 10
27.8469
 20
-1.2001
 30
0.0
 10
27.8469
 20
-1.2001
 30
0.0
 10
27.663
 20
-1.2001
 30
0.0
 10
27.513
 20
-1.1489
 30
0.0
 10
27.3968
 20
-1.0459
 30
0.0
 10
27.3968
 20
-1.0459
 30
0.0
 10
27.2806
 20
-0.9428
 30
0.0
 10
27.2143
 20
-0.8064
 30
0.0
 10
27.1978
 20
-0.6366
 30
0.0
  0
SPLINE
  5
64
330
1F
100
AcDbEntity
  8
AXIS
 62
   250
100
AcDbSpline
210
0.0
220
0.0
230
1.0
 70
    11
 71
     3
 72
    92
 73
    88
 74
     0
 42
0.0000000001
 43
0.0000000001
 40
0.0
 40
0.0
 40
0.0
 40
0.0
 40
0.0434782608695652
 40
0.0434782608695652
 40
0.0434782608695652
 40
0.0434782608695652
 40
0.0869565217391304
 40
0.0869565217391304
 40
0.0869565217391304
 40
0.0869565217391304
 40
0.1304347826086956
 40
0.1304347826086956
 40
0.1304347826086956
 40
0.1304347826086956
 40
0.1739130434782609
 40
0.1739130434782609
 40
0.1739130434782609
 40
0.1739130434782609
 40
0.2173913043478261
 40
0.2173913043478261
 40
0.2173913043478261
 40
0.2173913043478261
 40
0.2608695652173913
 40
0.2608695652173913
 40
0.2608695652173913
 40
0.2608695652173913
 40
0.3043478260869565
 40
0.3043478260869565
 40
0.3043478260869565
 40
0.3043478260869565
 40
0.3478260869565217
 40
0.3478260869565217
 40
0.3478260869565217
 40
0.3478260869565217
 40
0.391304347826087
 40
0.391304347826087
 40
0.391304347826087
 40
0.391304347826087
 40
0.4347826086956522
 40
0.4347826086956522
 40
0.4347826086956522
 40
0.4347826086956522
 40
0.4782608695652174
 40
0.4782608695652174
 40
0.4782608695652174
 40
0.4782608695652174
 40
0.5217391304347826
 40
0.5217391304347826
 40
0.5217391304347826
 40
0.5217391304347826
 40
0.5652173913043478
 40
0.5652173913043478
 40
0.5652173913043478
 40
0.5652173913043478
 40
0.6086956521739131
 40
0.6086956521739131
 40
0.6086956521739131
 40
0.6086956521739131
 40
0.6521739130434783
 40
0.6521739130434783
 40
0.6521739130434783
 40
0.6521739130434783
 40
0.6956521739130435
 40
0.6956521739130435
 40
0.6956521739130435
 40
0.6956521739130435
 40
0.7391304347826086
 40
0.7391304347826086
 40
0.7391304347826086
 40
0.7391304347826086
 40
0.782608695652174
 40
0.782608695652174
 40
0.782608695652174
 40
0.782608695652174
 40
0.8260869565217391
 40
0.8260869565217391
 40
0.8260869565217391
 40
0.8260869565217391
 40
0.8695652173913043
 40
0.8695652173913043
 40
0.8695652173913043
 40
0.8695652173913043
 40
0.9130434782608695
 40
0.9130434782608695
 40
0.9130434782608695
 40
0.9130434782608695
 40
1.0
 40
1.0
 40
1.0
 40
1.0
 10
-5.1649
 20
15.9496
 30
0.0
 10
-5.1649
 20
15.9496
 30
0.0
 10
-5.1649
 20
15.7111
 30
0.0
 10
-5.1649
 20
15.7111
 30
0.0
 10
-5.1649
 20
15.7111
 30
0.0
 10
-5.1649
 20
15.7111
 30
0.0
 10
-6.5003
 20
15.7111
 30
0.0
 10
-6.5003
 20
15.7111
 30
0.0
 10
-6.5003
 20
15.7111
 30
0.0
 10
-6.5022
 20
15.7708
 30
0.0
 10
-6.4928
 20
15.8282
 30
0.0
 10
-6.4716
 20
15.8833
 30
0.0
 10
-6.4716
 20
15.8833
 30
0.0
 10
-6.4377
 20
15.9745
 30
0.0
 10
-6.3832
 20
16.0639
 30
0.0
 10
-6.3084
 20
16.1523
 30
0.0
 10
-6.3084
 20
16.1523
 30
0.0
 10
-6.2331
 20
16.2403
 30
0.0
 10
-6.1249
 20
16.3423
 30
0.0
 10
-5.9838
 20
16.458
 30
0.0
 10
-5.9838
 20
16.458
 30
0.0
 10
-5.7642
 20
16.6382
 30
0.0
 10
-5.6155
 20
16.7807
 30
0.0
 10
-5.5384
 20
16.8861
 30
0.0
 10
-5.5384
 20
16.8861
 30
0.0
 10
-5.4613
 20
16.991
 30
0.0
 10
-5.4227
 20
17.0907
 30
0.0
 10
-5.4227
 20
17.1843
 30
0.0
 10
-5.4227
 20
17.1843
 30
0.0
 10
-5.4227
 20
17.2826
 30
0.0
 10
-5.458
 20
17.3654
 30
0.0
 10
-5.528
 20
17.4331
 30
0.0
 10
-5.528
 20
17.4331
 30
0.0
 10
-5.5986
 20
17.5004
 30
0.0
 10
-5.6903
 20
17.5342
 30
0.0
 10
-5.8032
 20
17.5342
 30
0.0
 10
-5.8032
 20
17.5342
 30
0.0
 10
-5.9227
 20
17.5342
 30
0.0
 10
-6.0182
 20
17.4985
 30
0.0
 10
-6.0897
 20
17.4265
 30
0.0
 10
-6.0897
 20
17.4265
 30
0.0
 10
-6.1616
 20
17.355
 30
0.0
 10
-6.1978
 20
17.2558
 30
0.0
 10
-6.1988
 20
17.1293
 30
0.0
 10
-6.1988
 20
17.1293
 30
0.0
 10
-6.1988
 20
17.1293
 30
0.0
 10
-6.4537
 20
17.1551
 30
0.0
 10
-6.4537
 20
17.1551
 30
0.0
 10
-6.4537
 20
17.1551
 30
0.0
 10
-6.4363
 20
17.3456
 30
0.0
 10
-6.3705
 20
17.4905
 30
0.0
 10
-6.2566
 20
17.5902
 30
0.0
 10
-6.2566
 20
17.5902
 30
0.0
 10
-6.1428
 20
17.6899
 30
0.0
 10
-5.9895
 20
17.7398
 30
0.0
 10
-5.7976
 20
17.7398
 30
0.0
 10
-5.7976
 20
17.7398
 30
0.0
 10
-5.6038
 20
17.7398
 30
0.0
 10
-5.4504
 20
17.6857
 30
0.0
 10
-5.3375
 20
17.5785
 30
0.0
 10
-5.3375
 20
17.5785
 30
0.0
 10
-5.2242
 20
17.4707
 30
0.0
 10
-5.1677
 20
17.3376
 30
0.0
 10
-5.1677
 20
17.1786
 30
0.0
 10
-5.1677
 20
17.1786
 30
0.0
 10
-5.1677
 20
17.0977
 30
0.0
 10
-5.1842
 20
17.0182
 30
0.0
 10
-5.2176
 20
16.9402
 30
0.0
 10
-5.2176
 20
16.9402
 30
0.0
 10
-5.2505
 20
16.8621
 30
0.0
 10
-5.3056
 20
16.7798
 30
0.0
 10
-5.3822
 20
16.6937
 30
0.0
 10
-5.3822
 20
16.6937
 30
0.0
 10
-5.4589
 20
16.6071
 30
0.0
 10
-5.5864
 20
16.4886
 30
0.0
 10
-5.7646
 20
16.3381
 30
0.0
 10
-5.7646
 20
16.3381
 30
0.0
 10
-5.9133
 20
16.213
 30
0.0
 10
-6.0088
 20
16.1283
 30
0.0
 10
-6.0511
 20
16.0836
 30
0.0
 10
-6.0511
 20
16.0836
 30
0.0
 10
-6.0934
 20
16.0394
 30
0.0
 10
-6.1282
 20
15.9947
 30
0.0
 10
-6.156
 20
15.9496
 30
0.0
 10
-6.156
 20
15.9496
 30
0.0
 10
-6.156
 20
15.9496
 30
0.0
 10
-5.1649
 20
15.9496
 30
0.0
 10
-5.1649
 20
15.9496
 30
0.0
  0
SPLINE
  5
65
330
1F
100
AcDbEntity
  8
AXIS
 62
   250
100
AcDbSpline
210
0.0
220
0.0
230
1.0
 70
    11
 71
     3
 72
    48
 73
    44
 74
     0
 42
0.0000000001
 43
0.0000000001
 40
0.0
 40
0.0
 40
0.0
 40
0.0
 40
0.0833333333333333
 40
0.0833333333333333
 40
0.0833333333333333
 40
0.0833333333333333
 40
0.1666666666666667
 40
0.1666666666666667
 40
0.1666666666666667
 40
0.1666666666666667
 40
0.25
 40
0.25
 40
0.25
 40
0.25
 40
0.3333333333333333
 40
0.3333333333333333
 40
0.3333333333333333
 40
0.3333333333333333
 40
0.4166666666666667
 40
0.4166666666666667
 40
0.4166666666666667
 40
0.4166666666666667
 40
0.5
 40
0.5
 40
0.5
 40
0.5
 40
0.5833333333333334
 40
0.5833333333333334
 40
0.5833333333333334
 40
0.5833333333333334
 40
0.6666666666666666
 40
0.6666666666666666
 40
0.6666666666666666
 40
0.6666666666666666
 40
0.75
 40
0.75
 40
0.75
 40
0.75
 40
0.8333333333333334
 40
0.8333333333333334
 40
0.8333333333333334
 40
0.8333333333333334
 40
1.0
 40
1.0
 40
1.0
 40
1.0
 10
-4.1043
 20
15.7111
 30
0.0
 10
-4.1043
 20
15.7111
 30
0.0
 10
-4.1043
 20
16.1946
 30
0.0
 10
-4.1043
 20
16.1946
 30
0.0
 10
-4.1043
 20
16.1946
 30
0.0
 10
-4.1043
 20
16.1946
 30
0.0
 10
-4.9806
 20
16.1946
 30
0.0
 10
-4.9806
 20
16.1946
 30
0.0
 10
-4.9806
 20
16.1946
 30
0.0
 10
-4.9806
 20
16.1946
 30
0.0
 10
-4.9806
 20
16.4223
 30
0.0
 10
-4.9806
 20
16.4223
 30
0.0
 10
-4.9806
 20
16.4223
 30
0.0
 10
-4.9806
 20
16.4223
 30
0.0
 10
-4.0586
 20
17.7313
 30
0.0
 10
-4.0586
 20
17.7313
 30
0.0
 10
-4.0586
 20
17.7313
 30
0.0
 10
-4.0586
 20
17.7313
 30
0.0
 10
-3.8559
 20
17.7313
 30
0.0
 10
-3.8559
 20
17.7313
 30
0.0
 10
-3.8559
 20
17.7313
 30
0.0
 10
-3.8559
 20
17.7313
 30
0.0
 10
-3.8559
 20
16.4223
 30
0.0
 10
-3.8559
 20
16.4223
 30
0.0
 10
-3.8559
 20
16.4223
 30
0.0
 10
-3.8559
 20
16.4223
 30
0.0
 10
-3.5831
 20
16.4223
 30
0.0
 10
-3.5831
 20
16.4223
 30
0.0
 10
-3.5831
 20
16.4223
 30
0.0
 10
-3.5831
 20
16.4223
 30
0.0
 10
-3.5831
 20
16.1946
 30
0.0
 10
-3.5831
 20
16.1946
 30
0.0
 10
-3.5831
 20
16.1946
 30
0.0
 10
-3.5831
 20
16.1946
 30
0.0
 10
-3.8559
 20
16.1946
 30
0.0
 10
-3.8559
 20
16.1946
 30
0.0
 10
-3.8559
 20
16.1946
 30
0.0
 10
-3.8559
 20
16.1946
 30
0.0
 10
-3.8559
 20
15.7111
 30
0.0
 10
-3.8559
 20
15.7111
 30
0.0
 10
-3.8559
 20
15.7111
 30
0.0
 10
-3.8559
 20
15.7111
 30
0.0
 10
-4.1043
 20
15.7111
 30
0.0
 10
-4.1043
 20
15.7111
 30
0.0
  0
SPLINE
  5
66
330
1F
100
AcDbEntity
  8
AXIS
 62
   250
100
AcDbSpline
210
0.0
220
0.0
230
1.0
 70
    11
 71
     3
 72
    16
 73
    12
 74
     0
 42
0.0000000001
 43
0.0000000001
 40
0.0
 40
0.0
 40
0.0
 40
0.0
 40
0.25
 40
0.25
 40
0.25
 40
0.25
 40
0.5
 40
0.5
 40
0.5
 40
0.5
 40
1.0
 40
1.0
 40
1.0
 40
1.0
 10
-4.1043
 20
16.4223
 30
0.0
 10
-4.1043
 20
16.4223
 30
0.0
 10
-4.1043
 20
17.3329
 30
0.0
 10
-4.1043
 20
17.3329
 30
0.0
 10
-4.1043
 20
17.3329
 30
0.0
 10
-4.1043
 20
17.3329
 30
0.0
 10
-4.7364
 20
16.4223
 30
0.0
 10
-4.7364
 20
16.4223
 30
0.0
 10
-4.7364
 20
16.4223
 30
0.0
 10
-4.7364
 20
16.4223
 30
0.0
 10
-4.1043
 20
16.4223
 30
0.0
 10
-4.1043
 20
16.4223
 30
0.0
  0
SPLINE
  5
67
330
1F
100
AcDbEntity
  8
AXIS
 62
   250
100
AcDbSpline
210
0.0
220
0.0
230
1.0
 70
    11
 71
     3
 72
    48
 73
    44
 74
     0
 42
0.0000000001
 43
0.0000000001
 40
0.0
 40
0.0
 40
0.0
 40
0.0
 40
0.0833333333333333
 40
0.0833333333333333
 40
0.0833333333333333
 40
0.0833333333333333
 40
0.1666666666666667
 40
0.1666666666666667
 40
0.1666666666666667
 40
0.1666666666666667
 40
0.25
 40
0.25
 40
0.25
 40
0.25
 40
0.3333333333333333
 40
0.3333333333333333
 40
0.3333333333333333
 40
0.3333333333333333
 40
0.4166666666666667
 40
0.4166666666666667
 40
0.4166666666666667
 40
0.4166666666666667
 40
0.5
 40
0.5
 40
0.5
 40
0.5
 40
0.5833333333333334
 40
0.5833333333333334
 40
0.5833333333333334
 40
0.5833333333333334
 40
0.6666666666666666
 40
0.6666666666666666
 40
0.6666666666666666
 40
0.6666666666666666
 40
0.75
 40
0.75
 40
0.75
 40
0.75
 40
0.8333333333333334
 40
0.8333333333333334
 40
0.8333333333333334
 40
0.8333333333333334
 40
1.0
 40
1.0
 40
1.0
 40
1.0
 10
-3.3131
 20
17.4665
 30
0.0
 10
-3.3131
 20
17.4665
 30
0.0
 10
-3.3131
 20
17.705
 30
0.0
 10
-3.3131
 20
17.705
 30
0.0
 10
-3.3131
 20
17.705
 30
0.0
 10
-3.3131
 20
17.705
 30
0.0
 10
-2.0055
 20
17.705
 30
0.0
 10
-2.0055
 20
17.705
 30
0.0
 10
-2.0055
 20
17.705
 30
0.0
 10
-2.0055
 20
17.705
 30
0.0
 10
-2.0055
 20
17.5121
 30
0.0
 10
-2.0055
 20
17.5121
 30
0.0
 10
-2.0055
 20
17.5121
 30
0.0
 10
-2.1339
 20
17.3753
 30
0.0
 10
-2.2614
 20
17.1932
 30
0.0
 10
-2.3879
 20
16.9665
 30
0.0
 10
-2.3879
 20
16.9665
 30
0.0
 10
-2.514
 20
16.7398
 30
0.0
 10
-2.6118
 20
16.506
 30
0.0
 10
-2.6805
 20
16.2666
 30
0.0
 10
-2.6805
 20
16.2666
 30
0.0
 10
-2.7303
 20
16.0973
 30
0.0
 10
-2.7618
 20
15.9124
 30
0.0
 10
-2.7755
 20
15.7111
 30
0.0
 10
-2.7755
 20
15.7111
 30
0.0
 10
-2.7755
 20
15.7111
 30
0.0
 10
-3.0304
 20
15.7111
 30
0.0
 10
-3.0304
 20
15.7111
 30
0.0
 10
-3.0304
 20
15.7111
 30
0.0
 10
-3.0276
 20
15.8701
 30
0.0
 10
-2.9966
 20
16.062
 30
0.0
 10
-2.9368
 20
16.2873
 30
0.0
 10
-2.9368
 20
16.2873
 30
0.0
 10
-2.8771
 20
16.5121
 30
0.0
 10
-2.7915
 20
16.7294
 30
0.0
 10
-2.68
 20
16.9383
 30
0.0
 10
-2.68
 20
16.9383
 30
0.0
 10
-2.5681
 20
17.1471
 30
0.0
 10
-2.4495
 20
17.3235
 30
0.0
 10
-2.3235
 20
17.4665
 30
0.0
 10
-2.3235
 20
17.4665
 30
0.0
 10
-2.3235
 20
17.4665
 30
0.0
 10
-3.3131
 20
17.4665
 30
0.0
 10
-3.3131
 20
17.4665
 30
0.0
  0
SPLINE
  5
68
330
1F
100
AcDbEntity
  8
AXIS
 62
   250
100
AcDbSpline
210
0.0
220
0.0
230
1.0
 70
    11
 71
     3
 72
    44
 73
    40
 74
     0
 42
0.0000000001
 43
0.0000000001
 40
0.0
 40
0.0
 40
0.0
 40
0.0
 40
0.0909090909090909
 40
0.0909090909090909
 40
0.0909090909090909
 40
0.0909090909090909
 40
0.1818181818181818
 40
0.1818181818181818
 40
0.1818181818181818
 40
0.1818181818181818
 40
0.2727272727272727
 40
0.2727272727272727
 40
0.2727272727272727
 40
0.2727272727272727
 40
0.3636363636363636
 40
0.3636363636363636
 40
0.3636363636363636
 40
0.3636363636363636
 40
0.4545454545454545
 40
0.4545454545454545
 40
0.4545454545454545
 40
0.4545454545454545
 40
0.5454545454545454
 40
0.5454545454545454
 40
0.5454545454545454
 40
0.5454545454545454
 40
0.6363636363636364
 40
0.6363636363636364
 40
0.6363636363636364
 40
0.6363636363636364
 40
0.7272727272727273
 40
0.7272727272727273
 40
0.7272727272727273
 40
0.7272727272727273
 40
0.8181818181818182
 40
0.8181818181818182
 40
0.8181818181818182
 40
0.8181818181818182
 40
1.0
 40
1.0
 40
1.0
 40
1.0
 10
-11.0683
 20
-3.4358
 30
0.0
 10
-11.2052
 20
-3.2631
 30
0.0
 10
-11.3209
 20
-3.0609
 30
0.0
 10
-11.4154
 20
-2.8295
 30
0.0
 10
-11.4154
 20
-2.8295
 30
0.0
 10
-11.5099
 20
-2.5976
 30
0.0
 10
-11.5575
 20
-2.3582
 30
0.0
 10
-11.5575
 20
-2.1098
 30
0.0
 10
-11.5575
 20
-2.1098
 30
0.0
 10
-11.5575
 20
-1.8911
 30
0.0
 10
-11.5222
 20
-1.6818
 30
0.0
 10
-11.4512
 20
-1.4814
 30
0.0
 10
-11.4512
 20
-1.4814
 30
0.0
 10
-11.3684
 20
-1.249
 30
0.0
 10
-11.2409
 20
-1.0176
 30
0.0
 10
-11.0683
 20
-0.7871
 30
0.0
 10
-11.0683
 20
-0.7871
 30
0.0
 10
-11.0683
 20
-0.7871
 30
0.0
 10
-10.8905
 20
-0.7871
 30
0.0
 10
-10.8905
 20
-0.7871
 30
0.0
 10
-10.8905
 20
-0.7871
 30
0.0
 10
-11.0015
 20
-0.9781
 30
0.0
 10
-11.0749
 20
-1.1145
 30
0.0
 10
-11.1106
 20
-1.1964
 30
0.0
 10
-11.1106
 20
-1.1964
 30
0.0
 10
-11.1671
 20
-1.3229
 30
0.0
 10
-11.2108
 20
-1.4555
 30
0.0
 10
-11.2433
 20
-1.5933
 30
0.0
 10
-11.2433
 20
-1.5933
 30
0.0
 10
-11.2828
 20
-1.765
 30
0.0
 10
-11.3025
 20
-1.9377
 30
0.0
 10
-11.3025
 20
-2.1112
 30
0.0
 10
-11.3025
 20
-2.1112
 30
0.0
 10
-11.3025
 20
-2.5534
 30
0.0
 10
-11.1652
 20
-2.9946
 30
0.0
 10
-10.8905
 20
-3.4358
 30
0.0
 10
-10.8905
 20
-3.4358
 30
0.0
 10
-10.8905
 20
-3.4358
 30
0.0
 10
-11.0683
 20
-3.4358
 30
0.0
 10
-11.0683
 20
-3.4358
 30
0.0
  0
SPLINE
  5
69
330
1F
100
AcDbEntity
  8
AXIS
 62
   250
100
AcDbSpline
210
0.0
220
0.0
230
1.0
 70
    11
 71
     3
 72
    92
 73
    88
 74
     0
 42
0.0000000001
 43
0.0000000001
 40
0.0
 40
0.0
 40
0.0
 40
0.0
 40
0.0434782608695652
 40
0.0434782608695652
 40
0.0434782608695652
 40
0.0434782608695652
 40
0.0869565217391304
 40
0.0869565217391304
 40
0.0869565217391304
 40
0.0869565217391304
 40
0.1304347826086956
 40
0.1304347826086956
 40
0.1304347826086956
 40
0.1304347826086956
 40
0.1739130434782609
 40
0.1739130434782609
 40
0.1739130434782609
 40
0.1739130434782609
 40
0.2173913043478261
 40
0.2173913043478261
 40
0.2173913043478261
 40
0.2173913043478261
 40
0.2608695652173913
 40
0.2608695652173913
 40
0.2608695652173913
 40
0.2608695652173913
 40
0.3043478260869565
 40
0.3043478260869565
 40
0.3043478260869565
 40
0.3043478260869565
 40
0.3478260869565217
 40
0.3478260869565217
 40
0.3478260869565217
 40
0.3478260869565217
 40
0.391304347826087
 40
0.391304347826087
 40
0.391304347826087
 40
0.391304347826087
 40
0.4347826086956522
 40
0.4347826086956522
 40
0.4347826086956522
 40
0.4347826086956522
 40
0.4782608695652174
 40
0.4782608695652174
 40
0.4782608695652174
 40
0.4782608695652174
 40
0.5217391304347826
 40
0.5217391304347826
 40
0.5217391304347826
 40
0.5217391304347826
 40
0.5652173913043478
 40
0.5652173913043478
 40
0.5652173913043478
 40
0.5652173913043478
 40
0.6086956521739131
 40
0.6086956521739131
 40
0.6086956521739131
 40
0.6086956521739131
 40
0.6521739130434783
 40
0.6521739130434783
 40
0.6521739130434783
 40
0.6521739130434783
 40
0.6956521739130435
 40
0.6956521739130435
 40
0.6956521739130435
 40
0.6956521739130435
 40
0.7391304347826086
 40
0.7391304347826086
 40
0.7391304347826086
 40
0.7391304347826086
 40
0.782608695652174
 40
0.782608695652174
 40
0.782608695652174
 40
0.782608695652174
 40
0.8260869565217391
 40
0.8260869565217391
 40
0.8260869565217391
 40
0.8260869565217391
 40
0.8695652173913043
 40
0.8695652173913043
 40
0.8695652173913043
 40
0.8695652173913043
 40
0.9130434782608695
 40
0.9130434782608695
 40
0.9130434782608695
 40
0.9130434782608695
 40
1.0
 40
1.0
 40
1.0
 40
1.0
 10
-10.6341
 20
-2.3746
 30
0.0
 10
-10.6341
 20
-2.3746
 30
0.0
 10
-10.3956
 20
-2.3525
 30
0.0
 10
-10.3956
 20
-2.3525
 30
0.0
 10
-10.3956
 20
-2.3525
 30
0.0
 10
-10.3754
 20
-2.4645
 30
0.0
 10
-10.3368
 20
-2.5458
 30
0.0
 10
-10.2799
 20
-2.5966
 30
0.0
 10
-10.2799
 20
-2.5966
 30
0.0
 10
-10.223
 20
-2.647
 30
0.0
 10
-10.1501
 20
-2.6724
 30
0.0
 10
-10.0607
 20
-2.6724
 30
0.0
 10
-10.0607
 20
-2.6724
 30
0.0
 10
-9.9845
 20
-2.6724
 30
0.0
 10
-9.9178
 20
-2.655
 30
0.0
 10
-9.8604
 20
-2.6197
 30
0.0
 10
-9.8604
 20
-2.6197
 30
0.0
 10
-9.803
 20
-2.5849
 30
0.0
 10
-9.7559
 20
-2.5383
 30
0.0
 10
-9.7193
 20
-2.48
 30
0.0
 10
-9.7193
 20
-2.48
 30
0.0
 10
-9.6821
 20
-2.4217
 30
0.0
 10
-9.6515
 20
-2.3426
 30
0.0
 10
-9.6266
 20
-2.2439
 30
0.0
 10
-9.6266
 20
-2.2439
 30
0.0
 10
-9.6021
 20
-2.1446
 30
0.0
 10
-9.5894
 20
-2.0435
 30
0.0
 10
-9.5894
 20
-1.9405
 30
0.0
 10
-9.5894
 20
-1.9405
 30
0.0
 10
-9.5894
 20
-1.9297
 30
0.0
 10
-9.5899
 20
-1.9127
 30
0.0
 10
-9.5908
 20
-1.8911
 30
0.0
 10
-9.5908
 20
-1.8911
 30
0.0
 10
-9.6407
 20
-1.9696
 30
0.0
 10
-9.7084
 20
-2.0341
 30
0.0
 10
-9.794
 20
-2.083
 30
0.0
 10
-9.794
 20
-2.083
 30
0.0
 10
-9.8801
 20
-2.1324
 30
0.0
 10
-9.9733
 20
-2.1568
 30
0.0
 10
-10.073
 20
-2.1568
 30
0.0
 10
-10.073
 20
-2.1568
 30
0.0
 10
-10.2404
 20
-2.1568
 30
0.0
 10
-10.382
 20
-2.0962
 30
0.0
 10
-10.4977
 20
-1.9748
 30
0.0
 10
-10.4977
 20
-1.9748
 30
0.0
 10
-10.6134
 20
-1.8535
 30
0.0
 10
-10.6713
 20
-1.694
 30
0.0
 10
-10.6713
 20
-1.4955
 30
0.0
 10
-10.6713
 20
-1.4955
 30
0.0
 10
-10.6713
 20
-1.2904
 30
0.0
 10
-10.6111
 20
-1.1258
 30
0.0
 10
-10.4902
 20
-1.0007
 30
0.0
 10
-10.4902
 20
-1.0007
 30
0.0
 10
-10.3693
 20
-0.8756
 30
0.0
 10
-10.2178
 20
-0.813
 30
0.0
 10
-10.0358
 20
-0.813
 30
0.0
 10
-10.0358
 20
-0.813
 30
0.0
 10
-9.9046
 20
-0.813
 30
0.0
 10
-9.7846
 20
-0.8488
 30
0.0
 10
-9.6755
 20
-0.9193
 30
0.0
 10
-9.6755
 20
-0.9193
 30
0.0
 10
-9.5669
 20
-0.9899
 30
0.0
 10
-9.4841
 20
-1.091
 30
0.0
 10
-9.4276
 20
-1.2218
 30
0.0
 10
-9.4276
 20
-1.2218
 30
0.0
 10
-9.3712
 20
-1.3525
 30
0.0
 10
-9.343
 20
-1.5421
 30
0.0
 10
-9.343
 20
-1.7904
 30
0.0
 10
-9.343
 20
-1.7904
 30
0.0
 10
-9.343
 20
-2.0482
 30
0.0
 10
-9.3707
 20
-2.2537
 30
0.0
 10
-9.4267
 20
-2.4071
 30
0.0
 10
-9.4267
 20
-2.4071
 30
0.0
 10
-9.4831
 20
-2.56
 30
0.0
 10
-9.5664
 20
-2.6761
 30
0.0
 10
-9.6769
 20
-2.7561
 30
0.0
 10
-9.6769
 20
-2.7561
 30
0.0
 10
-9.7879
 20
-2.8361
 30
0.0
 10
-9.9173
 20
-2.876
 30
0.0
 10
-10.0664
 20
-2.876
 30
0.0
 10
-10.0664
 20
-2.876
 30
0.0
 10
-10.2244
 20
-2.876
 30
0.0
 10
-10.3533
 20
-2.8323
 30
0.0
 10
-10.4535
 20
-2.7443
 30
0.0
 10
-10.4535
 20
-2.7443
 30
0.0
 10
-10.5537
 20
-2.6568
 30
0.0
 10
-10.6139
 20
-2.5336
 30
0.0
 10
-10.6341
 20
-2.3746
 30
0.0
  0
SPLINE
  5
6A
330
1F
100
AcDbEntity
  8
AXIS
 62
   250
100
AcDbSpline
210
0.0
220
0.0
230
1.0
 70
    11
 71
     3
 72
    36
 73
    32
 74
     0
 42
0.0000000001
 43
0.0000000001
 40
0.0
 40
0.0
 40
0.0
 40
0.0
 40
0.1111111111111111
 40
0.1111111111111111
 40
0.1111111111111111
 40
0.1111111111111111
 40
0.2222222222222222
 40
0.2222222222222222
 40
0.2222222222222222
 40
0.2222222222222222
 40
0.3333333333333333
 40
0.3333333333333333
 40
0.3333333333333333
 40
0.3333333333333333
 40
0.4444444444444444
 40
0.4444444444444444
 40
0.4444444444444444
 40
0.4444444444444444
 40
0.5555555555555556
 40
0.5555555555555556
 40
0.5555555555555556
 40
0.5555555555555556
 40
0.6666666666666666
 40
0.6666666666666666
 40
0.6666666666666666
 40
0.6666666666666666
 40
0.7777777777777778
 40
0.7777777777777778
 40
0.7777777777777778
 40
0.7777777777777778
 40
1.0
 40
1.0
 40
1.0
 40
1.0
 10
-9.6186
 20
-1.4828
 30
0.0
 10
-9.6186
 20
-1.3408
 30
0.0
 10
-9.6562
 20
-1.2274
 30
0.0
 10
-9.732
 20
-1.1441
 30
0.0
 10
-9.732
 20
-1.1441
 30
0.0
 10
-9.8082
 20
-1.0604
 30
0.0
 10
-9.8989
 20
-1.0186
 30
0.0
 10
-10.0057
 20
-1.0186
 30
0.0
 10
-10.0057
 20
-1.0186
 30
0.0
 10
-10.1158
 20
-1.0186
 30
0.0
 10
-10.2117
 20
-1.0637
 30
0.0
 10
-10.2936
 20
-1.1536
 30
0.0
 10
-10.2936
 20
-1.1536
 30
0.0
 10
-10.3754
 20
-1.2439
 30
0.0
 10
-10.4163
 20
-1.3605
 30
0.0
 10
-10.4163
 20
-1.5035
 30
0.0
 10
-10.4163
 20
-1.5035
 30
0.0
 10
-10.4163
 20
-1.6324
 30
0.0
 10
-10.3773
 20
-1.7368
 30
0.0
 10
-10.2997
 20
-1.8172
 30
0.0
 10
-10.2997
 20
-1.8172
 30
0.0
 10
-10.2221
 20
-1.8977
 30
0.0
 10
-10.1266
 20
-1.9377
 30
0.0
 10
-10.0128
 20
-1.9377
 30
0.0
 10
-10.0128
 20
-1.9377
 30
0.0
 10
-9.8975
 20
-1.9377
 30
0.0
 10
-9.8035
 20
-1.8977
 30
0.0
 10
-9.7296
 20
-1.8172
 30
0.0
 10
-9.7296
 20
-1.8172
 30
0.0
 10
-9.6553
 20
-1.7368
 30
0.0
 10
-9.6186
 20
-1.6253
 30
0.0
 10
-9.6186
 20
-1.4828
 30
0.0
  0
SPLINE
  5
6B
330
1F
100
AcDbEntity
  8
AXIS
 62
   250
100
AcDbSpline
210
0.0
220
0.0
230
1.0
 70
    11
 71
     3
 72
    92
 73
    88
 74
     0
 42
0.0000000001
 43
0.0000000001
 40
0.0
 40
0.0
 40
0.0
 40
0.0
 40
0.0434782608695652
 40
0.0434782608695652
 40
0.0434782608695652
 40
0.0434782608695652
 40
0.0869565217391304
 40
0.0869565217391304
 40
0.0869565217391304
 40
0.0869565217391304
 40
0.1304347826086956
 40
0.1304347826086956
 40
0.1304347826086956
 40
0.1304347826086956
 40
0.1739130434782609
 40
0.1739130434782609
 40
0.1739130434782609
 40
0.1739130434782609
 40
0.2173913043478261
 40
0.2173913043478261
 40
0.2173913043478261
 40
0.2173913043478261
 40
0.2608695652173913
 40
0.2608695652173913
 40
0.2608695652173913
 40
0.2608695652173913
 40
0.3043478260869565
 40
0.3043478260869565
 40
0.3043478260869565
 40
0.3043478260869565
 40
0.3478260869565217
 40
0.3478260869565217
 40
0.3478260869565217
 40
0.3478260869565217
 40
0.391304347826087
 40
0.391304347826087
 40
0.391304347826087
 40
0.391304347826087
 40
0.4347826086956522
 40
0.4347826086956522
 40
0.4347826086956522
 40
0.4347826086956522
 40
0.4782608695652174
 40
0.4782608695652174
 40
0.4782608695652174
 40
0.4782608695652174
 40
0.5217391304347826
 40
0.5217391304347826
 40
0.5217391304347826
 40
0.5217391304347826
 40
0.5652173913043478
 40
0.5652173913043478
 40
0.5652173913043478
 40
0.5652173913043478
 40
0.6086956521739131
 40
0.6086956521739131
 40
0.6086956521739131
 40
0.6086956521739131
 40
0.6521739130434783
 40
0.6521739130434783
 40
0.6521739130434783
 40
0.6521739130434783
 40
0.6956521739130435
 40
0.6956521739130435
 40
0.6956521739130435
 40
0.6956521739130435
 40
0.7391304347826086
 40
0.7391304347826086
 40
0.7391304347826086
 40
0.7391304347826086
 40
0.782608695652174
 40
0.782608695652174
 40
0.782608695652174
 40
0.782608695652174
 40
0.8260869565217391
 40
0.8260869565217391
 40
0.8260869565217391
 40
0.8260869565217391
 40
0.8695652173913043
 40
0.8695652173913043
 40
0.8695652173913043
 40
0.8695652173913043
 40
0.9130434782608695
 40
0.9130434782608695
 40
0.9130434782608695
 40
0.9130434782608695
 40
1.0
 40
1.0
 40
1.0
 40
1.0
 10
-9.0645
 20
-2.3746
 30
0.0
 10
-9.0645
 20
-2.3746
 30
0.0
 10
-8.826
 20
-2.3525
 30
0.0
 10
-8.826
 20
-2.3525
 30
0.0
 10
-8.826
 20
-2.3525
 30
0.0
 10
-8.8058
 20
-2.4645
 30
0.0
 10
-8.7672
 20
-2.5458
 30
0.0
 10
-8.7103
 20
-2.5966
 30
0.0
 10
-8.7103
 20
-2.5966
 30
0.0
 10
-8.6534
 20
-2.647
 30
0.0
 10
-8.5805
 20
-2.6724
 30
0.0
 10
-8.4911
 20
-2.6724
 30
0.0
 10
-8.4911
 20
-2.6724
 30
0.0
 10
-8.4149
 20
-2.6724
 30
0.0
 10
-8.3482
 20
-2.655
 30
0.0
 10
-8.2908
 20
-2.6197
 30
0.0
 10
-8.2908
 20
-2.6197
 30
0.0
 10
-8.2334
 20
-2.5849
 30
0.0
 10
-8.1863
 20
-2.5383
 30
0.0
 10
-8.1497
 20
-2.48
 30
0.0
 10
-8.1497
 20
-2.48
 30
0.0
 10
-8.1125
 20
-2.4217
 30
0.0
 10
-8.0819
 20
-2.3426
 30
0.0
 10
-8.057
 20
-2.2439
 30
0.0
 10
-8.057
 20
-2.2439
 30
0.0
 10
-8.0325
 20
-2.1446
 30
0.0
 10
-8.0198
 20
-2.0435
 30
0.0
 10
-8.0198
 20
-1.9405
 30
0.0
 10
-8.0198
 20
-1.9405
 30
0.0
 10
-8.0198
 20
-1.9297
 30
0.0
 10
-8.0203
 20
-1.9127
 30
0.0
 10
-8.0212
 20
-1.8911
 30
0.0
 10
-8.0212
 20
-1.8911
 30
0.0
 10
-8.0711
 20
-1.9696
 30
0.0
 10
-8.1388
 20
-2.0341
 30
0.0
 10
-8.2244
 20
-2.083
 30
0.0
 10
-8.2244
 20
-2.083
 30
0.0
 10
-8.3105
 20
-2.1324
 30
0.0
 10
-8.4037
 20
-2.1568
 30
0.0
 10
-8.5034
 20
-2.1568
 30
0.0
 10
-8.5034
 20
-2.1568
 30
0.0
 10
-8.6708
 20
-2.1568
 30
0.0
 10
-8.8124
 20
-2.0962
 30
0.0
 10
-8.9281
 20
-1.9748
 30
0.0
 10
-8.9281
 20
-1.9748
 30
0.0
 10
-9.0438
 20
-1.8535
 30
0.0
 10
-9.1017
 20
-1.694
 30
0.0
 10
-9.1017
 20
-1.4955
 30
0.0
 10
-9.1017
 20
-1.4955
 30
0.0
 10
-9.1017
 20
-1.2904
 30
0.0
 10
-9.0415
 20
-1.1258
 30
0.0
 10
-8.9206
 20
-1.0007
 30
0.0
 10
-8.9206
 20
-1.0007
 30
0.0
 10
-8.7997
 20
-0.8756
 30
0.0
 10
-8.6482
 20
-0.813
 30
0.0
 10
-8.4662
 20
-0.813
 30
0.0
 10
-8.4662
 20
-0.813
 30
0.0
 10
-8.335
 20
-0.813
 30
0.0
 10
-8.215
 20
-0.8488
 30
0.0
 10
-8.1059
 20
-0.9193
 30
0.0
 10
-8.1059
 20
-0.9193
 30
0.0
 10
-7.9973
 20
-0.9899
 30
0.0
 10
-7.9145
 20
-1.091
 30
0.0
 10
-7.858
 20
-1.2218
 30
0.0
 10
-7.858
 20
-1.2218
 30
0.0
 10
-7.8016
 20
-1.3525
 30
0.0
 10
-7.7734
 20
-1.5421
 30
0.0
 10
-7.7734
 20
-1.7904
 30
0.0
 10
-7.7734
 20
-1.7904
 30
0.0
 10
-7.7734
 20
-2.0482
 30
0.0
 10
-7.8011
 20
-2.2537
 30
0.0
 10
-7.8571
 20
-2.4071
 30
0.0
 10
-7.8571
 20
-2.4071
 30
0.0
 10
-7.9135
 20
-2.56
 30
0.0
 10
-7.9968
 20
-2.6761
 30
0.0
 10
-8.1073
 20
-2.7561
 30
0.0
 10
-8.1073
 20
-2.7561
 30
0.0
 10
-8.2183
 20
-2.8361
 30
0.0
 10
-8.3477
 20
-2.876
 30
0.0
 10
-8.4968
 20
-2.876
 30
0.0
 10
-8.4968
 20
-2.876
 30
0.0
 10
-8.6548
 20
-2.876
 30
0.0
 10
-8.7837
 20
-2.8323
 30
0.0
 10
-8.8839
 20
-2.7443
 30
0.0
 10
-8.8839
 20
-2.7443
 30
0.0
 10
-8.9841
 20
-2.6568
 30
0.0
 10
-9.0443
 20
-2.5336
 30
0.0
 10
-9.0645
 20
-2.3746
 30
0.0
  0
SPLINE
  5
6C
330
1F
100
AcDbEntity
  8
AXIS
 62
   250
100
AcDbSpline
210
0.0
220
0.0
230
1.0
 70
    11
 71
     3
 72
    36
 73
    32
 74
     0
 42
0.0000000001
 43
0.0000000001
 40
0.0
 40
0.0
 40
0.0
 40
0.0
 40
0.1111111111111111
 40
0.1111111111111111
 40
0.1111111111111111
 40
0.1111111111111111
 40
0.2222222222222222
 40
0.2222222222222222
 40
0.2222222222222222
 40
0.2222222222222222
 40
0.3333333333333333
 40
0.3333333333333333
 40
0.3333333333333333
 40
0.3333333333333333
 40
0.4444444444444444
 40
0.4444444444444444
 40
0.4444444444444444
 40
0.4444444444444444
 40
0.5555555555555556
 40
0.5555555555555556
 40
0.5555555555555556
 40
0.5555555555555556
 40
0.6666666666666666
 40
0.6666666666666666
 40
0.6666666666666666
 40
0.6666666666666666
 40
0.7777777777777778
 40
0.7777777777777778
 40
0.7777777777777778
 40
0.7777777777777778
 40
1.0
 40
1.0
 40
1.0
 40
1.0
 10
-8.049
 20
-1.4828
 30
0.0
 10
-8.049
 20
-1.3408
 30
0.0
 10
-8.0866
 20
-1.2274
 30
0.0
 10
-8.1624
 20
-1.1441
 30
0.0
 10
-8.1624
 20
-1.1441
 30
0.0
 10
-8.2386
 20
-1.0604
 30
0.0
 10
-8.3293
 20
-1.0186
 30
0.0
 10
-8.4361
 20
-1.0186
 30
0.0
 10
-8.4361
 20
-1.0186
 30
0.0
 10
-8.5462
 20
-1.0186
 30
0.0
 10
-8.6421
 20
-1.0637
 30
0.0
 10
-8.724
 20
-1.1536
 30
0.0
 10
-8.724
 20
-1.1536
 30
0.0
 10
-8.8058
 20
-1.2439
 30
0.0
 10
-8.8467
 20
-1.3605
 30
0.0
 10
-8.8467
 20
-1.5035
 30
0.0
 10
-8.8467
 20
-1.5035
 30
0.0
 10
-8.8467
 20
-1.6324
 30
0.0
 10
-8.8077
 20
-1.7368
 30
0.0
 10
-8.7301
 20
-1.8172
 30
0.0
 10
-8.7301
 20
-1.8172
 30
0.0
 10
-8.6525
 20
-1.8977
 30
0.0
 10
-8.557
 20
-1.9377
 30
0.0
 10
-8.4432
 20
-1.9377
 30
0.0
 10
-8.4432
 20
-1.9377
 30
0.0
 10
-8.3279
 20
-1.9377
 30
0.0
 10
-8.2339
 20
-1.8977
 30
0.0
 10
-8.16
 20
-1.8172
 30
0.0
 10
-8.16
 20
-1.8172
 30
0.0
 10
-8.0857
 20
-1.7368
 30
0.0
 10
-8.049
 20
-1.6253
 30
0.0
 10
-8.049
 20
-1.4828
 30
0.0
  0
SPLINE
  5
6D
330
1F
100
AcDbEntity
  8
AXIS
 62
   250
100
AcDbSpline
210
0.0
220
0.0
230
1.0
 70
    11
 71
     3
 72
    44
 73
    40
 74
     0
 42
0.0000000001
 43
0.0000000001
 40
0.0
 40
0.0
 40
0.0
 40
0.0
 40
0.0909090909090909
 40
0.0909090909090909
 40
0.0909090909090909
 40
0.0909090909090909
 40
0.1818181818181818
 40
0.1818181818181818
 40
0.1818181818181818
 40
0.1818181818181818
 40
0.2727272727272727
 40
0.2727272727272727
 40
0.2727272727272727
 40
0.2727272727272727
 40
0.3636363636363636
 40
0.3636363636363636
 40
0.3636363636363636
 40
0.3636363636363636
 40
0.4545454545454545
 40
0.4545454545454545
 40
0.4545454545454545
 40
0.4545454545454545
 40
0.5454545454545454
 40
0.5454545454545454
 40
0.5454545454545454
 40
0.5454545454545454
 40
0.6363636363636364
 40
0.6363636363636364
 40
0.6363636363636364
 40
0.6363636363636364
 40
0.7272727272727273
 40
0.7272727272727273
 40
0.7272727272727273
 40
0.7272727272727273
 40
0.8181818181818182
 40
0.8181818181818182
 40
0.8181818181818182
 40
0.8181818181818182
 40
1.0
 40
1.0
 40
1.0
 40
1.0
 10
-7.3007
 20
-3.4358
 30
0.0
 10
-7.3007
 20
-3.4358
 30
0.0
 10
-7.4785
 20
-3.4358
 30
0.0
 10
-7.4785
 20
-3.4358
 30
0.0
 10
-7.4785
 20
-3.4358
 30
0.0
 10
-7.2038
 20
-2.9946
 30
0.0
 10
-7.0664
 20
-2.5534
 30
0.0
 10
-7.0664
 20
-2.1112
 30
0.0
 10
-7.0664
 20
-2.1112
 30
0.0
 10
-7.0664
 20
-1.9386
 30
0.0
 10
-7.0862
 20
-1.7674
 30
0.0
 10
-7.1257
 20
-1.5971
 30
0.0
 10
-7.1257
 20
-1.5971
 30
0.0
 10
-7.1567
 20
-1.4598
 30
0.0
 10
-7.2005
 20
-1.3271
 30
0.0
 10
-7.2564
 20
-1.2006
 30
0.0
 10
-7.2564
 20
-1.2006
 30
0.0
 10
-7.2922
 20
-1.1178
 30
0.0
 10
-7.366
 20
-0.98
 30
0.0
 10
-7.4785
 20
-0.7871
 30
0.0
 10
-7.4785
 20
-0.7871
 30
0.0
 10
-7.4785
 20
-0.7871
 30
0.0
 10
-7.3007
 20
-0.7871
 30
0.0
 10
-7.3007
 20
-0.7871
 30
0.0
 10
-7.3007
 20
-0.7871
 30
0.0
 10
-7.128
 20
-1.0176
 30
0.0
 10
-7.0001
 20
-1.249
 30
0.0
 10
-6.9173
 20
-1.4814
 30
0.0
 10
-6.9173
 20
-1.4814
 30
0.0
 10
-6.8468
 20
-1.6818
 30
0.0
 10
-6.8115
 20
-1.8911
 30
0.0
 10
-6.8115
 20
-2.1098
 30
0.0
 10
-6.8115
 20
-2.1098
 30
0.0
 10
-6.8115
 20
-2.3582
 30
0.0
 10
-6.859
 20
-2.5976
 30
0.0
 10
-6.954
 20
-2.8295
 30
0.0
 10
-6.954
 20
-2.8295
 30
0.0
 10
-7.049
 20
-3.0609
 30
0.0
 10
-7.1647
 20
-3.2631
 30
0.0
 10
-7.3007
 20
-3.4358
 30
0.0
  0
SPLINE
  5
6E
330
1F
100
AcDbEntity
  8
AXIS
 62
   250
100
AcDbSpline
210
0.0
220
0.0
230
1.0
 70
    11
 71
     3
 72
    40
 73
    36
 74
     0
 42
0.0000000001
 43
0.0000000001
 40
0.0
 40
0.0
 40
0.0
 40
0.0
 40
0.1
 40
0.1
 40
0.1
 40
0.1
 40
0.2
 40
0.2
 40
0.2
 40
0.2
 40
0.3
 40
0.3
 40
0.3
 40
0.3
 40
0.4
 40
0.4
 40
0.4
 40
0.4
 40
0.5
 40
0.5
 40
0.5
 40
0.5
 40
0.6
 40
0.6
 40
0.6
 40
0.6
 40
0.7
 40
0.7
 40
0.7
 40
0.7
 40
0.8
 40
0.8
 40
0.8
 40
0.8
 40
1.0
 40
1.0
 40
1.0
 40
1.0
 10
-29.9428
 20
-2.9549
 30
0.0
 10
-29.9428
 20
-2.9549
 30
0.0
 10
-29.9428
 20
-3.2028
 30
0.0
 10
-29.9428
 20
-3.2028
 30
0.0
 10
-29.9428
 20
-3.2028
 30
0.0
 10
-29.9428
 20
-3.2028
 30
0.0
 10
-31.5232
 20
-3.2028
 30
0.0
 10
-31.5232
 20
-3.2028
 30
0.0
 10
-31.5232
 20
-3.2028
 30
0.0
 10
-31.4663
 20
-3.2626
 30
0.0
 10
-31.4094
 20
-3.3406
 30
0.0
 10
-31.3525
 20
-3.4375
 30
0.0
 10
-31.3525
 20
-3.4375
 30
0.0
 10
-31.2956
 20
-3.5349
 30
0.0
 10
-31.2528
 20
-3.6219
 30
0.0
 10
-31.2245
 20
-3.6991
 30
0.0
 10
-31.2245
 20
-3.6991
 30
0.0
 10
-31.2245
 20
-3.6991
 30
0.0
 10
-31.464
 20
-3.6991
 30
0.0
 10
-31.464
 20
-3.6991
 30
0.0
 10
-31.464
 20
-3.6991
 30
0.0
 10
-31.5293
 20
-3.5603
 30
0.0
 10
-31.6084
 20
-3.4389
 30
0.0
 10
-31.701
 20
-3.335
 30
0.0
 10
-31.701
 20
-3.335
 30
0.0
 10
-31.7942
 20
-3.2315
 30
0.0
 10
-31.884
 20
-3.1577
 30
0.0
 10
-31.9715
 20
-3.1144
 30
0.0
 10
-31.9715
 20
-3.1144
 30
0.0
 10
-31.9715
 20
-3.1144
 30
0.0
 10
-31.9715
 20
-2.9549
 30
0.0
 10
-31.9715
 20
-2.9549
 30
0.0
 10
-31.9715
 20
-2.9549
 30
0.0
 10
-31.9715
 20
-2.9549
 30
0.0
 10
-29.9428
 20
-2.9549
 30
0.0
 10
-29.9428
 20
-2.9549
 30
0.0
  0
SPLINE
  5
6F
330
1F
100
AcDbEntity
  8
AXIS
 62
   250
100
AcDbSpline
210
0.0
220
0.0
230
1.0
 70
    11
 71
     3
 72
    80
 73
    76
 74
     0
 42
0.0000000001
 43
0.0000000001
 40
0.0
 40
0.0
 40
0.0
 40
0.0
 40
0.05
 40
0.05
 40
0.05
 40
0.05
 40
0.1
 40
0.1
 40
0.1
 40
0.1
 40
0.15
 40
0.15
 40
0.15
 40
0.15
 40
0.2
 40
0.2
 40
0.2
 40
0.2
 40
0.25
 40
0.25
 40
0.25
 40
0.25
 40
0.3
 40
0.3
 40
0.3
 40
0.3
 40
0.35
 40
0.35
 40
0.35
 40
0.35
 40
0.4
 40
0.4
 40
0.4
 40
0.4
 40
0.45
 40
0.45
 40
0.45
 40
0.45
 40
0.5
 40
0.5
 40
0.5
 40
0.5
 40
0.55
 40
0.55
 40
0.55
 40
0.55
 40
0.6
 40
0.6
 40
0.6
 40
0.6
 40
0.65
 40
0.65
 40
0.65
 40
0.65
 40
0.7
 40
0.7
 40
0.7
 40
0.7
 40
0.75
 40
0.75
 40
0.75
 40
0.75
 40
0.8
 40
0.8
 40
0.8
 40
0.8
 40
0.85
 40
0.85
 40
0.85
 40
0.85
 40
0.9
 40
0.9
 40
0.9
 40
0.9
 40
1.0
 40
1.0
 40
1.0
 40
1.0
 10
-31.4682
 20
-1.0326
 30
0.0
 10
-31.4682
 20
-1.0326
 30
0.0
 10
-31.4489
 20
-1.279
 30
0.0
 10
-31.4489
 20
-1.279
 30
0.0
 10
-31.4489
 20
-1.279
 30
0.0
 10
-31.5463
 20
-1.3011
 30
0.0
 10
-31.6173
 20
-1.3322
 30
0.0
 10
-31.661
 20
-1.3726
 30
0.0
 10
-31.661
 20
-1.3726
 30
0.0
 10
-31.7321
 20
-1.4399
 30
0.0
 10
-31.7674
 20
-1.5227
 30
0.0
 10
-31.7674
 20
-1.621
 30
0.0
 10
-31.7674
 20
-1.621
 30
0.0
 10
-31.7674
 20
-1.7
 30
0.0
 10
-31.7452
 20
-1.7691
 30
0.0
 10
-31.701
 20
-1.8289
 30
0.0
 10
-31.701
 20
-1.8289
 30
0.0
 10
-31.6441
 20
-1.907
 30
0.0
 10
-31.5609
 20
-1.9686
 30
0.0
 10
-31.4517
 20
-2.0137
 30
0.0
 10
-31.4517
 20
-2.0137
 30
0.0
 10
-31.3426
 20
-2.0584
 30
0.0
 10
-31.1869
 20
-2.0819
 30
0.0
 10
-30.9847
 20
-2.0838
 30
0.0
 10
-30.9847
 20
-2.0838
 30
0.0
 10
-31.0754
 20
-2.0241
 30
0.0
 10
-31.1432
 20
-1.9512
 30
0.0
 10
-31.1874
 20
-1.8646
 30
0.0
 10
-31.1874
 20
-1.8646
 30
0.0
 10
-31.2311
 20
-1.7786
 30
0.0
 10
-31.2532
 20
-1.6878
 30
0.0
 10
-31.2532
 20
-1.5932
 30
0.0
 10
-31.2532
 20
-1.5932
 30
0.0
 10
-31.2532
 20
-1.4277
 30
0.0
 10
-31.1926
 20
-1.287
 30
0.0
 10
-31.0707
 20
-1.1708
 30
0.0
 10
-31.0707
 20
-1.1708
 30
0.0
 10
-30.9489
 20
-1.0547
 30
0.0
 10
-30.7918
 20
-0.9963
 30
0.0
 10
-30.599
 20
-0.9963
 30
0.0
 10
-30.599
 20
-0.9963
 30
0.0
 10
-30.472
 20
-0.9963
 30
0.0
 10
-30.3544
 20
-1.0241
 30
0.0
 10
-30.2452
 20
-1.0787
 30
0.0
 10
-30.2452
 20
-1.0787
 30
0.0
 10
-30.1366
 20
-1.1332
 30
0.0
 10
-30.0529
 20
-1.2085
 30
0.0
 10
-29.995
 20
-1.304
 30
0.0
 10
-29.995
 20
-1.304
 30
0.0
 10
-29.9372
 20
-1.3994
 30
0.0
 10
-29.9085
 20
-1.5076
 30
0.0
 10
-29.9085
 20
-1.629
 30
0.0
 10
-29.9085
 20
-1.629
 30
0.0
 10
-29.9085
 20
-1.8359
 30
0.0
 10
-29.9842
 20
-2.0043
 30
0.0
 10
-30.1366
 20
-2.1346
 30
0.0
 10
-30.1366
 20
-2.1346
 30
0.0
 10
-30.2885
 20
-2.2654
 30
0.0
 10
-30.5392
 20
-2.3303
 30
0.0
 10
-30.8882
 20
-2.3303
 30
0.0
 10
-30.8882
 20
-2.3303
 30
0.0
 10
-31.2786
 20
-2.3303
 30
0.0
 10
-31.5623
 20
-2.2583
 30
0.0
 10
-31.7396
 20
-2.1139
 30
0.0
 10
-31.7396
 20
-2.1139
 30
0.0
 10
-31.8939
 20
-1.9883
 30
0.0
 10
-31.9715
 20
-1.819
 30
0.0
 10
-31.9715
 20
-1.6055
 30
0.0
 10
-31.9715
 20
-1.6055
 30
0.0
 10
-31.9715
 20
-1.4469
 30
0.0
 10
-31.9268
 20
-1.3167
 30
0.0
 10
-31.8374
 20
-1.2151
 30
0.0
 10
-31.8374
 20
-1.2151
 30
0.0
 10
-31.7485
 20
-1.1135
 30
0.0
 10
-31.6253
 20
-1.0528
 30
0.0
 10
-31.4682
 20
-1.0326
 30
0.0
  0
SPLINE
  5
70
330
1F
100
AcDbEntity
  8
AXIS
 62
   250
100
AcDbSpline
210
0.0
220
0.0
230
1.0
 70
    11
 71
     3
 72
    40
 73
    36
 74
     0
 42
0.0000000001
 43
0.0000000001
 40
0.0
 40
0.0
 40
0.0
 40
0.0
 40
0.1
 40
0.1
 40
0.1
 40
0.1
 40
0.2
 40
0.2
 40
0.2
 40
0.2
 40
0.3
 40
0.3
 40
0.3
 40
0.3
 40
0.4
 40
0.4
 40
0.4
 40
0.4
 40
0.5
 40
0.5
 40
0.5
 40
0.5
 40
0.6
 40
0.6
 40
0.6
 40
0.6
 40
0.7
 40
0.7
 40
0.7
 40
0.7
 40
0.8
 40
0.8
 40
0.8
 40
0.8
 40
1.0
 40
1.0
 40
1.0
 40
1.0
 10
-30.5976
 20
-2.0453
 30
0.0
 10
-30.5119
 20
-2.0453
 30
0.0
 10
-30.4301
 20
-2.0269
 30
0.0
 10
-30.352
 20
-1.9907
 30
0.0
 10
-30.352
 20
-1.9907
 30
0.0
 10
-30.2739
 20
-1.9545
 30
0.0
 10
-30.2147
 20
-1.9037
 30
0.0
 10
-30.1738
 20
-1.8388
 30
0.0
 10
-30.1738
 20
-1.8388
 30
0.0
 10
-30.1328
 20
-1.7734
 30
0.0
 10
-30.1121
 20
-1.7047
 30
0.0
 10
-30.1121
 20
-1.6332
 30
0.0
 10
-30.1121
 20
-1.6332
 30
0.0
 10
-30.1121
 20
-1.5283
 30
0.0
 10
-30.1545
 20
-1.4385
 30
0.0
 10
-30.2391
 20
-1.3632
 30
0.0
 10
-30.2391
 20
-1.3632
 30
0.0
 10
-30.3238
 20
-1.288
 30
0.0
 10
-30.4386
 20
-1.2503
 30
0.0
 10
-30.5834
 20
-1.2503
 30
0.0
 10
-30.5834
 20
-1.2503
 30
0.0
 10
-30.7231
 20
-1.2503
 30
0.0
 10
-30.8332
 20
-1.2875
 30
0.0
 10
-30.9136
 20
-1.3618
 30
0.0
 10
-30.9136
 20
-1.3618
 30
0.0
 10
-30.9941
 20
-1.4361
 30
0.0
 10
-31.0341
 20
-1.5297
 30
0.0
 10
-31.0341
 20
-1.6426
 30
0.0
 10
-31.0341
 20
-1.6426
 30
0.0
 10
-31.0341
 20
-1.755
 30
0.0
 10
-30.9941
 20
-1.8501
 30
0.0
 10
-30.9136
 20
-1.9281
 30
0.0
 10
-30.9136
 20
-1.9281
 30
0.0
 10
-30.8332
 20
-2.0062
 30
0.0
 10
-30.7278
 20
-2.0453
 30
0.0
 10
-30.5976
 20
-2.0453
 30
0.0
  0
SPLINE
  5
71
330
1F
100
AcDbEntity
  8
AXIS
 62
   250
100
AcDbSpline
210
0.0
220
0.0
230
1.0
 70
    11
 71
     3
 72
    92
 73
    88
 74
     0
 42
0.0000000001
 43
0.0000000001
 40
0.0
 40
0.0
 40
0.0
 40
0.0
 40
0.0434782608695652
 40
0.0434782608695652
 40
0.0434782608695652
 40
0.0434782608695652
 40
0.0869565217391304
 40
0.0869565217391304
 40
0.0869565217391304
 40
0.0869565217391304
 40
0.1304347826086956
 40
0.1304347826086956
 40
0.1304347826086956
 40
0.1304347826086956
 40
0.1739130434782609
 40
0.1739130434782609
 40
0.1739130434782609
 40
0.1739130434782609
 40
0.2173913043478261
 40
0.2173913043478261
 40
0.2173913043478261
 40
0.2173913043478261
 40
0.2608695652173913
 40
0.2608695652173913
 40
0.2608695652173913
 40
0.2608695652173913
 40
0.3043478260869565
 40
0.3043478260869565
 40
0.3043478260869565
 40
0.3043478260869565
 40
0.3478260869565217
 40
0.3478260869565217
 40
0.3478260869565217
 40
0.3478260869565217
 40
0.391304347826087
 40
0.391304347826087
 40
0.391304347826087
 40
0.391304347826087
 40
0.4347826086956522
 40
0.4347826086956522
 40
0.4347826086956522
 40
0.4347826086956522
 40
0.4782608695652174
 40
0.4782608695652174
 40
0.4782608695652174
 40
0.4782608695652174
 40
0.5217391304347826
 40
0.5217391304347826
 40
0.5217391304347826
 40
0.5217391304347826
 40
0.5652173913043478
 40
0.5652173913043478
 40
0.5652173913043478
 40
0.5652173913043478
 40
0.6086956521739131
 40
0.6086956521739131
 40
0.6086956521739131
 40
0.6086956521739131
 40
0.6521739130434783
 40
0.6521739130434783
 40
0.6521739130434783
 40
0.6521739130434783
 40
0.6956521739130435
 40
0.6956521739130435
 40
0.6956521739130435
 40
0.6956521739130435
 40
0.7391304347826086
 40
0.7391304347826086
 40
0.7391304347826086
 40
0.7391304347826086
 40
0.782608695652174
 40
0.782608695652174
 40
0.782608695652174
 40
0.782608695652174
 40
0.8260869565217391
 40
0.8260869565217391
 40
0.8260869565217391
 40
0.8260869565217391
 40
0.8695652173913043
 40
0.8695652173913043
 40
0.8695652173913043
 40
0.8695652173913043
 40
0.9130434782608695
 40
0.9130434782608695
 40
0.9130434782608695
 40
0.9130434782608695
 40
1.0
 40
1.0
 40
1.0
 40
1.0
 10
-30.472
 20
-0.7499
 30
0.0
 10
-30.472
 20
-0.7499
 30
0.0
 10
-30.4941
 20
-0.4893
 30
0.0
 10
-30.4941
 20
-0.4893
 30
0.0
 10
-30.4941
 20
-0.4893
 30
0.0
 10
-30.3671
 20
-0.47
 30
0.0
 10
-30.2721
 20
-0.4253
 30
0.0
 10
-30.2081
 20
-0.3552
 30
0.0
 10
-30.2081
 20
-0.3552
 30
0.0
 10
-30.1441
 20
-0.2847
 30
0.0
 10
-30.1121
 20
-0.2
 30
0.0
 10
-30.1121
 20
-0.1008
 30
0.0
 10
-30.1121
 20
-0.1008
 30
0.0
 10
-30.1121
 20
0.0187
 30
0.0
 10
-30.1573
 20
0.1198
 30
0.0
 10
-30.2471
 20
0.2021
 30
0.0
 10
-30.2471
 20
0.2021
 30
0.0
 10
-30.3374
 20
0.2849
 30
0.0
 10
-30.4569
 20
0.3263
 30
0.0
 10
-30.6055
 20
0.3263
 30
0.0
 10
-30.6055
 20
0.3263
 30
0.0
 10
-30.7471
 20
0.3263
 30
0.0
 10
-30.8586
 20
0.2868
 30
0.0
 10
-30.9404
 20
0.2073
 30
0.0
 10
-30.9404
 20
0.2073
 30
0.0
 10
-31.0223
 20
0.1278
 30
0.0
 10
-31.0632
 20
0.0239
 30
0.0
 10
-31.0632
 20
-0.105
 30
0.0
 10
-31.0632
 20
-0.105
 30
0.0
 10
-31.0632
 20
-0.185
 30
0.0
 10
-31.0449
 20
-0.2569
 30
0.0
 10
-31.0087
 20
-0.3214
 30
0.0
 10
-31.0087
 20
-0.3214
 30
0.0
 10
-30.9724
 20
-0.3858
 30
0.0
 10
-30.9254
 20
-0.4361
 30
0.0
 10
-30.8675
 20
-0.4728
 30
0.0
 10
-30.8675
 20
-0.4728
 30
0.0
 10
-30.8675
 20
-0.4728
 30
0.0
 10
-30.8976
 20
-0.7057
 30
0.0
 10
-30.8976
 20
-0.7057
 30
0.0
 10
-30.8976
 20
-0.7057
 30
0.0
 10
-30.8976
 20
-0.7057
 30
0.0
 10
-31.9353
 20
-0.51
 30
0.0
 10
-31.9353
 20
-0.51
 30
0.0
 10
-31.9353
 20
-0.51
 30
0.0
 10
-31.9353
 20
-0.51
 30
0.0
 10
-31.9353
 20
0.4947
 30
0.0
 10
-31.9353
 20
0.4947
 30
0.0
 10
-31.9353
 20
0.4947
 30
0.0
 10
-31.9353
 20
0.4947
 30
0.0
 10
-31.6982
 20
0.4947
 30
0.0
 10
-31.6982
 20
0.4947
 30
0.0
 10
-31.6982
 20
0.4947
 30
0.0
 10
-31.6982
 20
0.4947
 30
0.0
 10
-31.6982
 20
-0.3115
 30
0.0
 10
-31.6982
 20
-0.3115
 30
0.0
 10
-31.6982
 20
-0.3115
 30
0.0
 10
-31.6982
 20
-0.3115
 30
0.0
 10
-31.1554
 20
-0.4206
 30
0.0
 10
-31.1554
 20
-0.4206
 30
0.0
 10
-31.1554
 20
-0.4206
 30
0.0
 10
-31.2401
 20
-0.2993
 30
0.0
 10
-31.2824
 20
-0.1718
 30
0.0
 10
-31.2824
 20
-0.0387
 30
0.0
 10
-31.2824
 20
-0.0387
 30
0.0
 10
-31.2824
 20
0.1377
 30
0.0
 10
-31.2213
 20
0.2863
 30
0.0
 10
-31.099
 20
0.4077
 30
0.0
 10
-31.099
 20
0.4077
 30
0.0
 10
-30.9767
 20
0.529
 30
0.0
 10
-30.8196
 20
0.5897
 30
0.0
 10
-30.6277
 20
0.5897
 30
0.0
 10
-30.6277
 20
0.5897
 30
0.0
 10
-30.4447
 20
0.5897
 30
0.0
 10
-30.2866
 20
0.5361
 30
0.0
 10
-30.1535
 20
0.4298
 30
0.0
 10
-30.1535
 20
0.4298
 30
0.0
 10
-29.9903
 20
0.3
 30
0.0
 10
-29.9085
 20
0.1231
 30
0.0
 10
-29.9085
 20
-0.1008
 30
0.0
 10
-29.9085
 20
-0.1008
 30
0.0
 10
-29.9085
 20
-0.2847
 30
0.0
 10
-29.9597
 20
-0.4347
 30
0.0
 10
-30.0627
 20
-0.5509
 30
0.0
 10
-30.0627
 20
-0.5509
 30
0.0
 10
-30.1658
 20
-0.6671
 30
0.0
 10
-30.3022
 20
-0.7334
 30
0.0
 10
-30.472
 20
-0.7499
 30
0.0
  0
SPLINE
  5
72
330
1F
100
AcDbEntity
  8
AXIS
 62
   250
100
AcDbSpline
210
0.0
220
0.0
230
1.0
 70
    11
 71
     3
 72
    40
 73
    36
 74
     0
 42
0.0000000001
 43
0.0000000001
 40
0.0
 40
0.0
 40
0.0
 40
0.0
 40
0.1
 40
0.1
 40
0.1
 40
0.1
 40
0.2
 40
0.2
 40
0.2
 40
0.2
 40
0.3
 40
0.3
 40
0.3
 40
0.3
 40
0.4
 40
0.4
 40
0.4
 40
0.4
 40
0.5
 40
0.5
 40
0.5
 40
0.5
 40
0.6
 40
0.6
 40
0.6
 40
0.6
 40
0.7
 40
0.7
 40
0.7
 40
0.7
 40
0.8
 40
0.8
 40
0.8
 40
0.8
 40
1.0
 40
1.0
 40
1.0
 40
1.0
 10
-20.4448
 20
-1.7473
 30
0.0
 10
-20.4448
 20
-1.7473
 30
0.0
 10
-20.4448
 20
-1.9952
 30
0.0
 10
-20.4448
 20
-1.9952
 30
0.0
 10
-20.4448
 20
-1.9952
 30
0.0
 10
-20.4448
 20
-1.9952
 30
0.0
 10
-22.0252
 20
-1.9952
 30
0.0
 10
-22.0252
 20
-1.9952
 30
0.0
 10
-22.0252
 20
-1.9952
 30
0.0
 10
-21.9683
 20
-2.055
 30
0.0
 10
-21.9114
 20
-2.133
 30
0.0
 10
-21.8545
 20
-2.2299
 30
0.0
 10
-21.8545
 20
-2.2299
 30
0.0
 10
-21.7976
 20
-2.3273
 30
0.0
 10
-21.7548
 20
-2.4143
 30
0.0
 10
-21.7265
 20
-2.4915
 30
0.0
 10
-21.7265
 20
-2.4915
 30
0.0
 10
-21.7265
 20
-2.4915
 30
0.0
 10
-21.966
 20
-2.4915
 30
0.0
 10
-21.966
 20
-2.4915
 30
0.0
 10
-21.966
 20
-2.4915
 30
0.0
 10
-22.0313
 20
-2.3527
 30
0.0
 10
-22.1104
 20
-2.2313
 30
0.0
 10
-22.203
 20
-2.1274
 30
0.0
 10
-22.203
 20
-2.1274
 30
0.0
 10
-22.2962
 20
-2.0239
 30
0.0
 10
-22.386
 20
-1.9501
 30
0.0
 10
-22.4735
 20
-1.9068
 30
0.0
 10
-22.4735
 20
-1.9068
 30
0.0
 10
-22.4735
 20
-1.9068
 30
0.0
 10
-22.4735
 20
-1.7473
 30
0.0
 10
-22.4735
 20
-1.7473
 30
0.0
 10
-22.4735
 20
-1.7473
 30
0.0
 10
-22.4735
 20
-1.7473
 30
0.0
 10
-20.4448
 20
-1.7473
 30
0.0
 10
-20.4448
 20
-1.7473
 30
0.0
  0
SPLINE
  5
73
330
1F
100
AcDbEntity
  8
AXIS
 62
   250
100
AcDbSpline
210
0.0
220
0.0
230
1.0
 70
    11
 71
     3
 72
    52
 73
    48
 74
     0
 42
0.0000000001
 43
0.0000000001
 40
0.0
 40
0.0
 40
0.0
 40
0.0
 40
0.0769230769230769
 40
0.0769230769230769
 40
0.0769230769230769
 40
0.0769230769230769
 40
0.1538461538461539
 40
0.1538461538461539
 40
0.1538461538461539
 40
0.1538461538461539
 40
0.2307692307692308
 40
0.2307692307692308
 40
0.2307692307692308
 40
0.2307692307692308
 40
0.3076923076923077
 40
0.3076923076923077
 40
0.3076923076923077
 40
0.3076923076923077
 40
0.3846153846153846
 40
0.3846153846153846
 40
0.3846153846153846
 40
0.3846153846153846
 40
0.4615384615384616
 40
0.4615384615384616
 40
0.4615384615384616
 40
0.4615384615384616
 40
0.5384615384615384
 40
0.5384615384615384
 40
0.5384615384615384
 40
0.5384615384615384
 40
0.6153846153846154
 40
0.6153846153846154
 40
0.6153846153846154
 40
0.6153846153846154
 40
0.6923076923076923
 40
0.6923076923076923
 40
0.6923076923076923
 40
0.6923076923076923
 40
0.7692307692307693
 40
0.7692307692307693
 40
0.7692307692307693
 40
0.7692307692307693
 40
0.8461538461538461
 40
0.8461538461538461
 40
0.8461538461538461
 40
0.8461538461538461
 40
1.0
 40
1.0
 40
1.0
 40
1.0
 10
-21.441
 20
-1.1119
 30
0.0
 10
-21.68
 20
-1.1119
 30
0.0
 10
-21.8724
 20
-1.0874
 30
0.0
 10
-22.0177
 20
-1.038
 30
0.0
 10
-22.0177
 20
-1.038
 30
0.0
 10
-22.1635
 20
-0.9891
 30
0.0
 10
-22.2759
 20
-0.9157
 30
0.0
 10
-22.355
 20
-0.8188
 30
0.0
 10
-22.355
 20
-0.8188
 30
0.0
 10
-22.434
 20
-0.7219
 30
0.0
 10
-22.4735
 20
-0.6001
 30
0.0
 10
-22.4735
 20
-0.4534
 30
0.0
 10
-22.4735
 20
-0.4534
 30
0.0
 10
-22.4735
 20
-0.3447
 30
0.0
 10
-22.4514
 20
-0.2497
 30
0.0
 10
-22.4076
 20
-0.1679
 30
0.0
 10
-22.4076
 20
-0.1679
 30
0.0
 10
-22.3644
 20
-0.086
 30
0.0
 10
-22.3013
 20
-0.0187
 30
0.0
 10
-22.219
 20
0.0349
 30
0.0
 10
-22.219
 20
0.0349
 30
0.0
 10
-22.1367
 20
0.088
 30
0.0
 10
-22.0365
 20
0.1299
 30
0.0
 10
-21.9185
 20
0.16
 30
0.0
 10
-21.9185
 20
0.16
 30
0.0
 10
-21.8004
 20
0.1906
 30
0.0
 10
-21.6414
 20
0.2056
 30
0.0
 10
-21.441
 20
0.2056
 30
0.0
 10
-21.441
 20
0.2056
 30
0.0
 10
-21.204
 20
0.2056
 30
0.0
 10
-21.013
 20
0.1812
 30
0.0
 10
-20.8672
 20
0.1327
 30
0.0
 10
-20.8672
 20
0.1327
 30
0.0
 10
-20.7214
 20
0.0838
 30
0.0
 10
-20.609
 20
0.0109
 30
0.0
 10
-20.5295
 20
-0.086
 30
0.0
 10
-20.5295
 20
-0.086
 30
0.0
 10
-20.45
 20
-0.1829
 30
0.0
 10
-20.4105
 20
-0.3052
 30
0.0
 10
-20.4105
 20
-0.4534
 30
0.0
 10
-20.4105
 20
-0.4534
 30
0.0
 10
-20.4105
 20
-0.6481
 30
0.0
 10
-20.4801
 20
-0.801
 30
0.0
 10
-20.6198
 20
-0.912
 30
0.0
 10
-20.6198
 20
-0.912
 30
0.0
 10
-20.7877
 20
-1.0451
 30
0.0
 10
-21.0619
 20
-1.1119
 30
0.0
 10
-21.441
 20
-1.1119
 30
0.0
  0
SPLINE
  5
74
330
1F
100
AcDbEntity
  8
AXIS
 62
   250
100
AcDbSpline
210
0.0
220
0.0
230
1.0
 70
    11
 71
     3
 72
    36
 73
    32
 74
     0
 42
0.0000000001
 43
0.0000000001
 40
0.0
 40
0.0
 40
0.0
 40
0.0
 40
0.1111111111111111
 40
0.1111111111111111
 40
0.1111111111111111
 40
0.1111111111111111
 40
0.2222222222222222
 40
0.2222222222222222
 40
0.2222222222222222
 40
0.2222222222222222
 40
0.3333333333333333
 40
0.3333333333333333
 40
0.3333333333333333
 40
0.3333333333333333
 40
0.4444444444444444
 40
0.4444444444444444
 40
0.4444444444444444
 40
0.4444444444444444
 40
0.5555555555555556
 40
0.5555555555555556
 40
0.5555555555555556
 40
0.5555555555555556
 40
0.6666666666666666
 40
0.6666666666666666
 40
0.6666666666666666
 40
0.6666666666666666
 40
0.7777777777777778
 40
0.7777777777777778
 40
0.7777777777777778
 40
0.7777777777777778
 40
1.0
 40
1.0
 40
1.0
 40
1.0
 10
-21.441
 20
-0.8569
 30
0.0
 10
-21.1094
 20
-0.8569
 30
0.0
 10
-20.8888
 20
-0.8179
 30
0.0
 10
-20.7788
 20
-0.7403
 30
0.0
 10
-20.7788
 20
-0.7403
 30
0.0
 10
-20.6692
 20
-0.6627
 30
0.0
 10
-20.6141
 20
-0.5672
 30
0.0
 10
-20.6141
 20
-0.4534
 30
0.0
 10
-20.6141
 20
-0.4534
 30
0.0
 10
-20.6141
 20
-0.3391
 30
0.0
 10
-20.6696
 20
-0.2436
 30
0.0
 10
-20.7797
 20
-0.166
 30
0.0
 10
-20.7797
 20
-0.166
 30
0.0
 10
-20.8898
 20
-0.0884
 30
0.0
 10
-21.1104
 20
-0.0493
 30
0.0
 10
-21.441
 20
-0.0493
 30
0.0
 10
-21.441
 20
-0.0493
 30
0.0
 10
-21.7736
 20
-0.0493
 30
0.0
 10
-21.9947
 20
-0.0884
 30
0.0
 10
-22.1038
 20
-0.166
 30
0.0
 10
-22.1038
 20
-0.166
 30
0.0
 10
-22.2134
 20
-0.2436
 30
0.0
 10
-22.2679
 20
-0.34
 30
0.0
 10
-22.2679
 20
-0.4557
 30
0.0
 10
-22.2679
 20
-0.4557
 30
0.0
 10
-22.2679
 20
-0.57
 30
0.0
 10
-22.2195
 20
-0.6608
 30
0.0
 10
-22.1231
 20
-0.729
 30
0.0
 10
-22.1231
 20
-0.729
 30
0.0
 10
-22.0003
 20
-0.8141
 30
0.0
 10
-21.7726
 20
-0.8569
 30
0.0
 10
-21.441
 20
-0.8569
 30
0.0
  0
SPLINE
  5
75
330
1F
100
AcDbEntity
  8
AXIS
 62
   250
100
AcDbSpline
210
0.0
220
0.0
230
1.0
 70
    24
 71
     3
 72
     8
 73
     4
 74
     0
 42
0.0000000001
 43
0.0000000001
 40
0.0
 40
0.0
 40
0.0
 40
0.0
 40
1.0
 40
1.0
 40
1.0
 40
1.0
 10
24.3713
 20
-15.3602
 30
0.0
 10
24.3713
 20
-15.3602
 30
0.0
 10
25.1808
 20
-15.3602
 30
0.0
 10
25.1808
 20
-15.3602
 30
0.0
  0
SPLINE
  5
76
330
1F
100
AcDbEntity
  8
AXIS
 62
   250
100
AcDbSpline
210
0.0
220
0.0
230
1.0
 70
    24
 71
     3
 72
     8
 73
     4
 74
     0
 42
0.0000000001
 43
0.0000000001
 40
0.0
 40
0.0
 40
0.0
 40
0.0
 40
1.0
 40
1.0
 40
1.0
 40
1.0
 10
24.857
 20
-14.5507
 30
0.0
 10
24.857
 20
-14.5507
 30
0.0
 10
24.3713
 20
-14.5507
 30
0.0
 10
24.3713
 20
-14.5507
 30
0.0
  0
SPLINE
  5
77
330
1F
100
AcDbEntity
  8
AXIS
 62
   250
100
AcDbSpline
210
0.0
220
0.0
230
1.0
 70
    24
 71
     3
 72
     8
 73
     4
 74
     0
 42
0.0000000001
 43
0.0000000001
 40
0.0
 40
0.0
 40
0.0
 40
0.0
 40
1.0
 40
1.0
 40
1.0
 40
1.0
 10
22.5676
 20
-12.365
 30
0.0
 10
22.5676
 20
-12.365
 30
0.0
 10
24.3713
 20
-12.365
 30
0.0
 10
24.3713
 20
-12.365
 30
0.0
  0
SPLINE
  5
78
330
1F
100
AcDbEntity
  8
AXIS
 62
   250
100
AcDbSpline
210
0.0
220
0.0
230
1.0
 70
    24
 71
     3
 72
     8
 73
     4
 74
     0
 42
0.0000000001
 43
0.0000000001
 40
0.0
 40
0.0
 40
0.0
 40
0.0
 40
1.0
 40
1.0
 40
1.0
 40
1.0
 10
22.2503
 20
-12.0412
 30
0.0
 10
22.2503
 20
-12.0412
 30
0.0
 10
22.2503
 20
8.035
 30
0.0
 10
22.2503
 20
8.035
 30
0.0
  0
SPLINE
  5
79
330
1F
100
AcDbEntity
  8
AXIS
 62
   250
100
AcDbSpline
210
0.0
220
0.0
230
1.0
 70
    24
 71
     3
 72
     8
 73
     4
 74
     0
 42
0.0000000001
 43
0.0000000001
 40
0.0
 40
0.0
 40
0.0
 40
0.0
 40
1.0
 40
1.0
 40
1.0
 40
1.0
 10
24.3713
 20
-15.3602
 30
0.0
 10
24.3713
 20
-15.3602
 30
0.0
 10
24.3713
 20
11.3541
 30
0.0
 10
24.3713
 20
11.3541
 30
0.0
  0
SPLINE
  5
7A
330
1F
100
AcDbEntity
  8
AXIS
 62
   250
100
AcDbSpline
210
0.0
220
0.0
230
1.0
 70
    24
 71
     3
 72
     8
 73
     4
 74
     0
 42
0.0000000001
 43
0.0000000001
 40
0.0
 40
0.0
 40
0.0
 40
0.0
 40
1.0
 40
1.0
 40
1.0
 40
1.0
 10
24.857
 20
11.3541
 30
0.0
 10
24.857
 20
11.3541
 30
0.0
 10
24.857
 20
-15.3602
 30
0.0
 10
24.857
 20
-15.3602
 30
0.0
  0
SPLINE
  5
7B
330
1F
100
AcDbEntity
  8
AXIS
 62
   250
100
AcDbSpline
210
0.0
220
0.0
230
1.0
 70
    24
 71
     3
 72
     8
 73
     4
 74
     0
 42
0.0000000001
 43
0.0000000001
 40
0.0
 40
0.0
 40
0.0
 40
0.0
 40
1.0
 40
1.0
 40
1.0
 40
1.0
 10
22.5741
 20
8.3588
 30
0.0
 10
22.5741
 20
8.3588
 30
0.0
 10
24.3713
 20
8.3588
 30
0.0
 10
24.3713
 20
8.3588
 30
0.0
  0
SPLINE
  5
7C
330
1F
100
AcDbEntity
  8
AXIS
 62
   250
100
AcDbSpline
210
0.0
220
0.0
230
1.0
 70
    24
 71
     3
 72
     8
 73
     4
 74
     0
 42
0.0000000001
 43
0.0000000001
 40
0.0
 40
0.0
 40
0.0
 40
0.0
 40
1.0
 40
1.0
 40
1.0
 40
1.0
 10
24.3713
 20
11.3541
 30
0.0
 10
24.3713
 20
11.3541
 30
0.0
 10
25.1808
 20
11.3541
 30
0.0
 10
25.1808
 20
11.3541
 30
0.0
  0
SPLINE
  5
7D
330
1F
100
AcDbEntity
  8
AXIS
 62
   250
100
AcDbSpline
210
0.0
220
0.0
230
1.0
 70
     8
 71
     3
 72
     8
 73
     4
 74
     0
 42
0.0000000001
 43
0.0000000001
 40
0.0
 40
0.0
 40
0.0
 40
0.0
 40
1.0
 40
1.0
 40
1.0
 40
1.0
 10
22.2503
 20
-12.0412
 30
0.0
 10
22.2503
 20
-12.22
 30
0.0
 10
22.3953
 20
-12.365
 30
0.0
 10
22.5741
 20
-12.365
 30
0.0
  0
SPLINE
  5
7E
330
1F
100
AcDbEntity
  8
AXIS
 62
   250
100
AcDbSpline
210
0.0
220
0.0
230
1.0
 70
     8
 71
     3
 72
     8
 73
     4
 74
     0
 42
0.0000000001
 43
0.0000000001
 40
0.0
 40
0.0
 40
0.0
 40
0.0
 40
1.0
 40
1.0
 40
1.0
 40
1.0
 10
24.3713
 20
-12.3658
 30
0.0
 10
24.3659
 20
-12.3653
 30
0.0
 10
24.3605
 20
-12.365
 30
0.0
 10
24.3551
 20
-12.365
 30
0.0
  0
SPLINE
  5
7F
330
1F
100
AcDbEntity
  8
AXIS
 62
   250
100
AcDbSpline
210
0.0
220
0.0
230
1.0
 70
     8
 71
     3
 72
     8
 73
     4
 74
     0
 42
0.0000000001
 43
0.0000000001
 40
0.0
 40
0.0
 40
0.0
 40
0.0
 40
1.0
 40
1.0
 40
1.0
 40
1.0
 10
22.5741
 20
8.3588
 30
0.0
 10
22.3953
 20
8.3588
 30
0.0
 10
22.2503
 20
8.2139
 30
0.0
 10
22.2503
 20
8.035
 30
0.0
  0
SPLINE
  5
80
330
1F
100
AcDbEntity
  8
AXIS
 62
   250
100
AcDbSpline
210
0.0
220
0.0
230
1.0
 70
     8
 71
     3
 72
     8
 73
     4
 74
     0
 42
0.0000000001
 43
0.0000000001
 40
0.0
 40
0.0
 40
0.0
 40
0.0
 40
1.0
 40
1.0
 40
1.0
 40
1.0
 10
24.3551
 20
8.3588
 30
0.0
 10
24.3605
 20
8.3588
 30
0.0
 10
24.3659
 20
8.3591
 30
0.0
 10
24.3713
 20
8.3596
 30
0.0
  0
SPLINE
  5
81
330
1F
100
AcDbEntity
  8
AXIS
 62
   250
100
AcDbSpline
210
0.0
220
0.0
230
1.0
 70
    24
 71
     3
 72
     8
 73
     4
 74
     0
 42
0.0000000001
 43
0.0000000001
 40
0.0
 40
0.0
 40
0.0
 40
0.0
 40
1.0
 40
1.0
 40
1.0
 40
1.0
 10
9.5303
 20
-8.2864
 30
0.0
 10
9.5303
 20
-8.2864
 30
0.0
 10
9.5303
 20
-6.5206
 30
0.0
 10
9.5303
 20
-6.5206
 30
0.0
  0
SPLINE
  5
82
330
1F
100
AcDbEntity
  8
AXIS
 62
   250
100
AcDbSpline
210
0.0
220
0.0
230
1.0
 70
    24
 71
     3
 72
     8
 73
     4
 74
     0
 42
0.0000000001
 43
0.0000000001
 40
0.0
 40
0.0
 40
0.0
 40
0.0
 40
1.0
 40
1.0
 40
1.0
 40
1.0
 10
9.4145
 20
-8.2285
 30
0.0
 10
9.4145
 20
-8.2285
 30
0.0
 10
9.4145
 20
-6.5785
 30
0.0
 10
9.4145
 20
-6.5785
 30
0.0
  0
SPLINE
  5
83
330
1F
100
AcDbEntity
  8
AXIS
 62
   250
100
AcDbSpline
210
0.0
220
0.0
230
1.0
 70
    24
 71
     3
 72
     8
 73
     4
 74
     0
 42
0.0000000001
 43
0.0000000001
 40
0.0
 40
0.0
 40
0.0
 40
0.0
 40
1.0
 40
1.0
 40
1.0
 40
1.0
 10
-1.0063
 20
-6.5785
 30
0.0
 10
-1.0063
 20
-6.5785
 30
0.0
 10
-1.0063
 20
-8.2285
 30
0.0
 10
-1.0063
 20
-8.2285
 30
0.0
  0
SPLINE
  5
84
330
1F
100
AcDbEntity
  8
AXIS
 62
   250
100
AcDbSpline
210
0.0
220
0.0
230
1.0
 70
    24
 71
     3
 72
     8
 73
     4
 74
     0
 42
0.0000000001
 43
0.0000000001
 40
0.0
 40
0.0
 40
0.0
 40
0.0
 40
1.0
 40
1.0
 40
1.0
 40
1.0
 10
-1.0642
 20
-8.2285
 30
0.0
 10
-1.0642
 20
-8.2285
 30
0.0
 10
-1.0642
 20
-6.5785
 30
0.0
 10
-1.0642
 20
-6.5785
 30
0.0
  0
SPLINE
  5
85
330
1F
100
AcDbEntity
  8
AXIS
 62
   250
100
AcDbSpline
210
0.0
220
0.0
230
1.0
 70
    24
 71
     3
 72
     8
 73
     4
 74
     0
 42
0.0000000001
 43
0.0000000001
 40
0.0
 40
0.0
 40
0.0
 40
0.0
 40
1.0
 40
1.0
 40
1.0
 40
1.0
 10
-24.4533
 20
-6.5206
 30
0.0
 10
-24.4533
 20
-6.5206
 30
0.0
 10
16.4196
 20
-6.5206
 30
0.0
 10
16.4196
 20
-6.5206
 30
0.0
  0
SPLINE
  5
86
330
1F
100
AcDbEntity
  8
AXIS
 62
   250
100
AcDbSpline
210
0.0
220
0.0
230
1.0
 70
    24
 71
     3
 72
     8
 73
     4
 74
     0
 42
0.0000000001
 43
0.0000000001
 40
0.0
 40
0.0
 40
0.0
 40
0.0
 40
1.0
 40
1.0
 40
1.0
 40
1.0
 10
-1.0642
 20
-6.5785
 30
0.0
 10
-1.0642
 20
-6.5785
 30
0.0
 10
-17.4482
 20
-6.5785
 30
0.0
 10
-17.4482
 20
-6.5785
 30
0.0
  0
SPLINE
  5
87
330
1F
100
AcDbEntity
  8
AXIS
 62
   250
100
AcDbSpline
210
0.0
220
0.0
230
1.0
 70
    24
 71
     3
 72
     8
 73
     4
 74
     0
 42
0.0000000001
 43
0.0000000001
 40
0.0
 40
0.0
 40
0.0
 40
0.0
 40
1.0
 40
1.0
 40
1.0
 40
1.0
 10
9.4145
 20
-6.5785
 30
0.0
 10
9.4145
 20
-6.5785
 30
0.0
 10
-1.0063
 20
-6.5785
 30
0.0
 10
-1.0063
 20
-6.5785
 30
0.0
  0
SPLINE
  5
88
330
1F
100
AcDbEntity
  8
AXIS
 62
   250
100
AcDbSpline
210
0.0
220
0.0
230
1.0
 70
    24
 71
     3
 72
     8
 73
     4
 74
     0
 42
0.0000000001
 43
0.0000000001
 40
0.0
 40
0.0
 40
0.0
 40
0.0
 40
1.0
 40
1.0
 40
1.0
 40
1.0
 10
-1.0063
 20
-8.2285
 30
0.0
 10
-1.0063
 20
-8.2285
 30
0.0
 10
9.4145
 20
-8.2285
 30
0.0
 10
9.4145
 20
-8.2285
 30
0.0
  0
SPLINE
  5
89
330
1F
100
AcDbEntity
  8
AXIS
 62
   250
100
AcDbSpline
210
0.0
220
0.0
230
1.0
 70
    24
 71
     3
 72
     8
 73
     4
 74
     0
 42
0.0000000001
 43
0.0000000001
 40
0.0
 40
0.0
 40
0.0
 40
0.0
 40
1.0
 40
1.0
 40
1.0
 40
1.0
 10
-17.4482
 20
-8.2285
 30
0.0
 10
-17.4482
 20
-8.2285
 30
0.0
 10
-1.0642
 20
-8.2285
 30
0.0
 10
-1.0642
 20
-8.2285
 30
0.0
  0
SPLINE
  5
8A
330
1F
100
AcDbEntity
  8
AXIS
 62
   250
100
AcDbSpline
210
0.0
220
0.0
230
1.0
 70
    24
 71
     3
 72
     8
 73
     4
 74
     0
 42
0.0000000001
 43
0.0000000001
 40
0.0
 40
0.0
 40
0.0
 40
0.0
 40
1.0
 40
1.0
 40
1.0
 40
1.0
 10
16.4196
 20
-8.2864
 30
0.0
 10
16.4196
 20
-8.2864
 30
0.0
 10
-24.4533
 20
-8.2864
 30
0.0
 10
-24.4533
 20
-8.2864
 30
0.0
  0
SPLINE
  5
8B
330
1F
100
AcDbEntity
  8
AXIS
 62
   250
100
AcDbSpline
210
0.0
220
0.0
230
1.0
 70
    24
 71
     3
 72
     8
 73
     4
 74
     0
 42
0.0000000001
 43
0.0000000001
 40
0.0
 40
0.0
 40
0.0
 40
0.0
 40
1.0
 40
1.0
 40
1.0
 40
1.0
 10
-24.4533
 20
-15.2626
 30
0.0
 10
-24.4533
 20
-15.2626
 30
0.0
 10
16.4196
 20
-15.2626
 30
0.0
 10
16.4196
 20
-15.2626
 30
0.0
  0
SPLINE
  5
8C
330
1F
100
AcDbEntity
  8
AXIS
 62
   250
100
AcDbSpline
210
0.0
220
0.0
230
1.0
 70
    24
 71
     3
 72
     8
 73
     4
 74
     0
 42
0.0000000001
 43
0.0000000001
 40
0.0
 40
0.0
 40
0.0
 40
0.0
 40
1.0
 40
1.0
 40
1.0
 40
1.0
 10
-17.4482
 20
-6.5785
 30
0.0
 10
-17.4482
 20
-6.5785
 30
0.0
 10
-17.4482
 20
-8.2285
 30
0.0
 10
-17.4482
 20
-8.2285
 30
0.0
  0
SPLINE
  5
8D
330
1F
100
AcDbEntity
  8
AXIS
 62
   250
100
AcDbSpline
210
0.0
220
0.0
230
1.0
 70
    24
 71
     3
 72
     8
 73
     4
 74
     0
 42
0.0000000001
 43
0.0000000001
 40
0.0
 40
0.0
 40
0.0
 40
0.0
 40
1.0
 40
1.0
 40
1.0
 40
1.0
 10
-17.564
 20
-8.2864
 30
0.0
 10
-17.564
 20
-8.2864
 30
0.0
 10
-17.564
 20
-6.5206
 30
0.0
 10
-17.564
 20
-6.5206
 30
0.0
  0
SPLINE
  5
8E
330
1F
100
AcDbEntity
  8
AXIS
 62
   250
100
AcDbSpline
210
0.0
220
0.0
230
1.0
 70
    24
 71
     3
 72
     8
 73
     4
 74
     0
 42
0.0000000001
 43
0.0000000001
 40
0.0
 40
0.0
 40
0.0
 40
0.0
 40
1.0
 40
1.0
 40
1.0
 40
1.0
 10
-24.4533
 20
12.0343
 30
0.0
 10
-24.4533
 20
12.0343
 30
0.0
 10
-24.4533
 20
-15.2626
 30
0.0
 10
-24.4533
 20
-15.2626
 30
0.0
  0
SPLINE
  5
8F
330
1F
100
AcDbEntity
  8
AXIS
 62
   250
100
AcDbSpline
210
0.0
220
0.0
230
1.0
 70
     8
 71
     3
 72
    12
 73
     8
 74
     0
 42
0.0000000001
 43
0.0000000001
 40
0.0
 40
0.0
 40
0.0
 40
0.0
 40
0.3333333333333333
 40
0.3333333333333333
 40
0.3333333333333333
 40
0.3333333333333333
 40
1.0
 40
1.0
 40
1.0
 40
1.0
 10
-24.4533
 20
12.0343
 30
0.0
 10
-24.4533
 20
12.0343
 30
0.0
 10
16.4196
 20
12.0343
 30
0.0
 10
16.4196
 20
12.0343
 30
0.0
 10
16.4196
 20
12.0343
 30
0.0
 10
16.4196
 20
12.0343
 30
0.0
 10
16.4196
 20
-15.2626
 30
0.0
 10
16.4196
 20
-15.2626
 30
0.0
  0
SPLINE
  5
90
330
1F
100
AcDbEntity
  8
AXIS
 62
   250
100
AcDbSpline
210
0.0
220
0.0
230
1.0
 70
    24
 71
     3
 72
     8
 73
     4
 74
     0
 42
0.0000000001
 43
0.0000000001
 40
0.0
 40
0.0
 40
0.0
 40
0.0
 40
1.0
 40
1.0
 40
1.0
 40
1.0
 10
24.9734
 20
-8.5103
 30
0.0
 10
24.9734
 20
-8.5103
 30
0.0
 10
25.2918
 20
-8.5103
 30
0.0
 10
25.2918
 20
-8.5103
 30
0.0
  0
SPLINE
  5
91
330
1F
100
AcDbEntity
  8
AXIS
 62
   250
100
AcDbSpline
210
0.0
220
0.0
230
1.0
 70
    24
 71
     3
 72
     8
 73
     4
 74
     0
 42
0.0000000001
 43
0.0000000001
 40
0.0
 40
0.0
 40
0.0
 40
0.0
 40
1.0
 40
1.0
 40
1.0
 40
1.0
 10
24.9734
 20
-15.3356
 30
0.0
 10
24.9734
 20
-15.3356
 30
0.0
 10
25.2918
 20
-15.3356
 30
0.0
 10
25.2918
 20
-15.3356
 30
0.0
  0
SPLINE
  5
92
330
1F
100
AcDbEntity
  8
AXIS
 62
   250
100
AcDbSpline
210
0.0
220
0.0
230
1.0
 70
    24
 71
     3
 72
     8
 73
     4
 74
     0
 42
0.0000000001
 43
0.0000000001
 40
0.0
 40
0.0
 40
0.0
 40
0.0
 40
1.0
 40
1.0
 40
1.0
 40
1.0
 10
24.9734
 20
-8.4537
 30
0.0
 10
24.9734
 20
-8.4537
 30
0.0
 10
25.2339
 20
-8.4537
 30
0.0
 10
25.2339
 20
-8.4537
 30
0.0
  0
SPLINE
  5
93
330
1F
100
AcDbEntity
  8
AXIS
 62
   250
100
AcDbSpline
210
0.0
220
0.0
230
1.0
 70
    24
 71
     3
 72
     8
 73
     4
 74
     0
 42
0.0000000001
 43
0.0000000001
 40
0.0
 40
0.0
 40
0.0
 40
0.0
 40
1.0
 40
1.0
 40
1.0
 40
1.0
 10
25.2339
 20
-8.4537
 30
0.0
 10
25.2339
 20
-8.4537
 30
0.0
 10
28.3021
 20
-8.4537
 30
0.0
 10
28.3021
 20
-8.4537
 30
0.0
  0
SPLINE
  5
94
330
1F
100
AcDbEntity
  8
AXIS
 62
   250
100
AcDbSpline
210
0.0
220
0.0
230
1.0
 70
    24
 71
     3
 72
     8
 73
     4
 74
     0
 42
0.0000000001
 43
0.0000000001
 40
0.0
 40
0.0
 40
0.0
 40
0.0
 40
1.0
 40
1.0
 40
1.0
 40
1.0
 10
24.9734
 20
-6.8394
 30
0.0
 10
24.9734
 20
-6.8394
 30
0.0
 10
25.2339
 20
-6.8394
 30
0.0
 10
25.2339
 20
-6.8394
 30
0.0
  0
SPLINE
  5
95
330
1F
100
AcDbEntity
  8
AXIS
 62
   250
100
AcDbSpline
210
0.0
220
0.0
230
1.0
 70
    24
 71
     3
 72
     8
 73
     4
 74
     0
 42
0.0000000001
 43
0.0000000001
 40
0.0
 40
0.0
 40
0.0
 40
0.0
 40
1.0
 40
1.0
 40
1.0
 40
1.0
 10
25.2339
 20
-6.8394
 30
0.0
 10
25.2339
 20
-6.8394
 30
0.0
 10
28.3021
 20
-6.8394
 30
0.0
 10
28.3021
 20
-6.8394
 30
0.0
  0
SPLINE
  5
96
330
1F
100
AcDbEntity
  8
AXIS
 62
   250
100
AcDbSpline
210
0.0
220
0.0
230
1.0
 70
    24
 71
     3
 72
     8
 73
     4
 74
     0
 42
0.0000000001
 43
0.0000000001
 40
0.0
 40
0.0
 40
0.0
 40
0.0
 40
1.0
 40
1.0
 40
1.0
 40
1.0
 10
24.9734
 20
-6.7827
 30
0.0
 10
24.9734
 20
-6.7827
 30
0.0
 10
25.2918
 20
-6.7827
 30
0.0
 10
25.2918
 20
-6.7827
 30
0.0
  0
SPLINE
  5
97
330
1F
100
AcDbEntity
  8
AXIS
 62
   250
100
AcDbSpline
210
0.0
220
0.0
230
1.0
 70
    24
 71
     3
 72
     8
 73
     4
 74
     0
 42
0.0000000001
 43
0.0000000001
 40
0.0
 40
0.0
 40
0.0
 40
0.0
 40
1.0
 40
1.0
 40
1.0
 40
1.0
 10
24.9734
 20
11.3707
 30
0.0
 10
24.9734
 20
11.3707
 30
0.0
 10
24.9734
 20
-15.3356
 30
0.0
 10
24.9734
 20
-15.3356
 30
0.0
  0
SPLINE
  5
98
330
1F
100
AcDbEntity
  8
AXIS
 62
   250
100
AcDbSpline
210
0.0
220
0.0
230
1.0
 70
    24
 71
     3
 72
     8
 73
     4
 74
     0
 42
0.0000000001
 43
0.0000000001
 40
0.0
 40
0.0
 40
0.0
 40
0.0
 40
1.0
 40
1.0
 40
1.0
 40
1.0
 10
24.9734
 20
-6.8394
 30
0.0
 10
24.9734
 20
-6.8394
 30
0.0
 10
24.9734
 20
-8.4537
 30
0.0
 10
24.9734
 20
-8.4537
 30
0.0
  0
SPLINE
  5
99
330
1F
100
AcDbEntity
  8
AXIS
 62
   250
100
AcDbSpline
210
0.0
220
0.0
230
1.0
 70
    24
 71
     3
 72
     8
 73
     4
 74
     0
 42
0.0000000001
 43
0.0000000001
 40
0.0
 40
0.0
 40
0.0
 40
0.0
 40
1.0
 40
1.0
 40
1.0
 40
1.0
 10
24.9734
 20
11.3707
 30
0.0
 10
24.9734
 20
11.3707
 30
0.0
 10
25.2918
 20
11.3707
 30
0.0
 10
25.2918
 20
11.3707
 30
0.0
  0
SPLINE
  5
9A
330
1F
100
AcDbEntity
  8
AXIS
 62
   250
100
AcDbSpline
210
0.0
220
0.0
230
1.0
 70
    24
 71
     3
 72
     8
 73
     4
 74
     0
 42
0.0000000001
 43
0.0000000001
 40
0.0
 40
0.0
 40
0.0
 40
0.0
 40
1.0
 40
1.0
 40
1.0
 40
1.0
 10
28.3021
 20
-6.8394
 30
0.0
 10
28.3021
 20
-6.8394
 30
0.0
 10
28.3021
 20
-8.4537
 30
0.0
 10
28.3021
 20
-8.4537
 30
0.0
  0
SPLINE
  5
9B
330
1F
100
AcDbEntity
  8
AXIS
 62
   250
100
AcDbSpline
210
0.0
220
0.0
230
1.0
 70
    24
 71
     3
 72
     8
 73
     4
 74
     0
 42
0.0000000001
 43
0.0000000001
 40
0.0
 40
0.0
 40
0.0
 40
0.0
 40
1.0
 40
1.0
 40
1.0
 40
1.0
 10
25.2918
 20
-8.5103
 30
0.0
 10
25.2918
 20
-8.5103
 30
0.0
 10
25.2918
 20
-15.3356
 30
0.0
 10
25.2918
 20
-15.3356
 30
0.0
  0
SPLINE
  5
9C
330
1F
100
AcDbEntity
  8
AXIS
 62
   250
100
AcDbSpline
210
0.0
220
0.0
230
1.0
 70
    24
 71
     3
 72
     8
 73
     4
 74
     0
 42
0.0000000001
 43
0.0000000001
 40
0.0
 40
0.0
 40
0.0
 40
0.0
 40
1.0
 40
1.0
 40
1.0
 40
1.0
 10
25.2918
 20
11.3707
 30
0.0
 10
25.2918
 20
11.3707
 30
0.0
 10
25.2918
 20
-6.7827
 30
0.0
 10
25.2918
 20
-6.7827
 30
0.0
  0
SPLINE
  5
9D
330
1F
100
AcDbEntity
  8
AXIS
 62
   250
100
AcDbSpline
210
0.0
220
0.0
230
1.0
 70
    24
 71
     3
 72
     8
 73
     4
 74
     0
 42
0.0000000001
 43
0.0000000001
 40
0.0
 40
0.0
 40
0.0
 40
0.0
 40
1.0
 40
1.0
 40
1.0
 40
1.0
 10
25.2339
 20
-6.7827
 30
0.0
 10
25.2339
 20
-6.7827
 30
0.0
 10
25.2339
 20
-8.5103
 30
0.0
 10
25.2339
 20
-8.5103
 30
0.0
  0
SPLINE
  5
9E
330
1F
100
AcDbEntity
  8
AXIS
 62
   250
100
AcDbSpline
210
0.0
220
0.0
230
1.0
 70
    11
 71
     3
 72
    20
 73
    16
 74
     0
 42
0.0000000001
 43
0.0000000001
 40
0.0
 40
0.0
 40
0.0
 40
0.0
 40
0.2
 40
0.2
 40
0.2
 40
0.2
 40
0.4
 40
0.4
 40
0.4
 40
0.4
 40
0.6
 40
0.6
 40
0.6
 40
0.6
 40
1.0
 40
1.0
 40
1.0
 40
1.0
 10
6.4401
 20
-3.1902
 30
0.0
 10
6.4401
 20
-3.1902
 30
0.0
 10
9.4431
 20
-3.614
 30
0.0
 10
9.4431
 20
-3.614
 30
0.0
 10
9.4431
 20
-3.614
 30
0.0
 10
9.4431
 20
-3.614
 30
0.0
 10
9.4431
 20
-3.7081
 30
0.0
 10
9.4431
 20
-3.7081
 30
0.0
 10
9.4431
 20
-3.7081
 30
0.0
 10
9.4431
 20
-3.7081
 30
0.0
 10
6.4401
 20
-4.1601
 30
0.0
 10
6.4401
 20
-4.1601
 30
0.0
 10
6.4401
 20
-4.1601
 30
0.0
 10
6.4401
 20
-4.1601
 30
0.0
 10
6.4401
 20
-3.1902
 30
0.0
 10
6.4401
 20
-3.1902
 30
0.0
  0
SPLINE
  5
9F
330
1F
100
AcDbEntity
  8
AXIS
 62
   250
100
AcDbSpline
210
0.0
220
0.0
230
1.0
 70
    11
 71
     3
 72
    20
 73
    16
 74
     0
 42
0.0000000001
 43
0.0000000001
 40
0.0
 40
0.0
 40
0.0
 40
0.0
 40
0.2
 40
0.2
 40
0.2
 40
0.2
 40
0.4
 40
0.4
 40
0.4
 40
0.4
 40
0.6
 40
0.6
 40
0.6
 40
0.6
 40
1.0
 40
1.0
 40
1.0
 40
1.0
 10
2.1198
 20
-4.1492
 30
0.0
 10
2.1198
 20
-4.1492
 30
0.0
 10
-0.8802
 20
-3.7259
 30
0.0
 10
-0.8802
 20
-3.7259
 30
0.0
 10
-0.8802
 20
-3.7259
 30
0.0
 10
-0.8802
 20
-3.7259
 30
0.0
 10
-0.8802
 20
-3.6318
 30
0.0
 10
-0.8802
 20
-3.6318
 30
0.0
 10
-0.8802
 20
-3.6318
 30
0.0
 10
-0.8802
 20
-3.6318
 30
0.0
 10
2.1198
 20
-3.1803
 30
0.0
 10
2.1198
 20
-3.1803
 30
0.0
 10
2.1198
 20
-3.1803
 30
0.0
 10
2.1198
 20
-3.1803
 30
0.0
 10
2.1198
 20
-4.1492
 30
0.0
 10
2.1198
 20
-4.1492
 30
0.0
  0
SPLINE
  5
A0
330
1F
100
AcDbEntity
  8
AXIS
 62
   250
100
AcDbSpline
210
0.0
220
0.0
230
1.0
 70
    24
 71
     3
 72
     8
 73
     4
 74
     0
 42
0.0000000001
 43
0.0000000001
 40
0.0
 40
0.0
 40
0.0
 40
0.0
 40
1.0
 40
1.0
 40
1.0
 40
1.0
 10
9.5141
 20
-6.309
 30
0.0
 10
9.5141
 20
-6.309
 30
0.0
 10
9.5141
 20
-3.134
 30
0.0
 10
9.5141
 20
-3.134
 30
0.0
  0
SPLINE
  5
A1
330
1F
100
AcDbEntity
  8
AXIS
 62
   250
100
AcDbSpline
210
0.0
220
0.0
230
1.0
 70
    24
 71
     3
 72
     8
 73
     4
 74
     0
 42
0.0000000001
 43
0.0000000001
 40
0.0
 40
0.0
 40
0.0
 40
0.0
 40
1.0
 40
1.0
 40
1.0
 40
1.0
 10
-0.9632
 20
-6.2649
 30
0.0
 10
-0.9632
 20
-6.2649
 30
0.0
 10
-0.9632
 20
-3.1341
 30
0.0
 10
-0.9632
 20
-3.1341
 30
0.0
  0
SPLINE
  5
A2
330
1F
100
AcDbEntity
  8
AXIS
 62
   250
100
AcDbSpline
210
0.0
220
0.0
230
1.0
 70
    24
 71
     3
 72
     8
 73
     4
 74
     0
 42
0.0000000001
 43
0.0000000001
 40
0.0
 40
0.0
 40
0.0
 40
0.0
 40
1.0
 40
1.0
 40
1.0
 40
1.0
 10
9.1477
 20
-3.6774
 30
0.0
 10
9.1477
 20
-3.6774
 30
0.0
 10
-0.8951
 20
-3.6774
 30
0.0
 10
-0.8951
 20
-3.6774
 30
0.0
  0
SPLINE
  5
A3
330
1F
100
AcDbEntity
  8
AXIS
 62
   250
100
AcDbSpline
210
0.0
220
0.0
230
1.0
 70
    11
 71
     3
 72
    44
 73
    40
 74
     0
 42
0.0000000001
 43
0.0000000001
 40
0.0
 40
0.0
 40
0.0
 40
0.0
 40
0.0909090909090909
 40
0.0909090909090909
 40
0.0909090909090909
 40
0.0909090909090909
 40
0.1818181818181818
 40
0.1818181818181818
 40
0.1818181818181818
 40
0.1818181818181818
 40
0.2727272727272727
 40
0.2727272727272727
 40
0.2727272727272727
 40
0.2727272727272727
 40
0.3636363636363636
 40
0.3636363636363636
 40
0.3636363636363636
 40
0.3636363636363636
 40
0.4545454545454545
 40
0.4545454545454545
 40
0.4545454545454545
 40
0.4545454545454545
 40
0.5454545454545454
 40
0.5454545454545454
 40
0.5454545454545454
 40
0.5454545454545454
 40
0.6363636363636364
 40
0.6363636363636364
 40
0.6363636363636364
 40
0.6363636363636364
 40
0.7272727272727273
 40
0.7272727272727273
 40
0.7272727272727273
 40
0.7272727272727273
 40
0.8181818181818182
 40
0.8181818181818182
 40
0.8181818181818182
 40
0.8181818181818182
 40
1.0
 40
1.0
 40
1.0
 40
1.0
 10
2.4935
 20
-3.2594
 30
0.0
 10
2.3566
 20
-3.0867
 30
0.0
 10
2.2409
 20
-2.8845
 30
0.0
 10
2.1464
 20
-2.6531
 30
0.0
 10
2.1464
 20
-2.6531
 30
0.0
 10
2.0519
 20
-2.4212
 30
0.0
 10
2.0043
 20
-2.1818
 30
0.0
 10
2.0043
 20
-1.9334
 30
0.0
 10
2.0043
 20
-1.9334
 30
0.0
 10
2.0043
 20
-1.7147
 30
0.0
 10
2.0396
 20
-1.5054
 30
0.0
 10
2.1106
 20
-1.305
 30
0.0
 10
2.1106
 20
-1.305
 30
0.0
 10
2.1934
 20
-1.0726
 30
0.0
 10
2.3209
 20
-0.8412
 30
0.0
 10
2.4935
 20
-0.6107
 30
0.0
 10
2.4935
 20
-0.6107
 30
0.0
 10
2.4935
 20
-0.6107
 30
0.0
 10
2.6713
 20
-0.6107
 30
0.0
 10
2.6713
 20
-0.6107
 30
0.0
 10
2.6713
 20
-0.6107
 30
0.0
 10
2.5603
 20
-0.8017
 30
0.0
 10
2.4869
 20
-0.9381
 30
0.0
 10
2.4512
 20
-1.02
 30
0.0
 10
2.4512
 20
-1.02
 30
0.0
 10
2.3947
 20
-1.1465
 30
0.0
 10
2.351
 20
-1.2791
 30
0.0
 10
2.3185
 20
-1.4169
 30
0.0
 10
2.3185
 20
-1.4169
 30
0.0
 10
2.279
 20
-1.5886
 30
0.0
 10
2.2593
 20
-1.7613
 30
0.0
 10
2.2593
 20
-1.9348
 30
0.0
 10
2.2593
 20
-1.9348
 30
0.0
 10
2.2593
 20
-2.377
 30
0.0
 10
2.3966
 20
-2.8182
 30
0.0
 10
2.6713
 20
-3.2594
 30
0.0
 10
2.6713
 20
-3.2594
 30
0.0
 10
2.6713
 20
-3.2594
 30
0.0
 10
2.4935
 20
-3.2594
 30
0.0
 10
2.4935
 20
-3.2594
 30
0.0
  0
SPLINE
  5
A4
330
1F
100
AcDbEntity
  8
AXIS
 62
   250
100
AcDbSpline
210
0.0
220
0.0
230
1.0
 70
    11
 71
     3
 72
    80
 73
    76
 74
     0
 42
0.0000000001
 43
0.0000000001
 40
0.0
 40
0.0
 40
0.0
 40
0.0
 40
0.05
 40
0.05
 40
0.05
 40
0.05
 40
0.1
 40
0.1
 40
0.1
 40
0.1
 40
0.15
 40
0.15
 40
0.15
 40
0.15
 40
0.2
 40
0.2
 40
0.2
 40
0.2
 40
0.25
 40
0.25
 40
0.25
 40
0.25
 40
0.3
 40
0.3
 40
0.3
 40
0.3
 40
0.35
 40
0.35
 40
0.35
 40
0.35
 40
0.4
 40
0.4
 40
0.4
 40
0.4
 40
0.45
 40
0.45
 40
0.45
 40
0.45
 40
0.5
 40
0.5
 40
0.5
 40
0.5
 40
0.55
 40
0.55
 40
0.55
 40
0.55
 40
0.6
 40
0.6
 40
0.6
 40
0.6
 40
0.65
 40
0.65
 40
0.65
 40
0.65
 40
0.7
 40
0.7
 40
0.7
 40
0.7
 40
0.75
 40
0.75
 40
0.75
 40
0.75
 40
0.8
 40
0.8
 40
0.8
 40
0.8
 40
0.85
 40
0.85
 40
0.85
 40
0.85
 40
0.9
 40
0.9
 40
0.9
 40
0.9
 40
1.0
 40
1.0
 40
1.0
 40
1.0
 10
4.1774
 20
-1.1399
 30
0.0
 10
4.1774
 20
-1.1399
 30
0.0
 10
3.931
 20
-1.1592
 30
0.0
 10
3.931
 20
-1.1592
 30
0.0
 10
3.931
 20
-1.1592
 30
0.0
 10
3.9089
 20
-1.0618
 30
0.0
 10
3.8778
 20
-0.9908
 30
0.0
 10
3.8374
 20
-0.9471
 30
0.0
 10
3.8374
 20
-0.9471
 30
0.0
 10
3.7701
 20
-0.876
 30
0.0
 10
3.6873
 20
-0.8407
 30
0.0
 10
3.589
 20
-0.8407
 30
0.0
 10
3.589
 20
-0.8407
 30
0.0
 10
3.51
 20
-0.8407
 30
0.0
 10
3.4409
 20
-0.8629
 30
0.0
 10
3.3811
 20
-0.9071
 30
0.0
 10
3.3811
 20
-0.9071
 30
0.0
 10
3.303
 20
-0.964
 30
0.0
 10
3.2414
 20
-1.0472
 30
0.0
 10
3.1963
 20
-1.1564
 30
0.0
 10
3.1963
 20
-1.1564
 30
0.0
 10
3.1516
 20
-1.2655
 30
0.0
 10
3.1281
 20
-1.4212
 30
0.0
 10
3.1262
 20
-1.6234
 30
0.0
 10
3.1262
 20
-1.6234
 30
0.0
 10
3.1859
 20
-1.5327
 30
0.0
 10
3.2588
 20
-1.4649
 30
0.0
 10
3.3454
 20
-1.4207
 30
0.0
 10
3.3454
 20
-1.4207
 30
0.0
 10
3.4314
 20
-1.377
 30
0.0
 10
3.5222
 20
-1.3549
 30
0.0
 10
3.6168
 20
-1.3549
 30
0.0
 10
3.6168
 20
-1.3549
 30
0.0
 10
3.7823
 20
-1.3549
 30
0.0
 10
3.923
 20
-1.4155
 30
0.0
 10
4.0392
 20
-1.5374
 30
0.0
 10
4.0392
 20
-1.5374
 30
0.0
 10
4.1553
 20
-1.6592
 30
0.0
 10
4.2137
 20
-1.8163
 30
0.0
 10
4.2137
 20
-2.0091
 30
0.0
 10
4.2137
 20
-2.0091
 30
0.0
 10
4.2137
 20
-2.1361
 30
0.0
 10
4.1859
 20
-2.2537
 30
0.0
 10
4.1313
 20
-2.3629
 30
0.0
 10
4.1313
 20
-2.3629
 30
0.0
 10
4.0768
 20
-2.4715
 30
0.0
 10
4.0015
 20
-2.5552
 30
0.0
 10
3.906
 20
-2.6131
 30
0.0
 10
3.906
 20
-2.6131
 30
0.0
 10
3.8106
 20
-2.6709
 30
0.0
 10
3.7024
 20
-2.6996
 30
0.0
 10
3.581
 20
-2.6996
 30
0.0
 10
3.581
 20
-2.6996
 30
0.0
 10
3.3741
 20
-2.6996
 30
0.0
 10
3.2057
 20
-2.6239
 30
0.0
 10
3.0754
 20
-2.4715
 30
0.0
 10
3.0754
 20
-2.4715
 30
0.0
 10
2.9446
 20
-2.3196
 30
0.0
 10
2.8797
 20
-2.0689
 30
0.0
 10
2.8797
 20
-1.7199
 30
0.0
 10
2.8797
 20
-1.7199
 30
0.0
 10
2.8797
 20
-1.3295
 30
0.0
 10
2.9517
 20
-1.0458
 30
0.0
 10
3.0961
 20
-0.8685
 30
0.0
 10
3.0961
 20
-0.8685
 30
0.0
 10
3.2217
 20
-0.7142
 30
0.0
 10
3.391
 20
-0.6366
 30
0.0
 10
3.6045
 20
-0.6366
 30
0.0
 10
3.6045
 20
-0.6366
 30
0.0
 10
3.7631
 20
-0.6366
 30
0.0
 10
3.8933
 20
-0.6813
 30
0.0
 10
3.9949
 20
-0.7707
 30
0.0
 10
3.9949
 20
-0.7707
 30
0.0
 10
4.0965
 20
-0.8596
 30
0.0
 10
4.1572
 20
-0.9828
 30
0.0
 10
4.1774
 20
-1.1399
 30
0.0
  0
SPLINE
  5
A5
330
1F
100
AcDbEntity
  8
AXIS
 62
   250
100
AcDbSpline
210
0.0
220
0.0
230
1.0
 70
    11
 71
     3
 72
    40
 73
    36
 74
     0
 42
0.0000000001
 43
0.0000000001
 40
0.0
 40
0.0
 40
0.0
 40
0.0
 40
0.1
 40
0.1
 40
0.1
 40
0.1
 40
0.2
 40
0.2
 40
0.2
 40
0.2
 40
0.3
 40
0.3
 40
0.3
 40
0.3
 40
0.4
 40
0.4
 40
0.4
 40
0.4
 40
0.5
 40
0.5
 40
0.5
 40
0.5
 40
0.6
 40
0.6
 40
0.6
 40
0.6
 40
0.7
 40
0.7
 40
0.7
 40
0.7
 40
0.8
 40
0.8
 40
0.8
 40
0.8
 40
1.0
 40
1.0
 40
1.0
 40
1.0
 10
3.1647
 20
-2.0105
 30
0.0
 10
3.1647
 20
-2.0962
 30
0.0
 10
3.1831
 20
-2.178
 30
0.0
 10
3.2193
 20
-2.2561
 30
0.0
 10
3.2193
 20
-2.2561
 30
0.0
 10
3.2555
 20
-2.3342
 30
0.0
 10
3.3063
 20
-2.3934
 30
0.0
 10
3.3712
 20
-2.4343
 30
0.0
 10
3.3712
 20
-2.4343
 30
0.0
 10
3.4366
 20
-2.4753
 30
0.0
 10
3.5053
 20
-2.496
 30
0.0
 10
3.5768
 20
-2.496
 30
0.0
 10
3.5768
 20
-2.496
 30
0.0
 10
3.6817
 20
-2.496
 30
0.0
 10
3.7715
 20
-2.4536
 30
0.0
 10
3.8468
 20
-2.369
 30
0.0
 10
3.8468
 20
-2.369
 30
0.0
 10
3.922
 20
-2.2843
 30
0.0
 10
3.9597
 20
-2.1695
 30
0.0
 10
3.9597
 20
-2.0247
 30
0.0
 10
3.9597
 20
-2.0247
 30
0.0
 10
3.9597
 20
-1.885
 30
0.0
 10
3.9225
 20
-1.7749
 30
0.0
 10
3.8482
 20
-1.6945
 30
0.0
 10
3.8482
 20
-1.6945
 30
0.0
 10
3.7739
 20
-1.614
 30
0.0
 10
3.6803
 20
-1.574
 30
0.0
 10
3.5674
 20
-1.574
 30
0.0
 10
3.5674
 20
-1.574
 30
0.0
 10
3.455
 20
-1.574
 30
0.0
 10
3.3599
 20
-1.614
 30
0.0
 10
3.2819
 20
-1.6945
 30
0.0
 10
3.2819
 20
-1.6945
 30
0.0
 10
3.2038
 20
-1.7749
 30
0.0
 10
3.1647
 20
-1.8803
 30
0.0
 10
3.1647
 20
-2.0105
 30
0.0
  0
SPLINE
  5
A6
330
1F
100
AcDbEntity
  8
AXIS
 62
   250
100
AcDbSpline
210
0.0
220
0.0
230
1.0
 70
    11
 71
     3
 72
   124
 73
   120
 74
     0
 42
0.0000000001
 43
0.0000000001
 40
0.0
 40
0.0
 40
0.0
 40
0.0
 40
0.032258064516129
 40
0.032258064516129
 40
0.032258064516129
 40
0.032258064516129
 40
0.0645161290322581
 40
0.0645161290322581
 40
0.0645161290322581
 40
0.0645161290322581
 40
0.0967741935483871
 40
0.0967741935483871
 40
0.0967741935483871
 40
0.0967741935483871
 40
0.1290322580645161
 40
0.1290322580645161
 40
0.1290322580645161
 40
0.1290322580645161
 40
0.1612903225806452
 40
0.1612903225806452
 40
0.1612903225806452
 40
0.1612903225806452
 40
0.1935483870967742
 40
0.1935483870967742
 40
0.1935483870967742
 40
0.1935483870967742
 40
0.2258064516129032
 40
0.2258064516129032
 40
0.2258064516129032
 40
0.2258064516129032
 40
0.2580645161290323
 40
0.2580645161290323
 40
0.2580645161290323
 40
0.2580645161290323
 40
0.2903225806451613
 40
0.2903225806451613
 40
0.2903225806451613
 40
0.2903225806451613
 40
0.3225806451612903
 40
0.3225806451612903
 40
0.3225806451612903
 40
0.3225806451612903
 40
0.3548387096774194
 40
0.3548387096774194
 40
0.3548387096774194
 40
0.3548387096774194
 40
0.3870967741935484
 40
0.3870967741935484
 40
0.3870967741935484
 40
0.3870967741935484
 40
0.4193548387096774
 40
0.4193548387096774
 40
0.4193548387096774
 40
0.4193548387096774
 40
0.4516129032258064
 40
0.4516129032258064
 40
0.4516129032258064
 40
0.4516129032258064
 40
0.4838709677419355
 40
0.4838709677419355
 40
0.4838709677419355
 40
0.4838709677419355
 40
0.5161290322580645
 40
0.5161290322580645
 40
0.5161290322580645
 40
0.5161290322580645
 40
0.5483870967741935
 40
0.5483870967741935
 40
0.5483870967741935
 40
0.5483870967741935
 40
0.5806451612903226
 40
0.5806451612903226
 40
0.5806451612903226
 40
0.5806451612903226
 40
0.6129032258064516
 40
0.6129032258064516
 40
0.6129032258064516
 40
0.6129032258064516
 40
0.6451612903225806
 40
0.6451612903225806
 40
0.6451612903225806
 40
0.6451612903225806
 40
0.6774193548387096
 40
0.6774193548387096
 40
0.6774193548387096
 40
0.6774193548387096
 40
0.7096774193548387
 40
0.7096774193548387
 40
0.7096774193548387
 40
0.7096774193548387
 40
0.7419354838709677
 40
0.7419354838709677
 40
0.7419354838709677
 40
0.7419354838709677
 40
0.7741935483870968
 40
0.7741935483870968
 40
0.7741935483870968
 40
0.7741935483870968
 40
0.8064516129032258
 40
0.8064516129032258
 40
0.8064516129032258
 40
0.8064516129032258
 40
0.8387096774193549
 40
0.8387096774193549
 40
0.8387096774193549
 40
0.8387096774193549
 40
0.8709677419354839
 40
0.8709677419354839
 40
0.8709677419354839
 40
0.8709677419354839
 40
0.9032258064516129
 40
0.9032258064516129
 40
0.9032258064516129
 40
0.9032258064516129
 40
0.9354838709677419
 40
0.9354838709677419
 40
0.9354838709677419
 40
0.9354838709677419
 40
1.0
 40
1.0
 40
1.0
 40
1.0
 10
4.4615
 20
-2.1319
 30
0.0
 10
4.4615
 20
-2.1319
 30
0.0
 10
4.7094
 20
-2.099
 30
0.0
 10
4.7094
 20
-2.099
 30
0.0
 10
4.7094
 20
-2.099
 30
0.0
 10
4.7381
 20
-2.2396
 30
0.0
 10
4.7866
 20
-2.3407
 30
0.0
 10
4.8548
 20
-2.4028
 30
0.0
 10
4.8548
 20
-2.4028
 30
0.0
 10
4.9234
 20
-2.4649
 30
0.0
 10
5.0067
 20
-2.496
 30
0.0
 10
5.105
 20
-2.496
 30
0.0
 10
5.105
 20
-2.496
 30
0.0
 10
5.2216
 20
-2.496
 30
0.0
 10
5.3204
 20
-2.4555
 30
0.0
 10
5.4009
 20
-2.3746
 30
0.0
 10
5.4009
 20
-2.3746
 30
0.0
 10
5.4808
 20
-2.2937
 30
0.0
 10
5.5213
 20
-2.1935
 30
0.0
 10
5.5213
 20
-2.074
 30
0.0
 10
5.5213
 20
-2.074
 30
0.0
 10
5.5213
 20
-1.9602
 30
0.0
 10
5.4841
 20
-1.8661
 30
0.0
 10
5.4098
 20
-1.7923
 30
0.0
 10
5.4098
 20
-1.7923
 30
0.0
 10
5.335
 20
-1.7185
 30
0.0
 10
5.2405
 20
-1.6813
 30
0.0
 10
5.1257
 20
-1.6813
 30
0.0
 10
5.1257
 20
-1.6813
 30
0.0
 10
5.0787
 20
-1.6813
 30
0.0
 10
5.0203
 20
-1.6907
 30
0.0
 10
4.9507
 20
-1.709
 30
0.0
 10
4.9507
 20
-1.709
 30
0.0
 10
4.9507
 20
-1.709
 30
0.0
 10
4.9785
 20
-1.4913
 30
0.0
 10
4.9785
 20
-1.4913
 30
0.0
 10
4.9785
 20
-1.4913
 30
0.0
 10
4.9949
 20
-1.4931
 30
0.0
 10
5.0081
 20
-1.4941
 30
0.0
 10
5.0184
 20
-1.4941
 30
0.0
 10
5.0184
 20
-1.4941
 30
0.0
 10
5.1238
 20
-1.4941
 30
0.0
 10
5.2188
 20
-1.4663
 30
0.0
 10
5.3035
 20
-1.4113
 30
0.0
 10
5.3035
 20
-1.4113
 30
0.0
 10
5.3882
 20
-1.3563
 30
0.0
 10
5.4305
 20
-1.2711
 30
0.0
 10
5.4305
 20
-1.1564
 30
0.0
 10
5.4305
 20
-1.1564
 30
0.0
 10
5.4305
 20
-1.0656
 30
0.0
 10
5.3994
 20
-0.9899
 30
0.0
 10
5.3378
 20
-0.9306
 30
0.0
 10
5.3378
 20
-0.9306
 30
0.0
 10
5.2762
 20
-0.8709
 30
0.0
 10
5.1967
 20
-0.8407
 30
0.0
 10
5.0993
 20
-0.8407
 30
0.0
 10
5.0993
 20
-0.8407
 30
0.0
 10
5.0029
 20
-0.8407
 30
0.0
 10
4.9225
 20
-0.8713
 30
0.0
 10
4.8585
 20
-0.9315
 30
0.0
 10
4.8585
 20
-0.9315
 30
0.0
 10
4.7941
 20
-0.9922
 30
0.0
 10
4.7527
 20
-1.0835
 30
0.0
 10
4.7343
 20
-1.2048
 30
0.0
 10
4.7343
 20
-1.2048
 30
0.0
 10
4.7343
 20
-1.2048
 30
0.0
 10
4.4865
 20
-1.1606
 30
0.0
 10
4.4865
 20
-1.1606
 30
0.0
 10
4.4865
 20
-1.1606
 30
0.0
 10
4.5166
 20
-0.9941
 30
0.0
 10
4.5857
 20
-0.8652
 30
0.0
 10
4.693
 20
-0.774
 30
0.0
 10
4.693
 20
-0.774
 30
0.0
 10
4.8007
 20
-0.6827
 30
0.0
 10
4.9343
 20
-0.6366
 30
0.0
 10
5.0942
 20
-0.6366
 30
0.0
 10
5.0942
 20
-0.6366
 30
0.0
 10
5.2042
 20
-0.6366
 30
0.0
 10
5.3058
 20
-0.6606
 30
0.0
 10
5.3985
 20
-0.7076
 30
0.0
 10
5.3985
 20
-0.7076
 30
0.0
 10
5.4912
 20
-0.7551
 30
0.0
 10
5.5622
 20
-0.8196
 30
0.0
 10
5.6116
 20
-0.9014
 30
0.0
 10
5.6116
 20
-0.9014
 30
0.0
 10
5.6605
 20
-0.9833
 30
0.0
 10
5.6854
 20
-1.0698
 30
0.0
 10
5.6854
 20
-1.162
 30
0.0
 10
5.6854
 20
-1.162
 30
0.0
 10
5.6854
 20
-1.249
 30
0.0
 10
5.6619
 20
-1.3285
 30
0.0
 10
5.6149
 20
-1.4005
 30
0.0
 10
5.6149
 20
-1.4005
 30
0.0
 10
5.5678
 20
-1.472
 30
0.0
 10
5.4987
 20
-1.5289
 30
0.0
 10
5.407
 20
-1.5712
 30
0.0
 10
5.407
 20
-1.5712
 30
0.0
 10
5.5264
 20
-1.5985
 30
0.0
 10
5.6191
 20
-1.6559
 30
0.0
 10
5.6854
 20
-1.7429
 30
0.0
 10
5.6854
 20
-1.7429
 30
0.0
 10
5.7513
 20
-1.8295
 30
0.0
 10
5.7842
 20
-1.9381
 30
0.0
 10
5.7842
 20
-2.0684
 30
0.0
 10
5.7842
 20
-2.0684
 30
0.0
 10
5.7842
 20
-2.2448
 30
0.0
 10
5.7202
 20
-2.3944
 30
0.0
 10
5.5914
 20
-2.5171
 30
0.0
 10
5.5914
 20
-2.5171
 30
0.0
 10
5.4629
 20
-2.6399
 30
0.0
 10
5.3002
 20
-2.701
 30
0.0
 10
5.1036
 20
-2.701
 30
0.0
 10
5.1036
 20
-2.701
 30
0.0
 10
4.9263
 20
-2.701
 30
0.0
 10
4.779
 20
-2.6484
 30
0.0
 10
4.6619
 20
-2.5425
 30
0.0
 10
4.6619
 20
-2.5425
 30
0.0
 10
4.5448
 20
-2.4372
 30
0.0
 10
4.478
 20
-2.3003
 30
0.0
 10
4.4615
 20
-2.1319
 30
0.0
  0
SPLINE
  5
A7
330
1F
100
AcDbEntity
  8
AXIS
 62
   250
100
AcDbSpline
210
0.0
220
0.0
230
1.0
 70
    11
 71
     3
 72
    44
 73
    40
 74
     0
 42
0.0000000001
 43
0.0000000001
 40
0.0
 40
0.0
 40
0.0
 40
0.0
 40
0.0909090909090909
 40
0.0909090909090909
 40
0.0909090909090909
 40
0.0909090909090909
 40
0.1818181818181818
 40
0.1818181818181818
 40
0.1818181818181818
 40
0.1818181818181818
 40
0.2727272727272727
 40
0.2727272727272727
 40
0.2727272727272727
 40
0.2727272727272727
 40
0.3636363636363636
 40
0.3636363636363636
 40
0.3636363636363636
 40
0.3636363636363636
 40
0.4545454545454545
 40
0.4545454545454545
 40
0.4545454545454545
 40
0.4545454545454545
 40
0.5454545454545454
 40
0.5454545454545454
 40
0.5454545454545454
 40
0.5454545454545454
 40
0.6363636363636364
 40
0.6363636363636364
 40
0.6363636363636364
 40
0.6363636363636364
 40
0.7272727272727273
 40
0.7272727272727273
 40
0.7272727272727273
 40
0.7272727272727273
 40
0.8181818181818182
 40
0.8181818181818182
 40
0.8181818181818182
 40
0.8181818181818182
 40
1.0
 40
1.0
 40
1.0
 40
1.0
 10
6.2611
 20
-3.2594
 30
0.0
 10
6.2611
 20
-3.2594
 30
0.0
 10
6.0833
 20
-3.2594
 30
0.0
 10
6.0833
 20
-3.2594
 30
0.0
 10
6.0833
 20
-3.2594
 30
0.0
 10
6.358
 20
-2.8182
 30
0.0
 10
6.4954
 20
-2.377
 30
0.0
 10
6.4954
 20
-1.9348
 30
0.0
 10
6.4954
 20
-1.9348
 30
0.0
 10
6.4954
 20
-1.7622
 30
0.0
 10
6.4756
 20
-1.591
 30
0.0
 10
6.4361
 20
-1.4207
 30
0.0
 10
6.4361
 20
-1.4207
 30
0.0
 10
6.4051
 20
-1.2834
 30
0.0
 10
6.3613
 20
-1.1507
 30
0.0
 10
6.3054
 20
-1.0242
 30
0.0
 10
6.3054
 20
-1.0242
 30
0.0
 10
6.2696
 20
-0.9414
 30
0.0
 10
6.1958
 20
-0.8036
 30
0.0
 10
6.0833
 20
-0.6107
 30
0.0
 10
6.0833
 20
-0.6107
 30
0.0
 10
6.0833
 20
-0.6107
 30
0.0
 10
6.2611
 20
-0.6107
 30
0.0
 10
6.2611
 20
-0.6107
 30
0.0
 10
6.2611
 20
-0.6107
 30
0.0
 10
6.4338
 20
-0.8412
 30
0.0
 10
6.5617
 20
-1.0726
 30
0.0
 10
6.6445
 20
-1.305
 30
0.0
 10
6.6445
 20
-1.305
 30
0.0
 10
6.715
 20
-1.5054
 30
0.0
 10
6.7503
 20
-1.7147
 30
0.0
 10
6.7503
 20
-1.9334
 30
0.0
 10
6.7503
 20
-1.9334
 30
0.0
 10
6.7503
 20
-2.1818
 30
0.0
 10
6.7028
 20
-2.4212
 30
0.0
 10
6.6078
 20
-2.6531
 30
0.0
 10
6.6078
 20
-2.6531
 30
0.0
 10
6.5128
 20
-2.8845
 30
0.0
 10
6.3971
 20
-3.0867
 30
0.0
 10
6.2611
 20
-3.2594
 30
0.0
  0
SPLINE
  5
A8
330
1F
100
AcDbEntity
  8
AXIS
 62
   250
100
AcDbSpline
210
0.0
220
0.0
230
1.0
 70
    24
 71
     3
 72
     8
 73
     4
 74
     0
 42
0.0000000001
 43
0.0000000001
 40
0.0
 40
0.0
 40
0.0
 40
0.0
 40
1.0
 40
1.0
 40
1.0
 40
1.0
 10
-20.0225
 20
0.7028
 30
0.0
 10
-20.0225
 20
0.7028
 30
0.0
 10
-20.0225
 20
-12.5705
 30
0.0
 10
-20.0225
 20
-12.5705
 30
0.0
  0
ENDSEC
  0
SECTION
  2
OBJECTS
  0
DICTIONARY
  5
C
330
0
100
AcDbDictionary
  3
ACAD_GROUP
350
D
  3
ACAD_LAYOUT
350
1A
  3
ACAD_MATERIAL
350
3B
  3
ACAD_MLEADERSTYLE
350
CB
  3
ACAD_MLINESTYLE
350
17
  3
ACAD_PLOTSETTINGS
350
19
  3
ACAD_VISUALSTYLE
350
2A
  3
ACDBHEADERROUNDTRIPXREC
350
A9
  3
ACDBVARIABLEDICTIONARY
350
C9
  0
DICTIONARY
  5
D
102
{ACAD_REACTORS
330
C
102
}
330
C
100
AcDbDictionary
  0
DICTIONARY
  5
1A
102
{ACAD_REACTORS
330
C
102
}
330
C
100
AcDbDictionary
  0
DICTIONARY
  5
3B
102
{ACAD_REACTORS
330
C
102
}
330
C
100
AcDbDictionary
  3
BYBLOCK
350
3D
  3
BYLAYER
350
3C
  3
GLOBAL
350
3E
  0
DICTIONARY
  5
CB
102
{ACAD_REACTORS
330
C
102
}
330
C
100
AcDbDictionary
  0
DICTIONARY
  5
17
102
{ACAD_REACTORS
330
C
102
}
330
C
100
AcDbDictionary
  3
STANDARD
350
18
  0
DICTIONARY
  5
19
102
{ACAD_REACTORS
330
C
102
}
330
C
100
AcDbDictionary
  0
DICTIONARY
  5
2A
102
{ACAD_REACTORS
330
C
102
}
330
C
100
AcDbDictionary
  3
2DWIREFRAME
350
2F
  3
3D_HIDDEN
350
31
  3
3DWIREFRAME
350
30
  3
BASIC
350
32
  3
BRIGHTEN
350
36
  3
COLORCHANGE
350
3A
  3
CONCEPTUAL
350
34
  3
DIM
350
35
  3
FACEPATTERN
350
39
  3
FLAT
350
2B
  3
FLATWITHEDGES
350
2C
  3
GOURAUD
350
2D
  3
GOURAUDWITHEDGES
350
2E
  3
LINEPATTERN
350
38
  3
REALISTIC
350
33
  3
THICKEN
350
37
  0
DICTIONARY
  5
A9
102
{ACAD_REACTORS
330
C
102
}
330
C
100
AcDbDictionary
  3
CEPSNTYPE
350
B2
  3
DIMSTYLEDATA
350
C8
  3
FINGERPRINTGUID
350
B3
  3
HYPERLINKBASE
350
AC
  3
INSUNITS
350
B1
  3
LAYOUTDICT
350
AE
  3
LWETCUNION
350
B0
  3
PLOTSETDICT
350
AF
  3
PSVPSCALE
350
B5
  3
PUCSBASE
350
B8
  3
PUCSORGBACK
350
BE
  3
PUCSORGBOTTOM
350
BA
  3
PUCSORGFRONT
350
BD
  3
PUCSORGLEFT
350
BB
  3
PUCSORGRIGHT
350
BC
  3
PUCSORGTOP
350
B9
  3
PUCSORTHOREF
350
B6
  3
PUCSORTHOVIEW
350
B7
  3
STYLESHEET
350
AD
  3
TSTACKALIGN
350
AA
  3
TSTACKSIZE
350
AB
  3
UCSBASE
350
C1
  3
UCSORGBACK
350
C7
  3
UCSORGBOTTOM
350
C3
  3
UCSORGFRONT
350
C6
  3
UCSORGLEFT
350
C4
  3
UCSORGRIGHT
350
C5
  3
UCSORGTOP
350
C2
  3
UCSORTHOREF
350
BF
  3
UCSORTHOVIEW
350
C0
  3
VERSIONGUID
350
B4
  0
DICTIONARY
  5
C9
102
{ACAD_REACTORS
330
C
102
}
330
C
100
AcDbDictionary
  3
DIMASSOC
350
CC
  3
HIDETEXT
350
CD
  0
MATERIAL
  5
3D
102
{ACAD_REACTORS
330
3B
102
}
102
{ACAD_XDICTIONARY
360
D0
102
}
330
3B
100
AcDbMaterial
  1
ByBlock
  0
MATERIAL
  5
3C
102
{ACAD_REACTORS
330
3B
102
}
102
{ACAD_XDICTIONARY
360
CE
102
}
330
3B
100
AcDbMaterial
  1
ByLayer
  0
MATERIAL
  5
3E
102
{ACAD_REACTORS
330
3B
102
}
102
{ACAD_XDICTIONARY
360
D2
102
}
330
3B
100
AcDbMaterial
  1
Global
  0
MLINESTYLE
  5
18
102
{ACAD_REACTORS
330
17
102
}
330
17
100
AcDbMlineStyle
  2
Standard
 70
     0
  3

 62
   256
 51
90.0
 52
90.0
 71
     2
 49
0.5
 62
   256
  6
BYLAYER
 49
-0.5
 62
   256
  6
BYLAYER
  0
ACAD_PROXY_OBJECT
  5
2F
102
{ACAD_REACTORS
330
2A
102
}
330
2A
100
AcDbProxyObject
 90
      499
 91
      501
 93
      436
310
42CC9915DA5C99599C985B595049028333333333333E3BF0000000000000FB0107901411070040501600405405064090741402480A0340
1001
ACAD
1000
AcDbSavedByObjectVersion
1070
     0
  0
ACAD_PROXY_OBJECT
  5
31
102
{ACAD_REACTORS
330
2A
102
}
330
2A
100
AcDbProxyObject
 90
      499
 91
      501
 93
      500
310
424CD108121A5919195B90640502408333333333333E3BF0000000000000FB01079024090700405020000000000001110200405405064090740C02480A0340
1001
ACAD
1000
AcDbSavedByObjectVersion
1070
     0
  0
ACAD_PROXY_OBJECT
  5
30
102
{ACAD_REACTORS
330
2A
102
}
330
2A
100
AcDbProxyObject
 90
      499
 91
      501
 93
      436
310
42CCD915DA5C99599C985B595059028333333333333E3BF0000000000000FB0107901411070040501600405405064090741402480A0340
1001
ACAD
1000
AcDbSavedByObjectVersion
1070
     0
  0
ACAD_PROXY_OBJECT
  5
32
102
{ACAD_REACTORS
330
2A
102
}
330
2A
100
AcDbProxyObject
 90
      499
 91
      501
 93
      388
310
4150985CDA58D07406404333333333333E3BF0000000000000FB0107A41107004050150841D405064090741402480A0350
1001
ACAD
1000
AcDbSavedByObjectVersion
1070
     0
  0
ACAD_PROXY_OBJECT
  5
36
102
{ACAD_REACTORS
330
2A
102
}
330
2A
100
AcDbProxyObject
 90
      499
 91
      501
 93
      428
310
42109C9A59DA1D195B90C409028333333333333E3BF0000000000000FB010790141107004050150841D405064090741402480A029950
1001
ACAD
1000
AcDbSavedByObjectVersion
1070
     0
  0
ACAD_PROXY_OBJECT
  5
3A
102
{ACAD_REACTORS
330
2A
102
}
330
2A
100
AcDbProxyObject
 90
      499
 91
      501
 93
      452
310
42D0DBDB1BDC90DA185B99D95104090240C333333333333E3BF0000000000000FB0108901411070040501508421405064090741402480A0350
1001
ACAD
1000
AcDbSavedByObjectVersion
1070
     0
  0
ACAD_PROXY_OBJECT
  5
34
102
{ACAD_REACTORS
330
2A
102
}
330
2A
100
AcDbProxyObject
 90
      499
 91
      501
 93
      500
310
4290DBDB98D95C1D1D585B10940D028333333333333E3BF0000000000000FB0107902409070040501000000000000111010841D405064090740C02480A0340
1001
ACAD
1000
AcDbSavedByObjectVersion
1070
     0
  0
ACAD_PROXY_OBJECT
  5
35
102
{ACAD_REACTORS
330
2A
102
}
330
2A
100
AcDbProxyObject
 90
      499
 91
      501
 93
      412
310
40D11A5B50B409028333333333333E3BF0000000000000FB010790141107004050150841D405064090741402480A02677FFFFFD0
1001
ACAD
1000
AcDbSavedByObjectVersion
1070
     0
  0
ACAD_PROXY_OBJECT
  5
39
102
{ACAD_REACTORS
330
2A
102
}
330
2A
100
AcDbProxyObject
 90
      499
 91
      501
 93
      444
310
42D19858D95C185D1D195C9B90F409028333333333333E3BF0000000000000FB010790141107004050150841D405064090741402480A0350
1001
ACAD
1000
AcDbSavedByObjectVersion
1070
     0
  0
ACAD_PROXY_OBJECT
  5
2B
102
{ACAD_REACTORS
330
2A
102
}
330
2A
100
AcDbProxyObject
 90
      499
 91
      501
 93
      388
310
41119B185D240901404333333333333E3BF0000000000000F9010740A41107004050150841D405064090741402480A1B50
1001
ACAD
1000
AcDbSavedByObjectVersion
1070
     0
  0
ACAD_PROXY_OBJECT
  5
2C
102
{ACAD_REACTORS
330
2A
102
}
330
2A
100
AcDbProxyObject
 90
      499
 91
      501
 93
      476
310
43519B185D15DA5D1A115919D95CD0140901404333333333333E3BF0000000000000F9010740901411070040501600405405064090741402480A1B50
1001
ACAD
1000
AcDbSavedByObjectVersion
1070
     0
  0
ACAD_PROXY_OBJECT
  5
2D
102
{ACAD_REACTORS
330
2A
102
}
330
2A
100
AcDbProxyObject
 90
      499
 91
      501
 93
      412
310
41D1DBDD5C985D5910240902404333333333333E3BF0000000000000F9010740A411070040501641D405064090741402480A1B50
1001
ACAD
1000
AcDbSavedByObjectVersion
1070
     0
  0
ACAD_PROXY_OBJECT
  5
2E
102
{ACAD_REACTORS
330
2A
102
}
330
2A
100
AcDbProxyObject
 90
      499
 91
      501
 93
      500
310
4411DBDD5C985D5915DA5D1A115919D95CD0340902404333333333333E3BF0000000000000F9010740901411070040501600405405064090741402480A1B50
1001
ACAD
1000
AcDbSavedByObjectVersion
1070
     0
  0
ACAD_PROXY_OBJECT
  5
38
102
{ACAD_REACTORS
330
2A
102
}
330
2A
100
AcDbProxyObject
 90
      499
 91
      501
 93
      444
310
42D31A5B995C185D1D195C9B90E409028333333333333E3BF0000000000000FB010790141107004050750841D405064090741402483A0350
1001
ACAD
1000
AcDbSavedByObjectVersion
1070
     0
  0
ACAD_PROXY_OBJECT
  5
33
102
{ACAD_REACTORS
330
2A
102
}
330
2A
100
AcDbProxyObject
 90
      499
 91
      501
 93
      420
310
425499585B1A5CDD1A58D08409028333333333333E3BF0000000000000FB01079019070040501508421405064090741402480A1B40
1001
ACAD
1000
AcDbSavedByObjectVersion
1070
     0
  0
ACAD_PROXY_OBJECT
  5
37
102
{ACAD_REACTORS
330
2A
102
}
330
2A
100
AcDbProxyObject
 90
      499
 91
      501
 93
      412
310
41D51A1A58DAD95B90D409028333333333333E3BF0000000000000FB010790141107004050150C41D405064090741402480A0350
1001
ACAD
1000
AcDbSavedByObjectVersion
1070
     0
  0
XRECORD
  5
B2
102
{ACAD_REACTORS
330
A9
102
}
330
A9
100
AcDbXrecord
 90
        0
  0
XRECORD
  5
C8
102
{ACAD_REACTORS
330
A9
102
}
330
A9
100
AcDbXrecord
1000
DSTYLE
1002
{
1070
   340
340
11
1002
}
  0
XRECORD
  5
B3
102
{ACAD_REACTORS
330
A9
102
}
330
A9
100
AcDbXrecord
  1
{BE6919DF-85CF-4716-81FE-CF5ADCBAF901}
  0
XRECORD
  5
AC
102
{ACAD_REACTORS
330
A9
102
}
330
A9
100
AcDbXrecord
  1

  0
XRECORD
  5
B1
102
{ACAD_REACTORS
330
A9
102
}
330
A9
100
AcDbXrecord
 90
        4
  0
XRECORD
  5
AE
102
{ACAD_REACTORS
330
A9
102
}
330
A9
100
AcDbXrecord
340
1A
  0
XRECORD
  5
B0
102
{ACAD_REACTORS
330
A9
102
}
330
A9
100
AcDbXrecord
 90
    10781
  0
XRECORD
  5
AF
102
{ACAD_REACTORS
330
A9
102
}
330
A9
100
AcDbXrecord
340
19
  0
XRECORD
  5
B5
102
{ACAD_REACTORS
330
A9
102
}
330
A9
100
AcDbXrecord
 40
0.0
  0
XRECORD
  5
B8
102
{ACAD_REACTORS
330
A9
102
}
330
A9
100
AcDbXrecord
340
0
  0
XRECORD
  5
BE
102
{ACAD_REACTORS
330
A9
102
}
330
A9
100
AcDbXrecord
 10
0.0
 20
0.0
 30
0.0
  0
XRECORD
  5
BA
102
{ACAD_REACTORS
330
A9
102
}
330
A9
100
AcDbXrecord
 10
0.0
 20
0.0
 30
0.0
  0
XRECORD
  5
BD
102
{ACAD_REACTORS
330
A9
102
}
330
A9
100
AcDbXrecord
 10
0.0
 20
0.0
 30
0.0
  0
XRECORD
  5
BB
102
{ACAD_REACTORS
330
A9
102
}
330
A9
100
AcDbXrecord
 10
0.0
 20
0.0
 30
0.0
  0
XRECORD
  5
BC
102
{ACAD_REACTORS
330
A9
102
}
330
A9
100
AcDbXrecord
 10
0.0
 20
0.0
 30
0.0
  0
XRECORD
  5
B9
102
{ACAD_REACTORS
330
A9
102
}
330
A9
100
AcDbXrecord
 10
0.0
 20
0.0
 30
0.0
  0
XRECORD
  5
B6
102
{ACAD_REACTORS
330
A9
102
}
330
A9
100
AcDbXrecord
340
0
  0
XRECORD
  5
B7
102
{ACAD_REACTORS
330
A9
102
}
330
A9
100
AcDbXrecord
 70
     0
  0
XRECORD
  5
AD
102
{ACAD_REACTORS
330
A9
102
}
330
A9
100
AcDbXrecord
  1

  0
XRECORD
  5
AA
102
{ACAD_REACTORS
330
A9
102
}
330
A9
100
AcDbXrecord
 90
        1
  0
XRECORD
  5
AB
102
{ACAD_REACTORS
330
A9
102
}
330
A9
100
AcDbXrecord
 90
       70
  0
XRECORD
  5
C1
102
{ACAD_REACTORS
330
A9
102
}
330
A9
100
AcDbXrecord
340
0
  0
XRECORD
  5
C7
102
{ACAD_REACTORS
330
A9
102
}
330
A9
100
AcDbXrecord
 10
0.0
 20
0.0
 30
0.0
  0
XRECORD
  5
C3
102
{ACAD_REACTORS
330
A9
102
}
330
A9
100
AcDbXrecord
 10
0.0
 20
0.0
 30
0.0
  0
XRECORD
  5
C6
102
{ACAD_REACTORS
330
A9
102
}
330
A9
100
AcDbXrecord
 10
0.0
 20
0.0
 30
0.0
  0
XRECORD
  5
C4
102
{ACAD_REACTORS
330
A9
102
}
330
A9
100
AcDbXrecord
 10
0.0
 20
0.0
 30
0.0
  0
XRECORD
  5
C5
102
{ACAD_REACTORS
330
A9
102
}
330
A9
100
AcDbXrecord
 10
0.0
 20
0.0
 30
0.0
  0
XRECORD
  5
C2
102
{ACAD_REACTORS
330
A9
102
}
330
A9
100
AcDbXrecord
 10
0.0
 20
0.0
 30
0.0
  0
XRECORD
  5
BF
102
{ACAD_REACTORS
330
A9
102
}
330
A9
100
AcDbXrecord
340
0
  0
XRECORD
  5
C0
102
{ACAD_REACTORS
330
A9
102
}
330
A9
100
AcDbXrecord
 70
     0
  0
XRECORD
  5
B4
102
{ACAD_REACTORS
330
A9
102
}
330
A9
100
AcDbXrecord
  1
{FAEB1C32-E019-11D5-929B-00C0DF256EC4}
  0
DICTIONARYVAR
  5
CC
102
{ACAD_REACTORS
330
C9
102
}
330
C9
100
DictionaryVariables
280
     0
  1
2
  0
DICTIONARYVAR
  5
CD
102
{ACAD_REACTORS
330
C9
102
}
330
C9
100
DictionaryVariables
280
     0
  1
1
  0
DICTIONARY
  5
D0
330
3D
100
AcDbDictionary
280
     1
  3
ACAD_XREC_ROUNDTRIP
360
D1
  0
DICTIONARY
  5
CE
330
3C
100
AcDbDictionary
280
     1
  3
ACAD_XREC_ROUNDTRIP
360
CF
  0
DICTIONARY
  5
D2
330
3E
100
AcDbDictionary
280
     1
  3
ACAD_XREC_ROUNDTRIP
360
D3
  0
XRECORD
  5
D1
102
{ACAD_REACTORS
330
D0
102
}
330
D0
100
AcDbXrecord
102
MATERIAL
148
0.0
149
0.0
149
0.0
 93
        0
 94
      127
282
     0
 72
     1
 77
     1
171
     1
175
     1
179
     1
273
     0
  0
XRECORD
  5
CF
102
{ACAD_REACTORS
330
CE
102
}
330
CE
100
AcDbXrecord
102
MATERIAL
148
0.0
149
0.0
149
0.0
 93
        0
 94
      127
282
     0
 72
     1
 77
     1
171
     1
175
     1
179
     1
273
     0
  0
XRECORD
  5
D3
102
{ACAD_REACTORS
330
D2
102
}
330
D2
100
AcDbXrecord
102
MATERIAL
148
0.0
149
0.0
149
0.0
 93
        0
 94
      127
282
     0
 72
     1
 77
     1
171
     1
175
     1
179
     1
273
     0
  0
ENDSEC
  0
EOF
