  0
SECTION
  2
HEADER
  9
$ACADVER
  1
AC1014
  9
$ACADMAINTVER
 70
     9
  9
$DWGCODEPAGE
  3
ANSI_1250
  9
$INSBASE
 10
0.0
 20
0.0
 30
0.0
  9
$EXTMIN
 10
-34.4079
 20
-24.9463
 30
0.0
  9
$EXTMAX
 10
34.4079
 20
24.8056
 30
0.0
  9
$LIMMIN
 10
0.0
 20
0.0
  9
$LIMMAX
 10
12.0
 20
9.0
  9
$ORTHOMODE
 70
     0
  9
$REGENMODE
 70
     1
  9
$FILLMODE
 70
     1
  9
$QTEXTMODE
 70
     0
  9
$MIRRTEXT
 70
     1
  9
$DRAGMODE
 70
     2
  9
$LTSCALE
 40
1.0
  9
$OSMODE
 70
    37
  9
$ATTMODE
 70
     1
  9
$TEXTSIZE
 40
0.2
  9
$TRACEWID
 40
0.05
  9
$TEXTSTYLE
  7
STANDARD
  9
$CLAYER
  8
0
  9
$CELTYPE
  6
BYLAYER
  9
$CECOLOR
 62
   256
  9
$CELTSCALE
 40
1.0
  9
$DELOBJ
 70
     1
  9
$DISPSILH
 70
     0
  9
$DIMSCALE
 40
1.0
  9
$DIMASZ
 40
0.18
  9
$DIMEXO
 40
0.0625
  9
$DIMDLI
 40
0.38
  9
$DIMRND
 40
0.0
  9
$DIMDLE
 40
0.0
  9
$DIMEXE
 40
0.18
  9
$DIMTP
 40
0.0
  9
$DIMTM
 40
0.0
  9
$DIMTXT
 40
0.18
  9
$DIMCEN
 40
0.09
  9
$DIMTSZ
 40
0.0
  9
$DIMTOL
 70
     0
  9
$DIMLIM
 70
     0
  9
$DIMTIH
 70
     1
  9
$DIMTOH
 70
     1
  9
$DIMSE1
 70
     0
  9
$DIMSE2
 70
     0
  9
$DIMTAD
 70
     0
  9
$DIMZIN
 70
     0
  9
$DIMBLK
  1

  9
$DIMASO
 70
     1
  9
$DIMSHO
 70
     1
  9
$DIMPOST
  1

  9
$DIMAPOST
  1

  9
$DIMALT
 70
     0
  9
$DIMALTD
 70
     2
  9
$DIMALTF
 40
25.4
  9
$DIMLFAC
 40
1.0
  9
$DIMTOFL
 70
     0
  9
$DIMTVP
 40
0.0
  9
$DIMTIX
 70
     0
  9
$DIMSOXD
 70
     0
  9
$DIMSAH
 70
     0
  9
$DIMBLK1
  1

  9
$DIMBLK2
  1

  9
$DIMSTYLE
  2
STANDARD
  9
$DIMCLRD
 70
     0
  9
$DIMCLRE
 70
     0
  9
$DIMCLRT
 70
     0
  9
$DIMTFAC
 40
1.0
  9
$DIMGAP
 40
0.09
  9
$DIMJUST
 70
     0
  9
$DIMSD1
 70
     0
  9
$DIMSD2
 70
     0
  9
$DIMTOLJ
 70
     1
  9
$DIMTZIN
 70
     0
  9
$DIMALTZ
 70
     0
  9
$DIMALTTZ
 70
     0
  9
$DIMFIT
 70
     3
  9
$DIMUPT
 70
     0
  9
$DIMUNIT
 70
     2
  9
$DIMDEC
 70
     4
  9
$DIMTDEC
 70
     4
  9
$DIMALTU
 70
     2
  9
$DIMALTTD
 70
     2
  9
$DIMTXSTY
  7
STANDARD
  9
$DIMAUNIT
 70
     0
  9
$LUNITS
 70
     2
  9
$LUPREC
 70
     4
  9
$SKETCHINC
 40
0.1
  9
$FILLETRAD
 40
0.5
  9
$AUNITS
 70
     0
  9
$AUPREC
 70
     0
  9
$MENU
  1
.
  9
$ELEVATION
 40
0.0
  9
$PELEVATION
 40
0.0
  9
$THICKNESS
 40
0.0
  9
$LIMCHECK
 70
     0
  9
$CHAMFERA
 40
0.5
  9
$CHAMFERB
 40
0.5
  9
$CHAMFERC
 40
1.0
  9
$CHAMFERD
 40
0.0
  9
$SKPOLY
 70
     0
  9
$TDCREATE
 40
2456268.598716632
  9
$TDUPDATE
 40
2456268.598716644
  9
$TDINDWG
 40
0.0000000116
  9
$TDUSRTIMER
 40
0.0000000116
  9
$USRTIMER
 70
     1
  9
$ANGBASE
 50
0.0
  9
$ANGDIR
 70
     0
  9
$PDMODE
 70
     0
  9
$PDSIZE
 40
0.0
  9
$PLINEWID
 40
0.0
  9
$COORDS
 70
     1
  9
$SPLFRAME
 70
     0
  9
$SPLINETYPE
 70
     6
  9
$SPLINESEGS
 70
     8
  9
$ATTDIA
 70
     0
  9
$ATTREQ
 70
     1
  9
$HANDLING
 70
     1
  9
$HANDSEED
  5
C3
  9
$SURFTAB1
 70
     6
  9
$SURFTAB2
 70
     6
  9
$SURFTYPE
 70
     6
  9
$SURFU
 70
     6
  9
$SURFV
 70
     6
  9
$UCSNAME
  2

  9
$UCSORG
 10
0.0
 20
0.0
 30
0.0
  9
$UCSXDIR
 10
1.0
 20
0.0
 30
0.0
  9
$UCSYDIR
 10
0.0
 20
1.0
 30
0.0
  9
$PUCSNAME
  2

  9
$PUCSORG
 10
0.0
 20
0.0
 30
0.0
  9
$PUCSXDIR
 10
1.0
 20
0.0
 30
0.0
  9
$PUCSYDIR
 10
0.0
 20
1.0
 30
0.0
  9
$USERI1
 70
     0
  9
$USERI2
 70
     0
  9
$USERI3
 70
     0
  9
$USERI4
 70
     0
  9
$USERI5
 70
     0
  9
$USERR1
 40
0.0
  9
$USERR2
 40
0.0
  9
$USERR3
 40
0.0
  9
$USERR4
 40
0.0
  9
$USERR5
 40
0.0
  9
$WORLDVIEW
 70
     1
  9
$SHADEDGE
 70
     3
  9
$SHADEDIF
 70
    70
  9
$TILEMODE
 70
     1
  9
$MAXACTVP
 70
    64
  9
$PINSBASE
 10
0.0
 20
0.0
 30
0.0
  9
$PLIMCHECK
 70
     0
  9
$PEXTMIN
 10
1.000000000000000E+20
 20
1.000000000000000E+20
 30
1.000000000000000E+20
  9
$PEXTMAX
 10
-1.000000000000000E+20
 20
-1.000000000000000E+20
 30
-1.000000000000000E+20
  9
$PLIMMIN
 10
0.0
 20
0.0
  9
$PLIMMAX
 10
12.0
 20
9.0
  9
$UNITMODE
 70
     0
  9
$VISRETAIN
 70
     1
  9
$PLINEGEN
 70
     0
  9
$PSLTSCALE
 70
     1
  9
$TREEDEPTH
 70
  3020
  9
$PICKSTYLE
 70
     1
  9
$CMLSTYLE
  2
STANDARD
  9
$CMLJUST
 70
     0
  9
$CMLSCALE
 40
1.0
  9
$PROXYGRAPHICS
 70
     1
  9
$MEASUREMENT
 70
     0
  0
ENDSEC
  0
SECTION
  2
CLASSES
  0
CLASS
  1
ACDBDICTIONARYWDFLT
  2
AcDbDictionaryWithDefault
  3
ObjectDBX Classes
 90
        0
280
     0
281
     0
  0
CLASS
  1
VISUALSTYLE
  2
AcDbVisualStyle
  3
ObjectDBX Classes
 90
     4095
280
     0
281
     0
  0
CLASS
  1
MATERIAL
  2
AcDbMaterial
  3
ObjectDBX Classes
 90
     1153
280
     0
281
     0
  0
CLASS
  1
DICTIONARYVAR
  2
AcDbDictionaryVar
  3
ObjectDBX Classes
 90
        0
280
     0
281
     0
  0
CLASS
  1
XRECORD
  2
AcDbXrecord
  3
AutoCAD 2000
 90
        0
280
     0
281
     0
  0
CLASS
  1
LWPOLYLINE
  2
AcDbPolyline
  3
AutoCAD 2000
 90
        0
280
     0
281
     1
  0
CLASS
  1
HATCH
  2
AcDbHatch
  3
AutoCAD 2000
 90
        0
280
     0
281
     1
  0
CLASS
  1
ACDBPLACEHOLDER
  2
AcDbPlaceHolder
  3
ObjectDBX Classes
 90
        0
280
     0
281
     0
  0
CLASS
  1
LAYOUT
  2
AcDbLayout
  3
ObjectDBX Classes
 90
        0
280
     0
281
     0
  0
ENDSEC
  0
SECTION
  2
TABLES
  0
TABLE
  2
VPORT
  5
8
330
0
100
AcDbSymbolTable
 70
     1
  0
VPORT
  5
29
330
8
100
AcDbSymbolTableRecord
100
AcDbViewportTableRecord
  2
*ACTIVE
 70
     0
 10
0.0
 20
0.0
 11
1.0
 21
1.0
 12
10.42990654205607
 22
4.5
 13
0.0
 23
0.0
 14
0.5
 24
0.5
 15
0.5
 25
0.5
 16
0.0
 26
0.0
 36
1.0
 17
0.0
 27
0.0
 37
0.0
 40
9.0
 41
1.972972972850329
 42
50.0
 43
0.0
 44
0.0
 50
0.0
 51
0.0
 71
     0
 72
   100
 73
     1
 74
     3
 75
     0
 76
     0
 77
     0
 78
     0
  0
ENDTAB
  0
TABLE
  2
LTYPE
  5
5
330
0
100
AcDbSymbolTable
 70
     1
  0
LTYPE
  5
14
330
5
100
AcDbSymbolTableRecord
100
AcDbLinetypeTableRecord
  2
BYBLOCK
 70
     0
  3

 72
    65
 73
     0
 40
0.0
  0
LTYPE
  5
15
330
5
100
AcDbSymbolTableRecord
100
AcDbLinetypeTableRecord
  2
BYLAYER
 70
     0
  3

 72
    65
 73
     0
 40
0.0
  0
LTYPE
  5
16
330
5
100
AcDbSymbolTableRecord
100
AcDbLinetypeTableRecord
  2
CONTINUOUS
 70
     0
  3
Solid line
 72
    65
 73
     0
 40
0.0
  0
ENDTAB
  0
TABLE
  2
LAYER
  5
2
330
0
100
AcDbSymbolTable
 70
     2
  0
LAYER
  5
10
330
2
100
AcDbSymbolTableRecord
100
AcDbLayerTableRecord
  2
0
 70
     0
 62
     7
  6
CONTINUOUS
  0
LAYER
  5
40
330
2
100
AcDbSymbolTableRecord
100
AcDbLayerTableRecord
  2
VRSTVA_1
 70
     0
 62
     7
  6
CONTINUOUS
  0
ENDTAB
  0
TABLE
  2
STYLE
  5
3
330
0
100
AcDbSymbolTable
 70
     1
  0
STYLE
  5
11
330
3
100
AcDbSymbolTableRecord
100
AcDbTextStyleTableRecord
  2
STANDARD
 70
     0
 40
0.0
 41
1.0
 50
0.0
 71
     0
 42
0.2
  3
txt
  4

  0
ENDTAB
  0
TABLE
  2
VIEW
  5
6
330
0
100
AcDbSymbolTable
 70
     0
  0
ENDTAB
  0
TABLE
  2
UCS
  5
7
330
0
100
AcDbSymbolTable
 70
     0
  0
ENDTAB
  0
TABLE
  2
APPID
  5
9
330
0
100
AcDbSymbolTable
 70
     2
  0
APPID
  5
12
330
9
100
AcDbSymbolTableRecord
100
AcDbRegAppTableRecord
  2
ACAD
 70
     0
  0
APPID
  5
3F
330
9
100
AcDbSymbolTableRecord
100
AcDbRegAppTableRecord
  2
ODA
 70
     0
  0
ENDTAB
  0
TABLE
  2
DIMSTYLE
  5
A
330
0
100
AcDbSymbolTable
 70
     1
  0
DIMSTYLE
105
27
330
A
100
AcDbSymbolTableRecord
100
AcDbDimStyleTableRecord
  2
STANDARD
 70
     0
  3

  4

  5

  6

  7

 40
1.0
 41
0.18
 42
0.0625
 43
0.38
 44
0.18
 45
0.0
 46
0.0
 47
0.0
 48
0.0
140
0.18
141
0.09
142
0.0
143
25.4
144
1.0
145
0.0
146
1.0
147
0.09
 71
     0
 72
     0
 73
     1
 74
     1
 75
     0
 76
     0
 77
     0
 78
     0
170
     0
171
     2
172
     0
173
     0
174
     0
175
     0
176
     0
177
     0
178
     0
270
     2
271
     4
272
     4
273
     2
274
     2
340
11
275
     0
280
     0
281
     0
282
     0
283
     1
284
     0
285
     0
286
     0
287
     3
288
     0
  0
ENDTAB
  0
TABLE
  2
BLOCK_RECORD
  5
1
330
0
100
AcDbSymbolTable
 70
     1
  0
BLOCK_RECORD
  5
1F
330
1
100
AcDbSymbolTableRecord
100
AcDbBlockTableRecord
  2
*MODEL_SPACE
  0
BLOCK_RECORD
  5
1B
330
1
100
AcDbSymbolTableRecord
100
AcDbBlockTableRecord
  2
*PAPER_SPACE
  0
ENDTAB
  0
ENDSEC
  0
SECTION
  2
BLOCKS
  0
BLOCK
  5
20
330
1F
100
AcDbEntity
  8
0
100
AcDbBlockBegin
  2
*MODEL_SPACE
 70
     0
 10
0.0
 20
0.0
 30
0.0
  3
*MODEL_SPACE
  1

  0
ENDBLK
  5
21
330
1F
100
AcDbEntity
  8
0
100
AcDbBlockEnd
  0
BLOCK
  5
1C
330
1B
100
AcDbEntity
 67
     1
  8
0
100
AcDbBlockBegin
  2
*PAPER_SPACE
 70
     0
 10
0.0
 20
0.0
 30
0.0
  3
*PAPER_SPACE
  1

  0
ENDBLK
  5
1D
330
1B
100
AcDbEntity
 67
     1
  8
0
100
AcDbBlockEnd
  0
ENDSEC
  0
SECTION
  2
ENTITIES
  0
SPLINE
  5
41
330
1F
100
AcDbEntity
  8
VRSTVA_1
 62
   250
100
AcDbSpline
210
0.0
220
0.0
230
1.0
 70
    24
 71
     3
 72
     8
 73
     4
 74
     0
 42
0.0000000001
 43
0.0000000001
 40
0.0
 40
0.0
 40
0.0
 40
0.0
 40
1.0
 40
1.0
 40
1.0
 40
1.0
 10
-20.2282
 20
-17.2052
 30
0.0
 10
-20.2282
 20
-17.2052
 30
0.0
 10
10.9717
 20
-17.2052
 30
0.0
 10
10.9717
 20
-17.2052
 30
0.0
  0
SPLINE
  5
42
330
1F
100
AcDbEntity
  8
VRSTVA_1
 62
   250
100
AcDbSpline
210
0.0
220
0.0
230
1.0
 70
    24
 71
     3
 72
     8
 73
     4
 74
     0
 42
0.0000000001
 43
0.0000000001
 40
0.0
 40
0.0
 40
0.0
 40
0.0
 40
1.0
 40
1.0
 40
1.0
 40
1.0
 10
10.9717
 20
-19.6052
 30
0.0
 10
10.9717
 20
-19.6052
 30
0.0
 10
-20.2282
 20
-19.6052
 30
0.0
 10
-20.2282
 20
-19.6052
 30
0.0
  0
SPLINE
  5
43
330
1F
100
AcDbEntity
  8
VRSTVA_1
 62
   250
100
AcDbSpline
210
0.0
220
0.0
230
1.0
 70
    24
 71
     3
 72
     8
 73
     4
 74
     0
 42
0.0000000001
 43
0.0000000001
 40
0.0
 40
0.0
 40
0.0
 40
0.0
 40
1.0
 40
1.0
 40
1.0
 40
1.0
 10
-20.6282
 20
-19.2052
 30
0.0
 10
-20.6282
 20
-19.2052
 30
0.0
 10
-20.6282
 20
-17.6052
 30
0.0
 10
-20.6282
 20
-17.6052
 30
0.0
  0
SPLINE
  5
44
330
1F
100
AcDbEntity
  8
VRSTVA_1
 62
   250
100
AcDbSpline
210
0.0
220
0.0
230
1.0
 70
    24
 71
     3
 72
     8
 73
     4
 74
     0
 42
0.0000000001
 43
0.0000000001
 40
0.0
 40
0.0
 40
0.0
 40
0.0
 40
1.0
 40
1.0
 40
1.0
 40
1.0
 10
11.3717
 20
-17.6052
 30
0.0
 10
11.3717
 20
-17.6052
 30
0.0
 10
11.3717
 20
-19.2052
 30
0.0
 10
11.3717
 20
-19.2052
 30
0.0
  0
SPLINE
  5
45
330
1F
100
AcDbEntity
  8
VRSTVA_1
 62
   250
100
AcDbSpline
210
0.0
220
0.0
230
1.0
 70
     8
 71
     3
 72
     8
 73
     4
 74
     0
 42
0.0000000001
 43
0.0000000001
 40
0.0
 40
0.0
 40
0.0
 40
0.0
 40
1.0
 40
1.0
 40
1.0
 40
1.0
 10
-20.6282
 20
-19.2052
 30
0.0
 10
-20.6282
 20
-19.4261
 30
0.0
 10
-20.4491
 20
-19.6052
 30
0.0
 10
-20.2282
 20
-19.6052
 30
0.0
  0
SPLINE
  5
46
330
1F
100
AcDbEntity
  8
VRSTVA_1
 62
   250
100
AcDbSpline
210
0.0
220
0.0
230
1.0
 70
     8
 71
     3
 72
     8
 73
     4
 74
     0
 42
0.0000000001
 43
0.0000000001
 40
0.0
 40
0.0
 40
0.0
 40
0.0
 40
1.0
 40
1.0
 40
1.0
 40
1.0
 10
-20.2282
 20
-17.2052
 30
0.0
 10
-20.4491
 20
-17.2052
 30
0.0
 10
-20.6282
 20
-17.3843
 30
0.0
 10
-20.6282
 20
-17.6052
 30
0.0
  0
SPLINE
  5
47
330
1F
100
AcDbEntity
  8
VRSTVA_1
 62
   250
100
AcDbSpline
210
0.0
220
0.0
230
1.0
 70
     8
 71
     3
 72
     8
 73
     4
 74
     0
 42
0.0000000001
 43
0.0000000001
 40
0.0
 40
0.0
 40
0.0
 40
0.0
 40
1.0
 40
1.0
 40
1.0
 40
1.0
 10
11.3717
 20
-17.6052
 30
0.0
 10
11.3717
 20
-17.3843
 30
0.0
 10
11.1926
 20
-17.2052
 30
0.0
 10
10.9717
 20
-17.2052
 30
0.0
  0
SPLINE
  5
48
330
1F
100
AcDbEntity
  8
VRSTVA_1
 62
   250
100
AcDbSpline
210
0.0
220
0.0
230
1.0
 70
     8
 71
     3
 72
     8
 73
     4
 74
     0
 42
0.0000000001
 43
0.0000000001
 40
0.0
 40
0.0
 40
0.0
 40
0.0
 40
1.0
 40
1.0
 40
1.0
 40
1.0
 10
10.9717
 20
-19.6052
 30
0.0
 10
11.1926
 20
-19.6052
 30
0.0
 10
11.3717
 20
-19.4261
 30
0.0
 10
11.3717
 20
-19.2052
 30
0.0
  0
SPLINE
  5
49
330
1F
100
AcDbEntity
  8
VRSTVA_1
 62
   250
100
AcDbSpline
210
0.0
220
0.0
230
1.0
 70
    24
 71
     3
 72
     8
 73
     4
 74
     0
 42
0.0000000001
 43
0.0000000001
 40
0.0
 40
0.0
 40
0.0
 40
0.0
 40
1.0
 40
1.0
 40
1.0
 40
1.0
 10
-20.2282
 20
-11.5791
 30
0.0
 10
-20.2282
 20
-11.5791
 30
0.0
 10
10.9717
 20
-11.5791
 30
0.0
 10
10.9717
 20
-11.5791
 30
0.0
  0
SPLINE
  5
4A
330
1F
100
AcDbEntity
  8
VRSTVA_1
 62
   250
100
AcDbSpline
210
0.0
220
0.0
230
1.0
 70
    24
 71
     3
 72
     8
 73
     4
 74
     0
 42
0.0000000001
 43
0.0000000001
 40
0.0
 40
0.0
 40
0.0
 40
0.0
 40
1.0
 40
1.0
 40
1.0
 40
1.0
 10
10.9717
 20
-13.9791
 30
0.0
 10
10.9717
 20
-13.9791
 30
0.0
 10
-20.2282
 20
-13.9791
 30
0.0
 10
-20.2282
 20
-13.9791
 30
0.0
  0
SPLINE
  5
4B
330
1F
100
AcDbEntity
  8
VRSTVA_1
 62
   250
100
AcDbSpline
210
0.0
220
0.0
230
1.0
 70
    24
 71
     3
 72
     8
 73
     4
 74
     0
 42
0.0000000001
 43
0.0000000001
 40
0.0
 40
0.0
 40
0.0
 40
0.0
 40
1.0
 40
1.0
 40
1.0
 40
1.0
 10
-20.6282
 20
-13.5791
 30
0.0
 10
-20.6282
 20
-13.5791
 30
0.0
 10
-20.6282
 20
-11.9791
 30
0.0
 10
-20.6282
 20
-11.9791
 30
0.0
  0
SPLINE
  5
4C
330
1F
100
AcDbEntity
  8
VRSTVA_1
 62
   250
100
AcDbSpline
210
0.0
220
0.0
230
1.0
 70
    24
 71
     3
 72
     8
 73
     4
 74
     0
 42
0.0000000001
 43
0.0000000001
 40
0.0
 40
0.0
 40
0.0
 40
0.0
 40
1.0
 40
1.0
 40
1.0
 40
1.0
 10
11.3717
 20
-11.9791
 30
0.0
 10
11.3717
 20
-11.9791
 30
0.0
 10
11.3717
 20
-13.5791
 30
0.0
 10
11.3717
 20
-13.5791
 30
0.0
  0
SPLINE
  5
4D
330
1F
100
AcDbEntity
  8
VRSTVA_1
 62
   250
100
AcDbSpline
210
0.0
220
0.0
230
1.0
 70
     8
 71
     3
 72
     8
 73
     4
 74
     0
 42
0.0000000001
 43
0.0000000001
 40
0.0
 40
0.0
 40
0.0
 40
0.0
 40
1.0
 40
1.0
 40
1.0
 40
1.0
 10
-20.6282
 20
-13.5791
 30
0.0
 10
-20.6282
 20
-13.8
 30
0.0
 10
-20.4491
 20
-13.9791
 30
0.0
 10
-20.2282
 20
-13.9791
 30
0.0
  0
SPLINE
  5
4E
330
1F
100
AcDbEntity
  8
VRSTVA_1
 62
   250
100
AcDbSpline
210
0.0
220
0.0
230
1.0
 70
     8
 71
     3
 72
     8
 73
     4
 74
     0
 42
0.0000000001
 43
0.0000000001
 40
0.0
 40
0.0
 40
0.0
 40
0.0
 40
1.0
 40
1.0
 40
1.0
 40
1.0
 10
-20.2282
 20
-11.5791
 30
0.0
 10
-20.4491
 20
-11.5791
 30
0.0
 10
-20.6282
 20
-11.7581
 30
0.0
 10
-20.6282
 20
-11.9791
 30
0.0
  0
SPLINE
  5
4F
330
1F
100
AcDbEntity
  8
VRSTVA_1
 62
   250
100
AcDbSpline
210
0.0
220
0.0
230
1.0
 70
     8
 71
     3
 72
     8
 73
     4
 74
     0
 42
0.0000000001
 43
0.0000000001
 40
0.0
 40
0.0
 40
0.0
 40
0.0
 40
1.0
 40
1.0
 40
1.0
 40
1.0
 10
11.3717
 20
-11.9791
 30
0.0
 10
11.3717
 20
-11.7581
 30
0.0
 10
11.1926
 20
-11.5791
 30
0.0
 10
10.9717
 20
-11.5791
 30
0.0
  0
SPLINE
  5
50
330
1F
100
AcDbEntity
  8
VRSTVA_1
 62
   250
100
AcDbSpline
210
0.0
220
0.0
230
1.0
 70
     8
 71
     3
 72
     8
 73
     4
 74
     0
 42
0.0000000001
 43
0.0000000001
 40
0.0
 40
0.0
 40
0.0
 40
0.0
 40
1.0
 40
1.0
 40
1.0
 40
1.0
 10
10.9717
 20
-13.9791
 30
0.0
 10
11.1926
 20
-13.9791
 30
0.0
 10
11.3717
 20
-13.8
 30
0.0
 10
11.3717
 20
-13.5791
 30
0.0
  0
SPLINE
  5
51
330
1F
100
AcDbEntity
  8
VRSTVA_1
 62
   250
100
AcDbSpline
210
0.0
220
0.0
230
1.0
 70
    24
 71
     3
 72
     8
 73
     4
 74
     0
 42
0.0000000001
 43
0.0000000001
 40
0.0
 40
0.0
 40
0.0
 40
0.0
 40
1.0
 40
1.0
 40
1.0
 40
1.0
 10
-20.2282
 20
-5.9963
 30
0.0
 10
-20.2282
 20
-5.9963
 30
0.0
 10
10.9717
 20
-5.9963
 30
0.0
 10
10.9717
 20
-5.9963
 30
0.0
  0
SPLINE
  5
52
330
1F
100
AcDbEntity
  8
VRSTVA_1
 62
   250
100
AcDbSpline
210
0.0
220
0.0
230
1.0
 70
    24
 71
     3
 72
     8
 73
     4
 74
     0
 42
0.0000000001
 43
0.0000000001
 40
0.0
 40
0.0
 40
0.0
 40
0.0
 40
1.0
 40
1.0
 40
1.0
 40
1.0
 10
10.9717
 20
-8.3962
 30
0.0
 10
10.9717
 20
-8.3962
 30
0.0
 10
-20.2282
 20
-8.3962
 30
0.0
 10
-20.2282
 20
-8.3962
 30
0.0
  0
SPLINE
  5
53
330
1F
100
AcDbEntity
  8
VRSTVA_1
 62
   250
100
AcDbSpline
210
0.0
220
0.0
230
1.0
 70
    24
 71
     3
 72
     8
 73
     4
 74
     0
 42
0.0000000001
 43
0.0000000001
 40
0.0
 40
0.0
 40
0.0
 40
0.0
 40
1.0
 40
1.0
 40
1.0
 40
1.0
 10
-20.6282
 20
-7.9962
 30
0.0
 10
-20.6282
 20
-7.9962
 30
0.0
 10
-20.6282
 20
-6.3962
 30
0.0
 10
-20.6282
 20
-6.3962
 30
0.0
  0
SPLINE
  5
54
330
1F
100
AcDbEntity
  8
VRSTVA_1
 62
   250
100
AcDbSpline
210
0.0
220
0.0
230
1.0
 70
    24
 71
     3
 72
     8
 73
     4
 74
     0
 42
0.0000000001
 43
0.0000000001
 40
0.0
 40
0.0
 40
0.0
 40
0.0
 40
1.0
 40
1.0
 40
1.0
 40
1.0
 10
11.3717
 20
-6.3962
 30
0.0
 10
11.3717
 20
-6.3962
 30
0.0
 10
11.3717
 20
-7.9962
 30
0.0
 10
11.3717
 20
-7.9962
 30
0.0
  0
SPLINE
  5
55
330
1F
100
AcDbEntity
  8
VRSTVA_1
 62
   250
100
AcDbSpline
210
0.0
220
0.0
230
1.0
 70
     8
 71
     3
 72
     8
 73
     4
 74
     0
 42
0.0000000001
 43
0.0000000001
 40
0.0
 40
0.0
 40
0.0
 40
0.0
 40
1.0
 40
1.0
 40
1.0
 40
1.0
 10
-20.6282
 20
-7.9962
 30
0.0
 10
-20.6282
 20
-8.2171
 30
0.0
 10
-20.4491
 20
-8.3962
 30
0.0
 10
-20.2282
 20
-8.3962
 30
0.0
  0
SPLINE
  5
56
330
1F
100
AcDbEntity
  8
VRSTVA_1
 62
   250
100
AcDbSpline
210
0.0
220
0.0
230
1.0
 70
     8
 71
     3
 72
     8
 73
     4
 74
     0
 42
0.0000000001
 43
0.0000000001
 40
0.0
 40
0.0
 40
0.0
 40
0.0
 40
1.0
 40
1.0
 40
1.0
 40
1.0
 10
-20.2282
 20
-5.9963
 30
0.0
 10
-20.4491
 20
-5.9963
 30
0.0
 10
-20.6282
 20
-6.1753
 30
0.0
 10
-20.6282
 20
-6.3962
 30
0.0
  0
SPLINE
  5
57
330
1F
100
AcDbEntity
  8
VRSTVA_1
 62
   250
100
AcDbSpline
210
0.0
220
0.0
230
1.0
 70
     8
 71
     3
 72
     8
 73
     4
 74
     0
 42
0.0000000001
 43
0.0000000001
 40
0.0
 40
0.0
 40
0.0
 40
0.0
 40
1.0
 40
1.0
 40
1.0
 40
1.0
 10
11.3717
 20
-6.3962
 30
0.0
 10
11.3717
 20
-6.1753
 30
0.0
 10
11.1926
 20
-5.9963
 30
0.0
 10
10.9717
 20
-5.9963
 30
0.0
  0
SPLINE
  5
58
330
1F
100
AcDbEntity
  8
VRSTVA_1
 62
   250
100
AcDbSpline
210
0.0
220
0.0
230
1.0
 70
     8
 71
     3
 72
     8
 73
     4
 74
     0
 42
0.0000000001
 43
0.0000000001
 40
0.0
 40
0.0
 40
0.0
 40
0.0
 40
1.0
 40
1.0
 40
1.0
 40
1.0
 10
10.9717
 20
-8.3962
 30
0.0
 10
11.1926
 20
-8.3962
 30
0.0
 10
11.3717
 20
-8.2171
 30
0.0
 10
11.3717
 20
-7.9962
 30
0.0
  0
SPLINE
  5
59
330
1F
100
AcDbEntity
  8
VRSTVA_1
 62
   250
100
AcDbSpline
210
0.0
220
0.0
230
1.0
 70
    24
 71
     3
 72
     8
 73
     4
 74
     0
 42
0.0000000001
 43
0.0000000001
 40
0.0
 40
0.0
 40
0.0
 40
0.0
 40
1.0
 40
1.0
 40
1.0
 40
1.0
 10
-20.2282
 20
-0.3701
 30
0.0
 10
-20.2282
 20
-0.3701
 30
0.0
 10
10.9717
 20
-0.3701
 30
0.0
 10
10.9717
 20
-0.3701
 30
0.0
  0
SPLINE
  5
5A
330
1F
100
AcDbEntity
  8
VRSTVA_1
 62
   250
100
AcDbSpline
210
0.0
220
0.0
230
1.0
 70
    24
 71
     3
 72
     8
 73
     4
 74
     0
 42
0.0000000001
 43
0.0000000001
 40
0.0
 40
0.0
 40
0.0
 40
0.0
 40
1.0
 40
1.0
 40
1.0
 40
1.0
 10
10.9717
 20
-2.7701
 30
0.0
 10
10.9717
 20
-2.7701
 30
0.0
 10
-20.2282
 20
-2.7701
 30
0.0
 10
-20.2282
 20
-2.7701
 30
0.0
  0
SPLINE
  5
5B
330
1F
100
AcDbEntity
  8
VRSTVA_1
 62
   250
100
AcDbSpline
210
0.0
220
0.0
230
1.0
 70
    24
 71
     3
 72
     8
 73
     4
 74
     0
 42
0.0000000001
 43
0.0000000001
 40
0.0
 40
0.0
 40
0.0
 40
0.0
 40
1.0
 40
1.0
 40
1.0
 40
1.0
 10
-20.6282
 20
-2.3701
 30
0.0
 10
-20.6282
 20
-2.3701
 30
0.0
 10
-20.6282
 20
-0.7701
 30
0.0
 10
-20.6282
 20
-0.7701
 30
0.0
  0
SPLINE
  5
5C
330
1F
100
AcDbEntity
  8
VRSTVA_1
 62
   250
100
AcDbSpline
210
0.0
220
0.0
230
1.0
 70
    24
 71
     3
 72
     8
 73
     4
 74
     0
 42
0.0000000001
 43
0.0000000001
 40
0.0
 40
0.0
 40
0.0
 40
0.0
 40
1.0
 40
1.0
 40
1.0
 40
1.0
 10
11.3717
 20
-0.7701
 30
0.0
 10
11.3717
 20
-0.7701
 30
0.0
 10
11.3717
 20
-2.3701
 30
0.0
 10
11.3717
 20
-2.3701
 30
0.0
  0
SPLINE
  5
5D
330
1F
100
AcDbEntity
  8
VRSTVA_1
 62
   250
100
AcDbSpline
210
0.0
220
0.0
230
1.0
 70
     8
 71
     3
 72
     8
 73
     4
 74
     0
 42
0.0000000001
 43
0.0000000001
 40
0.0
 40
0.0
 40
0.0
 40
0.0
 40
1.0
 40
1.0
 40
1.0
 40
1.0
 10
-20.6282
 20
-2.3701
 30
0.0
 10
-20.6282
 20
-2.591
 30
0.0
 10
-20.4491
 20
-2.7701
 30
0.0
 10
-20.2282
 20
-2.7701
 30
0.0
  0
SPLINE
  5
5E
330
1F
100
AcDbEntity
  8
VRSTVA_1
 62
   250
100
AcDbSpline
210
0.0
220
0.0
230
1.0
 70
     8
 71
     3
 72
     8
 73
     4
 74
     0
 42
0.0000000001
 43
0.0000000001
 40
0.0
 40
0.0
 40
0.0
 40
0.0
 40
1.0
 40
1.0
 40
1.0
 40
1.0
 10
-20.2282
 20
-0.3701
 30
0.0
 10
-20.4491
 20
-0.3701
 30
0.0
 10
-20.6282
 20
-0.5491
 30
0.0
 10
-20.6282
 20
-0.7701
 30
0.0
  0
SPLINE
  5
5F
330
1F
100
AcDbEntity
  8
VRSTVA_1
 62
   250
100
AcDbSpline
210
0.0
220
0.0
230
1.0
 70
     8
 71
     3
 72
     8
 73
     4
 74
     0
 42
0.0000000001
 43
0.0000000001
 40
0.0
 40
0.0
 40
0.0
 40
0.0
 40
1.0
 40
1.0
 40
1.0
 40
1.0
 10
11.3717
 20
-0.7701
 30
0.0
 10
11.3717
 20
-0.5491
 30
0.0
 10
11.1926
 20
-0.3701
 30
0.0
 10
10.9717
 20
-0.3701
 30
0.0
  0
SPLINE
  5
60
330
1F
100
AcDbEntity
  8
VRSTVA_1
 62
   250
100
AcDbSpline
210
0.0
220
0.0
230
1.0
 70
     8
 71
     3
 72
     8
 73
     4
 74
     0
 42
0.0000000001
 43
0.0000000001
 40
0.0
 40
0.0
 40
0.0
 40
0.0
 40
1.0
 40
1.0
 40
1.0
 40
1.0
 10
10.9717
 20
-2.7701
 30
0.0
 10
11.1926
 20
-2.7701
 30
0.0
 10
11.3717
 20
-2.591
 30
0.0
 10
11.3717
 20
-2.3701
 30
0.0
  0
SPLINE
  5
61
330
1F
100
AcDbEntity
  8
VRSTVA_1
 62
   250
100
AcDbSpline
210
0.0
220
0.0
230
1.0
 70
    24
 71
     3
 72
     8
 73
     4
 74
     0
 42
0.0000000001
 43
0.0000000001
 40
0.0
 40
0.0
 40
0.0
 40
0.0
 40
1.0
 40
1.0
 40
1.0
 40
1.0
 10
-20.3091
 20
5.1286
 30
0.0
 10
-20.3091
 20
5.1286
 30
0.0
 10
10.8908
 20
5.1286
 30
0.0
 10
10.8908
 20
5.1286
 30
0.0
  0
SPLINE
  5
62
330
1F
100
AcDbEntity
  8
VRSTVA_1
 62
   250
100
AcDbSpline
210
0.0
220
0.0
230
1.0
 70
    24
 71
     3
 72
     8
 73
     4
 74
     0
 42
0.0000000001
 43
0.0000000001
 40
0.0
 40
0.0
 40
0.0
 40
0.0
 40
1.0
 40
1.0
 40
1.0
 40
1.0
 10
10.8908
 20
2.7286
 30
0.0
 10
10.8908
 20
2.7286
 30
0.0
 10
-20.3091
 20
2.7286
 30
0.0
 10
-20.3091
 20
2.7286
 30
0.0
  0
SPLINE
  5
63
330
1F
100
AcDbEntity
  8
VRSTVA_1
 62
   250
100
AcDbSpline
210
0.0
220
0.0
230
1.0
 70
    24
 71
     3
 72
     8
 73
     4
 74
     0
 42
0.0000000001
 43
0.0000000001
 40
0.0
 40
0.0
 40
0.0
 40
0.0
 40
1.0
 40
1.0
 40
1.0
 40
1.0
 10
-20.7091
 20
3.1286
 30
0.0
 10
-20.7091
 20
3.1286
 30
0.0
 10
-20.7091
 20
4.7286
 30
0.0
 10
-20.7091
 20
4.7286
 30
0.0
  0
SPLINE
  5
64
330
1F
100
AcDbEntity
  8
VRSTVA_1
 62
   250
100
AcDbSpline
210
0.0
220
0.0
230
1.0
 70
    24
 71
     3
 72
     8
 73
     4
 74
     0
 42
0.0000000001
 43
0.0000000001
 40
0.0
 40
0.0
 40
0.0
 40
0.0
 40
1.0
 40
1.0
 40
1.0
 40
1.0
 10
11.2908
 20
4.7286
 30
0.0
 10
11.2908
 20
4.7286
 30
0.0
 10
11.2908
 20
3.1286
 30
0.0
 10
11.2908
 20
3.1286
 30
0.0
  0
SPLINE
  5
65
330
1F
100
AcDbEntity
  8
VRSTVA_1
 62
   250
100
AcDbSpline
210
0.0
220
0.0
230
1.0
 70
     8
 71
     3
 72
     8
 73
     4
 74
     0
 42
0.0000000001
 43
0.0000000001
 40
0.0
 40
0.0
 40
0.0
 40
0.0
 40
1.0
 40
1.0
 40
1.0
 40
1.0
 10
-20.7091
 20
3.1286
 30
0.0
 10
-20.7091
 20
2.9077
 30
0.0
 10
-20.53
 20
2.7286
 30
0.0
 10
-20.3091
 20
2.7286
 30
0.0
  0
SPLINE
  5
66
330
1F
100
AcDbEntity
  8
VRSTVA_1
 62
   250
100
AcDbSpline
210
0.0
220
0.0
230
1.0
 70
     8
 71
     3
 72
     8
 73
     4
 74
     0
 42
0.0000000001
 43
0.0000000001
 40
0.0
 40
0.0
 40
0.0
 40
0.0
 40
1.0
 40
1.0
 40
1.0
 40
1.0
 10
-20.3091
 20
5.1286
 30
0.0
 10
-20.53
 20
5.1286
 30
0.0
 10
-20.7091
 20
4.9496
 30
0.0
 10
-20.7091
 20
4.7286
 30
0.0
  0
SPLINE
  5
67
330
1F
100
AcDbEntity
  8
VRSTVA_1
 62
   250
100
AcDbSpline
210
0.0
220
0.0
230
1.0
 70
     8
 71
     3
 72
     8
 73
     4
 74
     0
 42
0.0000000001
 43
0.0000000001
 40
0.0
 40
0.0
 40
0.0
 40
0.0
 40
1.0
 40
1.0
 40
1.0
 40
1.0
 10
11.2908
 20
4.7286
 30
0.0
 10
11.2908
 20
4.9496
 30
0.0
 10
11.1117
 20
5.1286
 30
0.0
 10
10.8908
 20
5.1286
 30
0.0
  0
SPLINE
  5
68
330
1F
100
AcDbEntity
  8
VRSTVA_1
 62
   250
100
AcDbSpline
210
0.0
220
0.0
230
1.0
 70
     8
 71
     3
 72
     8
 73
     4
 74
     0
 42
0.0000000001
 43
0.0000000001
 40
0.0
 40
0.0
 40
0.0
 40
0.0
 40
1.0
 40
1.0
 40
1.0
 40
1.0
 10
10.8908
 20
2.7286
 30
0.0
 10
11.1117
 20
2.7286
 30
0.0
 10
11.2908
 20
2.9077
 30
0.0
 10
11.2908
 20
3.1286
 30
0.0
  0
SPLINE
  5
69
330
1F
100
AcDbEntity
  8
VRSTVA_1
 62
   250
100
AcDbSpline
210
0.0
220
0.0
230
1.0
 70
    24
 71
     3
 72
     8
 73
     4
 74
     0
 42
0.0000000001
 43
0.0000000001
 40
0.0
 40
0.0
 40
0.0
 40
0.0
 40
1.0
 40
1.0
 40
1.0
 40
1.0
 10
-20.3091
 20
10.7547
 30
0.0
 10
-20.3091
 20
10.7547
 30
0.0
 10
10.8908
 20
10.7547
 30
0.0
 10
10.8908
 20
10.7547
 30
0.0
  0
SPLINE
  5
6A
330
1F
100
AcDbEntity
  8
VRSTVA_1
 62
   250
100
AcDbSpline
210
0.0
220
0.0
230
1.0
 70
    24
 71
     3
 72
     8
 73
     4
 74
     0
 42
0.0000000001
 43
0.0000000001
 40
0.0
 40
0.0
 40
0.0
 40
0.0
 40
1.0
 40
1.0
 40
1.0
 40
1.0
 10
10.8908
 20
8.3547
 30
0.0
 10
10.8908
 20
8.3547
 30
0.0
 10
-20.3091
 20
8.3547
 30
0.0
 10
-20.3091
 20
8.3547
 30
0.0
  0
SPLINE
  5
6B
330
1F
100
AcDbEntity
  8
VRSTVA_1
 62
   250
100
AcDbSpline
210
0.0
220
0.0
230
1.0
 70
    24
 71
     3
 72
     8
 73
     4
 74
     0
 42
0.0000000001
 43
0.0000000001
 40
0.0
 40
0.0
 40
0.0
 40
0.0
 40
1.0
 40
1.0
 40
1.0
 40
1.0
 10
-20.7091
 20
8.7547
 30
0.0
 10
-20.7091
 20
8.7547
 30
0.0
 10
-20.7091
 20
10.3547
 30
0.0
 10
-20.7091
 20
10.3547
 30
0.0
  0
SPLINE
  5
6C
330
1F
100
AcDbEntity
  8
VRSTVA_1
 62
   250
100
AcDbSpline
210
0.0
220
0.0
230
1.0
 70
    24
 71
     3
 72
     8
 73
     4
 74
     0
 42
0.0000000001
 43
0.0000000001
 40
0.0
 40
0.0
 40
0.0
 40
0.0
 40
1.0
 40
1.0
 40
1.0
 40
1.0
 10
11.2908
 20
10.3547
 30
0.0
 10
11.2908
 20
10.3547
 30
0.0
 10
11.2908
 20
8.7547
 30
0.0
 10
11.2908
 20
8.7547
 30
0.0
  0
SPLINE
  5
6D
330
1F
100
AcDbEntity
  8
VRSTVA_1
 62
   250
100
AcDbSpline
210
0.0
220
0.0
230
1.0
 70
     8
 71
     3
 72
     8
 73
     4
 74
     0
 42
0.0000000001
 43
0.0000000001
 40
0.0
 40
0.0
 40
0.0
 40
0.0
 40
1.0
 40
1.0
 40
1.0
 40
1.0
 10
-20.7091
 20
8.7547
 30
0.0
 10
-20.7091
 20
8.5339
 30
0.0
 10
-20.53
 20
8.3547
 30
0.0
 10
-20.3091
 20
8.3547
 30
0.0
  0
SPLINE
  5
6E
330
1F
100
AcDbEntity
  8
VRSTVA_1
 62
   250
100
AcDbSpline
210
0.0
220
0.0
230
1.0
 70
     8
 71
     3
 72
     8
 73
     4
 74
     0
 42
0.0000000001
 43
0.0000000001
 40
0.0
 40
0.0
 40
0.0
 40
0.0
 40
1.0
 40
1.0
 40
1.0
 40
1.0
 10
-20.3091
 20
10.7547
 30
0.0
 10
-20.53
 20
10.7547
 30
0.0
 10
-20.7091
 20
10.5757
 30
0.0
 10
-20.7091
 20
10.3547
 30
0.0
  0
SPLINE
  5
6F
330
1F
100
AcDbEntity
  8
VRSTVA_1
 62
   250
100
AcDbSpline
210
0.0
220
0.0
230
1.0
 70
     8
 71
     3
 72
     8
 73
     4
 74
     0
 42
0.0000000001
 43
0.0000000001
 40
0.0
 40
0.0
 40
0.0
 40
0.0
 40
1.0
 40
1.0
 40
1.0
 40
1.0
 10
11.2908
 20
10.3547
 30
0.0
 10
11.2908
 20
10.5757
 30
0.0
 10
11.1117
 20
10.7547
 30
0.0
 10
10.8908
 20
10.7547
 30
0.0
  0
SPLINE
  5
70
330
1F
100
AcDbEntity
  8
VRSTVA_1
 62
   250
100
AcDbSpline
210
0.0
220
0.0
230
1.0
 70
     8
 71
     3
 72
     8
 73
     4
 74
     0
 42
0.0000000001
 43
0.0000000001
 40
0.0
 40
0.0
 40
0.0
 40
0.0
 40
1.0
 40
1.0
 40
1.0
 40
1.0
 10
10.8908
 20
8.3547
 30
0.0
 10
11.1117
 20
8.3547
 30
0.0
 10
11.2908
 20
8.5339
 30
0.0
 10
11.2908
 20
8.7547
 30
0.0
  0
SPLINE
  5
71
330
1F
100
AcDbEntity
  8
VRSTVA_1
 62
   250
100
AcDbSpline
210
0.0
220
0.0
230
1.0
 70
    24
 71
     3
 72
     8
 73
     4
 74
     0
 42
0.0000000001
 43
0.0000000001
 40
0.0
 40
0.0
 40
0.0
 40
0.0
 40
1.0
 40
1.0
 40
1.0
 40
1.0
 10
14.9717
 20
15.9946
 30
0.0
 10
14.9717
 20
15.9946
 30
0.0
 10
-24.2281
 20
15.9946
 30
0.0
 10
-24.2281
 20
15.9946
 30
0.0
  0
SPLINE
  5
72
330
1F
100
AcDbEntity
  8
VRSTVA_1
 62
   250
100
AcDbSpline
210
0.0
220
0.0
230
1.0
 70
    24
 71
     3
 72
     8
 73
     4
 74
     0
 42
0.0000000001
 43
0.0000000001
 40
0.0
 40
0.0
 40
0.0
 40
0.0
 40
1.0
 40
1.0
 40
1.0
 40
1.0
 10
-24.2281
 20
-24.8052
 30
0.0
 10
-24.2281
 20
-24.8052
 30
0.0
 10
14.9717
 20
-24.8052
 30
0.0
 10
14.9717
 20
-24.8052
 30
0.0
  0
SPLINE
  5
73
330
1F
100
AcDbEntity
  8
VRSTVA_1
 62
   250
100
AcDbSpline
210
0.0
220
0.0
230
1.0
 70
    24
 71
     3
 72
     8
 73
     4
 74
     0
 42
0.0000000001
 43
0.0000000001
 40
0.0
 40
0.0
 40
0.0
 40
0.0
 40
1.0
 40
1.0
 40
1.0
 40
1.0
 10
-25.0281
 20
15.1946
 30
0.0
 10
-25.0281
 20
15.1946
 30
0.0
 10
-25.0281
 20
-24.0052
 30
0.0
 10
-25.0281
 20
-24.0052
 30
0.0
  0
SPLINE
  5
74
330
1F
100
AcDbEntity
  8
VRSTVA_1
 62
   250
100
AcDbSpline
210
0.0
220
0.0
230
1.0
 70
    24
 71
     3
 72
     8
 73
     4
 74
     0
 42
0.0000000001
 43
0.0000000001
 40
0.0
 40
0.0
 40
0.0
 40
0.0
 40
1.0
 40
1.0
 40
1.0
 40
1.0
 10
15.7717
 20
-24.0052
 30
0.0
 10
15.7717
 20
-24.0052
 30
0.0
 10
15.7717
 20
15.1946
 30
0.0
 10
15.7717
 20
15.1946
 30
0.0
  0
SPLINE
  5
75
330
1F
100
AcDbEntity
  8
VRSTVA_1
 62
   250
100
AcDbSpline
210
0.0
220
0.0
230
1.0
 70
     8
 71
     3
 72
     8
 73
     4
 74
     0
 42
0.0000000001
 43
0.0000000001
 40
0.0
 40
0.0
 40
0.0
 40
0.0
 40
1.0
 40
1.0
 40
1.0
 40
1.0
 10
-24.2281
 20
15.9946
 30
0.0
 10
-24.67
 20
15.9946
 30
0.0
 10
-25.0281
 20
15.6365
 30
0.0
 10
-25.0281
 20
15.1946
 30
0.0
  0
SPLINE
  5
76
330
1F
100
AcDbEntity
  8
VRSTVA_1
 62
   250
100
AcDbSpline
210
0.0
220
0.0
230
1.0
 70
     8
 71
     3
 72
     8
 73
     4
 74
     0
 42
0.0000000001
 43
0.0000000001
 40
0.0
 40
0.0
 40
0.0
 40
0.0
 40
1.0
 40
1.0
 40
1.0
 40
1.0
 10
15.7717
 20
15.1946
 30
0.0
 10
15.7717
 20
15.6365
 30
0.0
 10
15.4135
 20
15.9946
 30
0.0
 10
14.9717
 20
15.9946
 30
0.0
  0
SPLINE
  5
77
330
1F
100
AcDbEntity
  8
VRSTVA_1
 62
   250
100
AcDbSpline
210
0.0
220
0.0
230
1.0
 70
     8
 71
     3
 72
     8
 73
     4
 74
     0
 42
0.0000000001
 43
0.0000000001
 40
0.0
 40
0.0
 40
0.0
 40
0.0
 40
1.0
 40
1.0
 40
1.0
 40
1.0
 10
-25.0281
 20
-24.0052
 30
0.0
 10
-25.0281
 20
-24.4471
 30
0.0
 10
-24.67
 20
-24.8052
 30
0.0
 10
-24.2281
 20
-24.8052
 30
0.0
  0
SPLINE
  5
78
330
1F
100
AcDbEntity
  8
VRSTVA_1
 62
   250
100
AcDbSpline
210
0.0
220
0.0
230
1.0
 70
     8
 71
     3
 72
     8
 73
     4
 74
     0
 42
0.0000000001
 43
0.0000000001
 40
0.0
 40
0.0
 40
0.0
 40
0.0
 40
1.0
 40
1.0
 40
1.0
 40
1.0
 10
14.9717
 20
-24.8052
 30
0.0
 10
15.4135
 20
-24.8052
 30
0.0
 10
15.7717
 20
-24.4471
 30
0.0
 10
15.7717
 20
-24.0052
 30
0.0
  0
SPLINE
  5
79
330
1F
100
AcDbEntity
  8
VRSTVA_1
 62
   250
100
AcDbSpline
210
0.0
220
0.0
230
1.0
 70
    24
 71
     3
 72
     8
 73
     4
 74
     0
 42
0.0000000001
 43
0.0000000001
 40
0.0
 40
0.0
 40
0.0
 40
0.0
 40
1.0
 40
1.0
 40
1.0
 40
1.0
 10
28.3214
 20
-24.7958
 30
0.0
 10
28.3214
 20
-24.7958
 30
0.0
 10
29.519
 20
-24.7958
 30
0.0
 10
29.519
 20
-24.7958
 30
0.0
  0
SPLINE
  5
7A
330
1F
100
AcDbEntity
  8
VRSTVA_1
 62
   250
100
AcDbSpline
210
0.0
220
0.0
230
1.0
 70
    24
 71
     3
 72
     8
 73
     4
 74
     0
 42
0.0000000001
 43
0.0000000001
 40
0.0
 40
0.0
 40
0.0
 40
0.0
 40
1.0
 40
1.0
 40
1.0
 40
1.0
 10
28.3214
 20
-24.7958
 30
0.0
 10
28.3214
 20
-24.7958
 30
0.0
 10
28.3214
 20
13.5245
 30
0.0
 10
28.3214
 20
13.5245
 30
0.0
  0
SPLINE
  5
7B
330
1F
100
AcDbEntity
  8
VRSTVA_1
 62
   250
100
AcDbSpline
210
0.0
220
0.0
230
1.0
 70
    24
 71
     3
 72
     8
 73
     4
 74
     0
 42
0.0000000001
 43
0.0000000001
 40
0.0
 40
0.0
 40
0.0
 40
0.0
 40
1.0
 40
1.0
 40
1.0
 40
1.0
 10
30.318
 20
-23.9974
 30
0.0
 10
30.318
 20
-23.9974
 30
0.0
 10
30.318
 20
15.131
 30
0.0
 10
30.318
 20
15.131
 30
0.0
  0
SPLINE
  5
7C
330
1F
100
AcDbEntity
  8
VRSTVA_1
 62
   250
100
AcDbSpline
210
0.0
220
0.0
230
1.0
 70
     8
 71
     3
 72
     8
 73
     4
 74
     0
 42
0.0000000001
 43
0.0000000001
 40
0.0
 40
0.0
 40
0.0
 40
0.0
 40
1.0
 40
1.0
 40
1.0
 40
1.0
 10
29.519
 20
-24.7958
 30
0.0
 10
29.9599
 20
-24.7958
 30
0.0
 10
30.3174
 20
-24.4383
 30
0.0
 10
30.3174
 20
-23.9974
 30
0.0
  0
SPLINE
  5
7D
330
1F
100
AcDbEntity
  8
VRSTVA_1
 62
   250
100
AcDbSpline
210
0.0
220
0.0
230
1.0
 70
    24
 71
     3
 72
     8
 73
     4
 74
     0
 42
0.0000000001
 43
0.0000000001
 40
0.0
 40
0.0
 40
0.0
 40
0.0
 40
1.0
 40
1.0
 40
1.0
 40
1.0
 10
28.3214
 20
13.5245
 30
0.0
 10
28.3214
 20
13.5245
 30
0.0
 10
28.3214
 20
15.9217
 30
0.0
 10
28.3214
 20
15.9217
 30
0.0
  0
SPLINE
  5
7E
330
1F
100
AcDbEntity
  8
VRSTVA_1
 62
   250
100
AcDbSpline
210
0.0
220
0.0
230
1.0
 70
    24
 71
     3
 72
     8
 73
     4
 74
     0
 42
0.0000000001
 43
0.0000000001
 40
0.0
 40
0.0
 40
0.0
 40
0.0
 40
1.0
 40
1.0
 40
1.0
 40
1.0
 10
28.3214
 20
15.9217
 30
0.0
 10
28.3214
 20
15.9217
 30
0.0
 10
29.519
 20
15.9217
 30
0.0
 10
29.519
 20
15.9217
 30
0.0
  0
SPLINE
  5
7F
330
1F
100
AcDbEntity
  8
VRSTVA_1
 62
   250
100
AcDbSpline
210
0.0
220
0.0
230
1.0
 70
     8
 71
     3
 72
     8
 73
     4
 74
     0
 42
0.0000000001
 43
0.0000000001
 40
0.0
 40
0.0
 40
0.0
 40
0.0
 40
1.0
 40
1.0
 40
1.0
 40
1.0
 10
30.3174
 20
15.1233
 30
0.0
 10
30.3174
 20
15.5643
 30
0.0
 10
29.9599
 20
15.9217
 30
0.0
 10
29.519
 20
15.9217
 30
0.0
  0
SPLINE
  5
80
330
1F
100
AcDbEntity
  8
VRSTVA_1
 62
   250
100
AcDbSpline
210
0.0
220
0.0
230
1.0
 70
    24
 71
     3
 72
     8
 73
     4
 74
     0
 42
0.0000000001
 43
0.0000000001
 40
0.0
 40
0.0
 40
0.0
 40
0.0
 40
1.0
 40
1.0
 40
1.0
 40
1.0
 10
-25.1505
 20
16.1712
 30
0.0
 10
-25.1505
 20
16.1712
 30
0.0
 10
-25.1505
 20
22.8809
 30
0.0
 10
-25.1505
 20
22.8809
 30
0.0
  0
SPLINE
  5
81
330
1F
100
AcDbEntity
  8
VRSTVA_1
 62
   250
100
AcDbSpline
210
0.0
220
0.0
230
1.0
 70
    24
 71
     3
 72
     8
 73
     4
 74
     0
 42
0.0000000001
 43
0.0000000001
 40
0.0
 40
0.0
 40
0.0
 40
0.0
 40
1.0
 40
1.0
 40
1.0
 40
1.0
 10
15.5689
 20
16.8736
 30
0.0
 10
15.5689
 20
16.8736
 30
0.0
 10
15.5689
 20
23.0402
 30
0.0
 10
15.5689
 20
23.0402
 30
0.0
  0
SPLINE
  5
82
330
1F
100
AcDbEntity
  8
VRSTVA_1
 62
   250
100
AcDbSpline
210
0.0
220
0.0
230
1.0
 70
    24
 71
     3
 72
     8
 73
     4
 74
     0
 42
0.0000000001
 43
0.0000000001
 40
0.0
 40
0.0
 40
0.0
 40
0.0
 40
1.0
 40
1.0
 40
1.0
 40
1.0
 10
15.1976
 20
22.0173
 30
0.0
 10
15.1976
 20
22.0173
 30
0.0
 10
-24.6647
 20
22.0173
 30
0.0
 10
-24.6647
 20
22.0173
 30
0.0
  0
SPLINE
  5
83
330
1F
100
AcDbEntity
  8
VRSTVA_1
 62
   250
100
AcDbSpline
210
0.0
220
0.0
230
1.0
 70
    11
 71
     3
 72
    40
 73
    36
 74
     0
 42
0.0000000001
 43
0.0000000001
 40
0.0
 40
0.0
 40
0.0
 40
0.0
 40
0.1
 40
0.1
 40
0.1
 40
0.1
 40
0.2
 40
0.2
 40
0.2
 40
0.2
 40
0.3
 40
0.3
 40
0.3
 40
0.3
 40
0.4
 40
0.4
 40
0.4
 40
0.4
 40
0.5
 40
0.5
 40
0.5
 40
0.5
 40
0.6
 40
0.6
 40
0.6
 40
0.6
 40
0.7
 40
0.7
 40
0.7
 40
0.7
 40
0.8
 40
0.8
 40
0.8
 40
0.8
 40
1.0
 40
1.0
 40
1.0
 40
1.0
 10
-5.5846
 20
22.7769
 30
0.0
 10
-5.5846
 20
22.7769
 30
0.0
 10
-5.8325
 20
22.7769
 30
0.0
 10
-5.8325
 20
22.7769
 30
0.0
 10
-5.8325
 20
22.7769
 30
0.0
 10
-5.8325
 20
22.7769
 30
0.0
 10
-5.8325
 20
24.3573
 30
0.0
 10
-5.8325
 20
24.3573
 30
0.0
 10
-5.8325
 20
24.3573
 30
0.0
 10
-5.8923
 20
24.3004
 30
0.0
 10
-5.9703
 20
24.2435
 30
0.0
 10
-6.0672
 20
24.1866
 30
0.0
 10
-6.0672
 20
24.1866
 30
0.0
 10
-6.1646
 20
24.1297
 30
0.0
 10
-6.2516
 20
24.0869
 30
0.0
 10
-6.3288
 20
24.0586
 30
0.0
 10
-6.3288
 20
24.0586
 30
0.0
 10
-6.3288
 20
24.0586
 30
0.0
 10
-6.3288
 20
24.2981
 30
0.0
 10
-6.3288
 20
24.2981
 30
0.0
 10
-6.3288
 20
24.2981
 30
0.0
 10
-6.19
 20
24.3634
 30
0.0
 10
-6.0686
 20
24.4425
 30
0.0
 10
-5.9647
 20
24.5351
 30
0.0
 10
-5.9647
 20
24.5351
 30
0.0
 10
-5.8612
 20
24.6283
 30
0.0
 10
-5.7874
 20
24.7181
 30
0.0
 10
-5.7441
 20
24.8056
 30
0.0
 10
-5.7441
 20
24.8056
 30
0.0
 10
-5.7441
 20
24.8056
 30
0.0
 10
-5.5846
 20
24.8056
 30
0.0
 10
-5.5846
 20
24.8056
 30
0.0
 10
-5.5846
 20
24.8056
 30
0.0
 10
-5.5846
 20
24.8056
 30
0.0
 10
-5.5846
 20
22.7769
 30
0.0
 10
-5.5846
 20
22.7769
 30
0.0
  0
SPLINE
  5
84
330
1F
100
AcDbEntity
  8
VRSTVA_1
 62
   250
100
AcDbSpline
210
0.0
220
0.0
230
1.0
 70
    11
 71
     3
 72
    52
 73
    48
 74
     0
 42
0.0000000001
 43
0.0000000001
 40
0.0
 40
0.0
 40
0.0
 40
0.0
 40
0.0769230769230769
 40
0.0769230769230769
 40
0.0769230769230769
 40
0.0769230769230769
 40
0.1538461538461539
 40
0.1538461538461539
 40
0.1538461538461539
 40
0.1538461538461539
 40
0.2307692307692308
 40
0.2307692307692308
 40
0.2307692307692308
 40
0.2307692307692308
 40
0.3076923076923077
 40
0.3076923076923077
 40
0.3076923076923077
 40
0.3076923076923077
 40
0.3846153846153846
 40
0.3846153846153846
 40
0.3846153846153846
 40
0.3846153846153846
 40
0.4615384615384616
 40
0.4615384615384616
 40
0.4615384615384616
 40
0.4615384615384616
 40
0.5384615384615384
 40
0.5384615384615384
 40
0.5384615384615384
 40
0.5384615384615384
 40
0.6153846153846154
 40
0.6153846153846154
 40
0.6153846153846154
 40
0.6153846153846154
 40
0.6923076923076923
 40
0.6923076923076923
 40
0.6923076923076923
 40
0.6923076923076923
 40
0.7692307692307693
 40
0.7692307692307693
 40
0.7692307692307693
 40
0.7692307692307693
 40
0.8461538461538461
 40
0.8461538461538461
 40
0.8461538461538461
 40
0.8461538461538461
 40
1.0
 40
1.0
 40
1.0
 40
1.0
 10
-4.9492
 20
23.7731
 30
0.0
 10
-4.9492
 20
24.0121
 30
0.0
 10
-4.9247
 20
24.2045
 30
0.0
 10
-4.8753
 20
24.3498
 30
0.0
 10
-4.8753
 20
24.3498
 30
0.0
 10
-4.8264
 20
24.4956
 30
0.0
 10
-4.753
 20
24.608
 30
0.0
 10
-4.6561
 20
24.6871
 30
0.0
 10
-4.6561
 20
24.6871
 30
0.0
 10
-4.5592
 20
24.7661
 30
0.0
 10
-4.4374
 20
24.8056
 30
0.0
 10
-4.2907
 20
24.8056
 30
0.0
 10
-4.2907
 20
24.8056
 30
0.0
 10
-4.182
 20
24.8056
 30
0.0
 10
-4.087
 20
24.7835
 30
0.0
 10
-4.0052
 20
24.7397
 30
0.0
 10
-4.0052
 20
24.7397
 30
0.0
 10
-3.9233
 20
24.6965
 30
0.0
 10
-3.856
 20
24.6334
 30
0.0
 10
-3.8024
 20
24.5511
 30
0.0
 10
-3.8024
 20
24.5511
 30
0.0
 10
-3.7493
 20
24.4688
 30
0.0
 10
-3.7074
 20
24.3686
 30
0.0
 10
-3.6773
 20
24.2506
 30
0.0
 10
-3.6773
 20
24.2506
 30
0.0
 10
-3.6467
 20
24.1325
 30
0.0
 10
-3.6317
 20
23.9735
 30
0.0
 10
-3.6317
 20
23.7731
 30
0.0
 10
-3.6317
 20
23.7731
 30
0.0
 10
-3.6317
 20
23.5361
 30
0.0
 10
-3.6561
 20
23.3451
 30
0.0
 10
-3.7046
 20
23.1993
 30
0.0
 10
-3.7046
 20
23.1993
 30
0.0
 10
-3.7535
 20
23.0535
 30
0.0
 10
-3.8264
 20
22.9411
 30
0.0
 10
-3.9233
 20
22.8616
 30
0.0
 10
-3.9233
 20
22.8616
 30
0.0
 10
-4.0202
 20
22.7821
 30
0.0
 10
-4.1425
 20
22.7426
 30
0.0
 10
-4.2907
 20
22.7426
 30
0.0
 10
-4.2907
 20
22.7426
 30
0.0
 10
-4.4854
 20
22.7426
 30
0.0
 10
-4.6383
 20
22.8122
 30
0.0
 10
-4.7493
 20
22.9519
 30
0.0
 10
-4.7493
 20
22.9519
 30
0.0
 10
-4.8824
 20
23.1198
 30
0.0
 10
-4.9492
 20
23.394
 30
0.0
 10
-4.9492
 20
23.7731
 30
0.0
  0
SPLINE
  5
85
330
1F
100
AcDbEntity
  8
VRSTVA_1
 62
   250
100
AcDbSpline
210
0.0
220
0.0
230
1.0
 70
    11
 71
     3
 72
    36
 73
    32
 74
     0
 42
0.0000000001
 43
0.0000000001
 40
0.0
 40
0.0
 40
0.0
 40
0.0
 40
0.1111111111111111
 40
0.1111111111111111
 40
0.1111111111111111
 40
0.1111111111111111
 40
0.2222222222222222
 40
0.2222222222222222
 40
0.2222222222222222
 40
0.2222222222222222
 40
0.3333333333333333
 40
0.3333333333333333
 40
0.3333333333333333
 40
0.3333333333333333
 40
0.4444444444444444
 40
0.4444444444444444
 40
0.4444444444444444
 40
0.4444444444444444
 40
0.5555555555555556
 40
0.5555555555555556
 40
0.5555555555555556
 40
0.5555555555555556
 40
0.6666666666666666
 40
0.6666666666666666
 40
0.6666666666666666
 40
0.6666666666666666
 40
0.7777777777777778
 40
0.7777777777777778
 40
0.7777777777777778
 40
0.7777777777777778
 40
1.0
 40
1.0
 40
1.0
 40
1.0
 10
-4.6942
 20
23.7731
 30
0.0
 10
-4.6942
 20
23.4415
 30
0.0
 10
-4.6552
 20
23.2209
 30
0.0
 10
-4.5776
 20
23.1109
 30
0.0
 10
-4.5776
 20
23.1109
 30
0.0
 10
-4.5
 20
23.0013
 30
0.0
 10
-4.4045
 20
22.9462
 30
0.0
 10
-4.2907
 20
22.9462
 30
0.0
 10
-4.2907
 20
22.9462
 30
0.0
 10
-4.1764
 20
22.9462
 30
0.0
 10
-4.0809
 20
23.0017
 30
0.0
 10
-4.0033
 20
23.1118
 30
0.0
 10
-4.0033
 20
23.1118
 30
0.0
 10
-3.9257
 20
23.2219
 30
0.0
 10
-3.8866
 20
23.4425
 30
0.0
 10
-3.8866
 20
23.7731
 30
0.0
 10
-3.8866
 20
23.7731
 30
0.0
 10
-3.8866
 20
24.1057
 30
0.0
 10
-3.9257
 20
24.3268
 30
0.0
 10
-4.0033
 20
24.4359
 30
0.0
 10
-4.0033
 20
24.4359
 30
0.0
 10
-4.0809
 20
24.5455
 30
0.0
 10
-4.1773
 20
24.6
 30
0.0
 10
-4.293
 20
24.6
 30
0.0
 10
-4.293
 20
24.6
 30
0.0
 10
-4.4073
 20
24.6
 30
0.0
 10
-4.4981
 20
24.5516
 30
0.0
 10
-4.5663
 20
24.4552
 30
0.0
 10
-4.5663
 20
24.4552
 30
0.0
 10
-4.6514
 20
24.3324
 30
0.0
 10
-4.6942
 20
24.1047
 30
0.0
 10
-4.6942
 20
23.7731
 30
0.0
  0
SPLINE
  5
86
330
1F
100
AcDbEntity
  8
VRSTVA_1
 62
   250
100
AcDbSpline
210
0.0
220
0.0
230
1.0
 70
    11
 71
     3
 72
    92
 73
    88
 74
     0
 42
0.0000000001
 43
0.0000000001
 40
0.0
 40
0.0
 40
0.0
 40
0.0
 40
0.0434782608695652
 40
0.0434782608695652
 40
0.0434782608695652
 40
0.0434782608695652
 40
0.0869565217391304
 40
0.0869565217391304
 40
0.0869565217391304
 40
0.0869565217391304
 40
0.1304347826086956
 40
0.1304347826086956
 40
0.1304347826086956
 40
0.1304347826086956
 40
0.1739130434782609
 40
0.1739130434782609
 40
0.1739130434782609
 40
0.1739130434782609
 40
0.2173913043478261
 40
0.2173913043478261
 40
0.2173913043478261
 40
0.2173913043478261
 40
0.2608695652173913
 40
0.2608695652173913
 40
0.2608695652173913
 40
0.2608695652173913
 40
0.3043478260869565
 40
0.3043478260869565
 40
0.3043478260869565
 40
0.3043478260869565
 40
0.3478260869565217
 40
0.3478260869565217
 40
0.3478260869565217
 40
0.3478260869565217
 40
0.391304347826087
 40
0.391304347826087
 40
0.391304347826087
 40
0.391304347826087
 40
0.4347826086956522
 40
0.4347826086956522
 40
0.4347826086956522
 40
0.4347826086956522
 40
0.4782608695652174
 40
0.4782608695652174
 40
0.4782608695652174
 40
0.4782608695652174
 40
0.5217391304347826
 40
0.5217391304347826
 40
0.5217391304347826
 40
0.5217391304347826
 40
0.5652173913043478
 40
0.5652173913043478
 40
0.5652173913043478
 40
0.5652173913043478
 40
0.6086956521739131
 40
0.6086956521739131
 40
0.6086956521739131
 40
0.6086956521739131
 40
0.6521739130434783
 40
0.6521739130434783
 40
0.6521739130434783
 40
0.6521739130434783
 40
0.6956521739130435
 40
0.6956521739130435
 40
0.6956521739130435
 40
0.6956521739130435
 40
0.7391304347826086
 40
0.7391304347826086
 40
0.7391304347826086
 40
0.7391304347826086
 40
0.782608695652174
 40
0.782608695652174
 40
0.782608695652174
 40
0.782608695652174
 40
0.8260869565217391
 40
0.8260869565217391
 40
0.8260869565217391
 40
0.8260869565217391
 40
0.8695652173913043
 40
0.8695652173913043
 40
0.8695652173913043
 40
0.8695652173913043
 40
0.9130434782608695
 40
0.9130434782608695
 40
0.9130434782608695
 40
0.9130434782608695
 40
1.0
 40
1.0
 40
1.0
 40
1.0
 10
-2.0757
 20
23.0154
 30
0.0
 10
-2.0757
 20
23.0154
 30
0.0
 10
-2.0757
 20
22.7769
 30
0.0
 10
-2.0757
 20
22.7769
 30
0.0
 10
-2.0757
 20
22.7769
 30
0.0
 10
-2.0757
 20
22.7769
 30
0.0
 10
-3.4111
 20
22.7769
 30
0.0
 10
-3.4111
 20
22.7769
 30
0.0
 10
-3.4111
 20
22.7769
 30
0.0
 10
-3.413
 20
22.8366
 30
0.0
 10
-3.4036
 20
22.894
 30
0.0
 10
-3.3824
 20
22.9491
 30
0.0
 10
-3.3824
 20
22.9491
 30
0.0
 10
-3.3485
 20
23.0403
 30
0.0
 10
-3.294
 20
23.1297
 30
0.0
 10
-3.2192
 20
23.2181
 30
0.0
 10
-3.2192
 20
23.2181
 30
0.0
 10
-3.1439
 20
23.3061
 30
0.0
 10
-3.0357
 20
23.4081
 30
0.0
 10
-2.8946
 20
23.5238
 30
0.0
 10
-2.8946
 20
23.5238
 30
0.0
 10
-2.675
 20
23.704
 30
0.0
 10
-2.5263
 20
23.8465
 30
0.0
 10
-2.4492
 20
23.9519
 30
0.0
 10
-2.4492
 20
23.9519
 30
0.0
 10
-2.3721
 20
24.0568
 30
0.0
 10
-2.3335
 20
24.1565
 30
0.0
 10
-2.3335
 20
24.2501
 30
0.0
 10
-2.3335
 20
24.2501
 30
0.0
 10
-2.3335
 20
24.3484
 30
0.0
 10
-2.3688
 20
24.4312
 30
0.0
 10
-2.4388
 20
24.4989
 30
0.0
 10
-2.4388
 20
24.4989
 30
0.0
 10
-2.5094
 20
24.5662
 30
0.0
 10
-2.6011
 20
24.6
 30
0.0
 10
-2.714
 20
24.6
 30
0.0
 10
-2.714
 20
24.6
 30
0.0
 10
-2.8335
 20
24.6
 30
0.0
 10
-2.929
 20
24.5643
 30
0.0
 10
-3.0005
 20
24.4923
 30
0.0
 10
-3.0005
 20
24.4923
 30
0.0
 10
-3.0724
 20
24.4208
 30
0.0
 10
-3.1086
 20
24.3216
 30
0.0
 10
-3.1096
 20
24.1951
 30
0.0
 10
-3.1096
 20
24.1951
 30
0.0
 10
-3.1096
 20
24.1951
 30
0.0
 10
-3.3645
 20
24.2209
 30
0.0
 10
-3.3645
 20
24.2209
 30
0.0
 10
-3.3645
 20
24.2209
 30
0.0
 10
-3.3471
 20
24.4114
 30
0.0
 10
-3.2813
 20
24.5563
 30
0.0
 10
-3.1674
 20
24.656
 30
0.0
 10
-3.1674
 20
24.656
 30
0.0
 10
-3.0536
 20
24.7557
 30
0.0
 10
-2.9003
 20
24.8056
 30
0.0
 10
-2.7084
 20
24.8056
 30
0.0
 10
-2.7084
 20
24.8056
 30
0.0
 10
-2.5146
 20
24.8056
 30
0.0
 10
-2.3612
 20
24.7515
 30
0.0
 10
-2.2483
 20
24.6443
 30
0.0
 10
-2.2483
 20
24.6443
 30
0.0
 10
-2.135
 20
24.5365
 30
0.0
 10
-2.0785
 20
24.4034
 30
0.0
 10
-2.0785
 20
24.2444
 30
0.0
 10
-2.0785
 20
24.2444
 30
0.0
 10
-2.0785
 20
24.1635
 30
0.0
 10
-2.095
 20
24.084
 30
0.0
 10
-2.1284
 20
24.006
 30
0.0
 10
-2.1284
 20
24.006
 30
0.0
 10
-2.1613
 20
23.9279
 30
0.0
 10
-2.2164
 20
23.8456
 30
0.0
 10
-2.293
 20
23.7595
 30
0.0
 10
-2.293
 20
23.7595
 30
0.0
 10
-2.3697
 20
23.6729
 30
0.0
 10
-2.4972
 20
23.5544
 30
0.0
 10
-2.6754
 20
23.4039
 30
0.0
 10
-2.6754
 20
23.4039
 30
0.0
 10
-2.8241
 20
23.2788
 30
0.0
 10
-2.9196
 20
23.1941
 30
0.0
 10
-2.9619
 20
23.1494
 30
0.0
 10
-2.9619
 20
23.1494
 30
0.0
 10
-3.0042
 20
23.1052
 30
0.0
 10
-3.039
 20
23.0605
 30
0.0
 10
-3.0668
 20
23.0154
 30
0.0
 10
-3.0668
 20
23.0154
 30
0.0
 10
-3.0668
 20
23.0154
 30
0.0
 10
-2.0757
 20
23.0154
 30
0.0
 10
-2.0757
 20
23.0154
 30
0.0
  0
SPLINE
  5
87
330
1F
100
AcDbEntity
  8
VRSTVA_1
 62
   250
100
AcDbSpline
210
0.0
220
0.0
230
1.0
 70
    11
 71
     3
 72
    20
 73
    16
 74
     0
 42
0.0000000001
 43
0.0000000001
 40
0.0
 40
0.0
 40
0.0
 40
0.0
 40
0.2
 40
0.2
 40
0.2
 40
0.2
 40
0.4
 40
0.4
 40
0.4
 40
0.4
 40
0.6
 40
0.6
 40
0.6
 40
0.6
 40
1.0
 40
1.0
 40
1.0
 40
1.0
 10
12.9962
 20
22.3973
 30
0.0
 10
12.9962
 20
22.3973
 30
0.0
 10
15.4962
 20
22.0444
 30
0.0
 10
15.4962
 20
22.0444
 30
0.0
 10
15.4962
 20
22.0444
 30
0.0
 10
15.4962
 20
22.0444
 30
0.0
 10
15.4962
 20
21.9661
 30
0.0
 10
15.4962
 20
21.9661
 30
0.0
 10
15.4962
 20
21.9661
 30
0.0
 10
15.4962
 20
21.9661
 30
0.0
 10
12.9962
 20
21.5898
 30
0.0
 10
12.9962
 20
21.5898
 30
0.0
 10
12.9962
 20
21.5898
 30
0.0
 10
12.9962
 20
21.5898
 30
0.0
 10
12.9962
 20
22.3973
 30
0.0
 10
12.9962
 20
22.3973
 30
0.0
  0
SPLINE
  5
88
330
1F
100
AcDbEntity
  8
VRSTVA_1
 62
   250
100
AcDbSpline
210
0.0
220
0.0
230
1.0
 70
    11
 71
     3
 72
    20
 73
    16
 74
     0
 42
0.0000000001
 43
0.0000000001
 40
0.0
 40
0.0
 40
0.0
 40
0.0
 40
0.2
 40
0.2
 40
0.2
 40
0.2
 40
0.4
 40
0.4
 40
0.4
 40
0.4
 40
0.6
 40
0.6
 40
0.6
 40
0.6
 40
1.0
 40
1.0
 40
1.0
 40
1.0
 10
-22.5629
 20
21.6177
 30
0.0
 10
-22.5629
 20
21.6177
 30
0.0
 10
-25.0629
 20
21.9706
 30
0.0
 10
-25.0629
 20
21.9706
 30
0.0
 10
-25.0629
 20
21.9706
 30
0.0
 10
-25.0629
 20
21.9706
 30
0.0
 10
-25.0629
 20
22.0489
 30
0.0
 10
-25.0629
 20
22.0489
 30
0.0
 10
-25.0629
 20
22.0489
 30
0.0
 10
-25.0629
 20
22.0489
 30
0.0
 10
-22.5629
 20
22.4252
 30
0.0
 10
-22.5629
 20
22.4252
 30
0.0
 10
-22.5629
 20
22.4252
 30
0.0
 10
-22.5629
 20
22.4252
 30
0.0
 10
-22.5629
 20
21.6177
 30
0.0
 10
-22.5629
 20
21.6177
 30
0.0
  0
SPLINE
  5
89
330
1F
100
AcDbEntity
  8
VRSTVA_1
 62
   250
100
AcDbSpline
210
0.0
220
0.0
230
1.0
 70
    24
 71
     3
 72
     8
 73
     4
 74
     0
 42
0.0000000001
 43
0.0000000001
 40
0.0
 40
0.0
 40
0.0
 40
0.0
 40
1.0
 40
1.0
 40
1.0
 40
1.0
 10
-25.7735
 20
-24.8054
 30
0.0
 10
-25.7735
 20
-24.8054
 30
0.0
 10
-32.4832
 20
-24.8054
 30
0.0
 10
-32.4832
 20
-24.8054
 30
0.0
  0
SPLINE
  5
8A
330
1F
100
AcDbEntity
  8
VRSTVA_1
 62
   250
100
AcDbSpline
210
0.0
220
0.0
230
1.0
 70
    24
 71
     3
 72
     8
 73
     4
 74
     0
 42
0.0000000001
 43
0.0000000001
 40
0.0
 40
0.0
 40
0.0
 40
0.0
 40
1.0
 40
1.0
 40
1.0
 40
1.0
 10
-26.4759
 20
15.914
 30
0.0
 10
-26.4759
 20
15.914
 30
0.0
 10
-32.6425
 20
15.914
 30
0.0
 10
-32.6425
 20
15.914
 30
0.0
  0
SPLINE
  5
8B
330
1F
100
AcDbEntity
  8
VRSTVA_1
 62
   250
100
AcDbSpline
210
0.0
220
0.0
230
1.0
 70
    24
 71
     3
 72
     8
 73
     4
 74
     0
 42
0.0000000001
 43
0.0000000001
 40
0.0
 40
0.0
 40
0.0
 40
0.0
 40
1.0
 40
1.0
 40
1.0
 40
1.0
 10
-31.6196
 20
15.5427
 30
0.0
 10
-31.6196
 20
15.5427
 30
0.0
 10
-31.6196
 20
-24.3196
 30
0.0
 10
-31.6196
 20
-24.3196
 30
0.0
  0
SPLINE
  5
8C
330
1F
100
AcDbEntity
  8
VRSTVA_1
 62
   250
100
AcDbSpline
210
0.0
220
0.0
230
1.0
 70
    11
 71
     3
 72
    40
 73
    36
 74
     0
 42
0.0000000001
 43
0.0000000001
 40
0.0
 40
0.0
 40
0.0
 40
0.0
 40
0.1
 40
0.1
 40
0.1
 40
0.1
 40
0.2
 40
0.2
 40
0.2
 40
0.2
 40
0.3
 40
0.3
 40
0.3
 40
0.3
 40
0.4
 40
0.4
 40
0.4
 40
0.4
 40
0.5
 40
0.5
 40
0.5
 40
0.5
 40
0.6
 40
0.6
 40
0.6
 40
0.6
 40
0.7
 40
0.7
 40
0.7
 40
0.7
 40
0.8
 40
0.8
 40
0.8
 40
0.8
 40
1.0
 40
1.0
 40
1.0
 40
1.0
 10
-32.3792
 20
-5.2395
 30
0.0
 10
-32.3792
 20
-5.2395
 30
0.0
 10
-32.3792
 20
-5.4874
 30
0.0
 10
-32.3792
 20
-5.4874
 30
0.0
 10
-32.3792
 20
-5.4874
 30
0.0
 10
-32.3792
 20
-5.4874
 30
0.0
 10
-33.9596
 20
-5.4874
 30
0.0
 10
-33.9596
 20
-5.4874
 30
0.0
 10
-33.9596
 20
-5.4874
 30
0.0
 10
-33.9027
 20
-5.5472
 30
0.0
 10
-33.8458
 20
-5.6252
 30
0.0
 10
-33.7889
 20
-5.7221
 30
0.0
 10
-33.7889
 20
-5.7221
 30
0.0
 10
-33.732
 20
-5.8195
 30
0.0
 10
-33.6892
 20
-5.9065
 30
0.0
 10
-33.6609
 20
-5.9837
 30
0.0
 10
-33.6609
 20
-5.9837
 30
0.0
 10
-33.6609
 20
-5.9837
 30
0.0
 10
-33.9004
 20
-5.9837
 30
0.0
 10
-33.9004
 20
-5.9837
 30
0.0
 10
-33.9004
 20
-5.9837
 30
0.0
 10
-33.9657
 20
-5.8449
 30
0.0
 10
-34.0448
 20
-5.7235
 30
0.0
 10
-34.1374
 20
-5.6196
 30
0.0
 10
-34.1374
 20
-5.6196
 30
0.0
 10
-34.2306
 20
-5.5161
 30
0.0
 10
-34.3204
 20
-5.4423
 30
0.0
 10
-34.4079
 20
-5.399
 30
0.0
 10
-34.4079
 20
-5.399
 30
0.0
 10
-34.4079
 20
-5.399
 30
0.0
 10
-34.4079
 20
-5.2395
 30
0.0
 10
-34.4079
 20
-5.2395
 30
0.0
 10
-34.4079
 20
-5.2395
 30
0.0
 10
-34.4079
 20
-5.2395
 30
0.0
 10
-32.3792
 20
-5.2395
 30
0.0
 10
-32.3792
 20
-5.2395
 30
0.0
  0
SPLINE
  5
8D
330
1F
100
AcDbEntity
  8
VRSTVA_1
 62
   250
100
AcDbSpline
210
0.0
220
0.0
230
1.0
 70
    11
 71
     3
 72
    52
 73
    48
 74
     0
 42
0.0000000001
 43
0.0000000001
 40
0.0
 40
0.0
 40
0.0
 40
0.0
 40
0.0769230769230769
 40
0.0769230769230769
 40
0.0769230769230769
 40
0.0769230769230769
 40
0.1538461538461539
 40
0.1538461538461539
 40
0.1538461538461539
 40
0.1538461538461539
 40
0.2307692307692308
 40
0.2307692307692308
 40
0.2307692307692308
 40
0.2307692307692308
 40
0.3076923076923077
 40
0.3076923076923077
 40
0.3076923076923077
 40
0.3076923076923077
 40
0.3846153846153846
 40
0.3846153846153846
 40
0.3846153846153846
 40
0.3846153846153846
 40
0.4615384615384616
 40
0.4615384615384616
 40
0.4615384615384616
 40
0.4615384615384616
 40
0.5384615384615384
 40
0.5384615384615384
 40
0.5384615384615384
 40
0.5384615384615384
 40
0.6153846153846154
 40
0.6153846153846154
 40
0.6153846153846154
 40
0.6153846153846154
 40
0.6923076923076923
 40
0.6923076923076923
 40
0.6923076923076923
 40
0.6923076923076923
 40
0.7692307692307693
 40
0.7692307692307693
 40
0.7692307692307693
 40
0.7692307692307693
 40
0.8461538461538461
 40
0.8461538461538461
 40
0.8461538461538461
 40
0.8461538461538461
 40
1.0
 40
1.0
 40
1.0
 40
1.0
 10
-33.3754
 20
-4.6041
 30
0.0
 10
-33.6144
 20
-4.6041
 30
0.0
 10
-33.8068
 20
-4.5796
 30
0.0
 10
-33.9521
 20
-4.5302
 30
0.0
 10
-33.9521
 20
-4.5302
 30
0.0
 10
-34.0979
 20
-4.4813
 30
0.0
 10
-34.2103
 20
-4.4079
 30
0.0
 10
-34.2894
 20
-4.311
 30
0.0
 10
-34.2894
 20
-4.311
 30
0.0
 10
-34.3684
 20
-4.2141
 30
0.0
 10
-34.4079
 20
-4.0923
 30
0.0
 10
-34.4079
 20
-3.9456
 30
0.0
 10
-34.4079
 20
-3.9456
 30
0.0
 10
-34.4079
 20
-3.8369
 30
0.0
 10
-34.3858
 20
-3.7419
 30
0.0
 10
-34.342
 20
-3.6601
 30
0.0
 10
-34.342
 20
-3.6601
 30
0.0
 10
-34.2988
 20
-3.5782
 30
0.0
 10
-34.2357
 20
-3.5109
 30
0.0
 10
-34.1534
 20
-3.4573
 30
0.0
 10
-34.1534
 20
-3.4573
 30
0.0
 10
-34.0711
 20
-3.4042
 30
0.0
 10
-33.9709
 20
-3.3623
 30
0.0
 10
-33.8529
 20
-3.3322
 30
0.0
 10
-33.8529
 20
-3.3322
 30
0.0
 10
-33.7348
 20
-3.3016
 30
0.0
 10
-33.5758
 20
-3.2866
 30
0.0
 10
-33.3754
 20
-3.2866
 30
0.0
 10
-33.3754
 20
-3.2866
 30
0.0
 10
-33.1384
 20
-3.2866
 30
0.0
 10
-32.9474
 20
-3.311
 30
0.0
 10
-32.8016
 20
-3.3595
 30
0.0
 10
-32.8016
 20
-3.3595
 30
0.0
 10
-32.6558
 20
-3.4084
 30
0.0
 10
-32.5434
 20
-3.4813
 30
0.0
 10
-32.4639
 20
-3.5782
 30
0.0
 10
-32.4639
 20
-3.5782
 30
0.0
 10
-32.3844
 20
-3.6751
 30
0.0
 10
-32.3449
 20
-3.7974
 30
0.0
 10
-32.3449
 20
-3.9456
 30
0.0
 10
-32.3449
 20
-3.9456
 30
0.0
 10
-32.3449
 20
-4.1403
 30
0.0
 10
-32.4145
 20
-4.2932
 30
0.0
 10
-32.5542
 20
-4.4042
 30
0.0
 10
-32.5542
 20
-4.4042
 30
0.0
 10
-32.7221
 20
-4.5373
 30
0.0
 10
-32.9963
 20
-4.6041
 30
0.0
 10
-33.3754
 20
-4.6041
 30
0.0
  0
SPLINE
  5
8E
330
1F
100
AcDbEntity
  8
VRSTVA_1
 62
   250
100
AcDbSpline
210
0.0
220
0.0
230
1.0
 70
    11
 71
     3
 72
    36
 73
    32
 74
     0
 42
0.0000000001
 43
0.0000000001
 40
0.0
 40
0.0
 40
0.0
 40
0.0
 40
0.1111111111111111
 40
0.1111111111111111
 40
0.1111111111111111
 40
0.1111111111111111
 40
0.2222222222222222
 40
0.2222222222222222
 40
0.2222222222222222
 40
0.2222222222222222
 40
0.3333333333333333
 40
0.3333333333333333
 40
0.3333333333333333
 40
0.3333333333333333
 40
0.4444444444444444
 40
0.4444444444444444
 40
0.4444444444444444
 40
0.4444444444444444
 40
0.5555555555555556
 40
0.5555555555555556
 40
0.5555555555555556
 40
0.5555555555555556
 40
0.6666666666666666
 40
0.6666666666666666
 40
0.6666666666666666
 40
0.6666666666666666
 40
0.7777777777777778
 40
0.7777777777777778
 40
0.7777777777777778
 40
0.7777777777777778
 40
1.0
 40
1.0
 40
1.0
 40
1.0
 10
-33.3754
 20
-4.3491
 30
0.0
 10
-33.0438
 20
-4.3491
 30
0.0
 10
-32.8232
 20
-4.3101
 30
0.0
 10
-32.7132
 20
-4.2325
 30
0.0
 10
-32.7132
 20
-4.2325
 30
0.0
 10
-32.6036
 20
-4.1549
 30
0.0
 10
-32.5485
 20
-4.0594
 30
0.0
 10
-32.5485
 20
-3.9456
 30
0.0
 10
-32.5485
 20
-3.9456
 30
0.0
 10
-32.5485
 20
-3.8313
 30
0.0
 10
-32.604
 20
-3.7358
 30
0.0
 10
-32.7141
 20
-3.6582
 30
0.0
 10
-32.7141
 20
-3.6582
 30
0.0
 10
-32.8242
 20
-3.5806
 30
0.0
 10
-33.0448
 20
-3.5415
 30
0.0
 10
-33.3754
 20
-3.5415
 30
0.0
 10
-33.3754
 20
-3.5415
 30
0.0
 10
-33.708
 20
-3.5415
 30
0.0
 10
-33.9291
 20
-3.5806
 30
0.0
 10
-34.0382
 20
-3.6582
 30
0.0
 10
-34.0382
 20
-3.6582
 30
0.0
 10
-34.1478
 20
-3.7358
 30
0.0
 10
-34.2023
 20
-3.8322
 30
0.0
 10
-34.2023
 20
-3.9479
 30
0.0
 10
-34.2023
 20
-3.9479
 30
0.0
 10
-34.2023
 20
-4.0622
 30
0.0
 10
-34.1539
 20
-4.153
 30
0.0
 10
-34.0575
 20
-4.2212
 30
0.0
 10
-34.0575
 20
-4.2212
 30
0.0
 10
-33.9347
 20
-4.3063
 30
0.0
 10
-33.707
 20
-4.3491
 30
0.0
 10
-33.3754
 20
-4.3491
 30
0.0
  0
SPLINE
  5
8F
330
1F
100
AcDbEntity
  8
VRSTVA_1
 62
   250
100
AcDbSpline
210
0.0
220
0.0
230
1.0
 70
    11
 71
     3
 72
    92
 73
    88
 74
     0
 42
0.0000000001
 43
0.0000000001
 40
0.0
 40
0.0
 40
0.0
 40
0.0
 40
0.0434782608695652
 40
0.0434782608695652
 40
0.0434782608695652
 40
0.0434782608695652
 40
0.0869565217391304
 40
0.0869565217391304
 40
0.0869565217391304
 40
0.0869565217391304
 40
0.1304347826086956
 40
0.1304347826086956
 40
0.1304347826086956
 40
0.1304347826086956
 40
0.1739130434782609
 40
0.1739130434782609
 40
0.1739130434782609
 40
0.1739130434782609
 40
0.2173913043478261
 40
0.2173913043478261
 40
0.2173913043478261
 40
0.2173913043478261
 40
0.2608695652173913
 40
0.2608695652173913
 40
0.2608695652173913
 40
0.2608695652173913
 40
0.3043478260869565
 40
0.3043478260869565
 40
0.3043478260869565
 40
0.3043478260869565
 40
0.3478260869565217
 40
0.3478260869565217
 40
0.3478260869565217
 40
0.3478260869565217
 40
0.391304347826087
 40
0.391304347826087
 40
0.391304347826087
 40
0.391304347826087
 40
0.4347826086956522
 40
0.4347826086956522
 40
0.4347826086956522
 40
0.4347826086956522
 40
0.4782608695652174
 40
0.4782608695652174
 40
0.4782608695652174
 40
0.4782608695652174
 40
0.5217391304347826
 40
0.5217391304347826
 40
0.5217391304347826
 40
0.5217391304347826
 40
0.5652173913043478
 40
0.5652173913043478
 40
0.5652173913043478
 40
0.5652173913043478
 40
0.6086956521739131
 40
0.6086956521739131
 40
0.6086956521739131
 40
0.6086956521739131
 40
0.6521739130434783
 40
0.6521739130434783
 40
0.6521739130434783
 40
0.6521739130434783
 40
0.6956521739130435
 40
0.6956521739130435
 40
0.6956521739130435
 40
0.6956521739130435
 40
0.7391304347826086
 40
0.7391304347826086
 40
0.7391304347826086
 40
0.7391304347826086
 40
0.782608695652174
 40
0.782608695652174
 40
0.782608695652174
 40
0.782608695652174
 40
0.8260869565217391
 40
0.8260869565217391
 40
0.8260869565217391
 40
0.8260869565217391
 40
0.8695652173913043
 40
0.8695652173913043
 40
0.8695652173913043
 40
0.8695652173913043
 40
0.9130434782608695
 40
0.9130434782608695
 40
0.9130434782608695
 40
0.9130434782608695
 40
1.0
 40
1.0
 40
1.0
 40
1.0
 10
-32.6177
 20
-1.7306
 30
0.0
 10
-32.6177
 20
-1.7306
 30
0.0
 10
-32.3792
 20
-1.7306
 30
0.0
 10
-32.3792
 20
-1.7306
 30
0.0
 10
-32.3792
 20
-1.7306
 30
0.0
 10
-32.3792
 20
-1.7306
 30
0.0
 10
-32.3792
 20
-3.066
 30
0.0
 10
-32.3792
 20
-3.066
 30
0.0
 10
-32.3792
 20
-3.066
 30
0.0
 10
-32.4389
 20
-3.0679
 30
0.0
 10
-32.4963
 20
-3.0585
 30
0.0
 10
-32.5514
 20
-3.0373
 30
0.0
 10
-32.5514
 20
-3.0373
 30
0.0
 10
-32.6426
 20
-3.0034
 30
0.0
 10
-32.732
 20
-2.9489
 30
0.0
 10
-32.8204
 20
-2.8741
 30
0.0
 10
-32.8204
 20
-2.8741
 30
0.0
 10
-32.9084
 20
-2.7988
 30
0.0
 10
-33.0104
 20
-2.6906
 30
0.0
 10
-33.1261
 20
-2.5495
 30
0.0
 10
-33.1261
 20
-2.5495
 30
0.0
 10
-33.3063
 20
-2.3299
 30
0.0
 10
-33.4488
 20
-2.1812
 30
0.0
 10
-33.5542
 20
-2.1041
 30
0.0
 10
-33.5542
 20
-2.1041
 30
0.0
 10
-33.6591
 20
-2.027
 30
0.0
 10
-33.7588
 20
-1.9884
 30
0.0
 10
-33.8524
 20
-1.9884
 30
0.0
 10
-33.8524
 20
-1.9884
 30
0.0
 10
-33.9507
 20
-1.9884
 30
0.0
 10
-34.0335
 20
-2.0237
 30
0.0
 10
-34.1012
 20
-2.0937
 30
0.0
 10
-34.1012
 20
-2.0937
 30
0.0
 10
-34.1685
 20
-2.1643
 30
0.0
 10
-34.2023
 20
-2.256
 30
0.0
 10
-34.2023
 20
-2.3689
 30
0.0
 10
-34.2023
 20
-2.3689
 30
0.0
 10
-34.2023
 20
-2.4884
 30
0.0
 10
-34.1666
 20
-2.5839
 30
0.0
 10
-34.0946
 20
-2.6554
 30
0.0
 10
-34.0946
 20
-2.6554
 30
0.0
 10
-34.0231
 20
-2.7273
 30
0.0
 10
-33.9239
 20
-2.7635
 30
0.0
 10
-33.7974
 20
-2.7645
 30
0.0
 10
-33.7974
 20
-2.7645
 30
0.0
 10
-33.7974
 20
-2.7645
 30
0.0
 10
-33.8232
 20
-3.0194
 30
0.0
 10
-33.8232
 20
-3.0194
 30
0.0
 10
-33.8232
 20
-3.0194
 30
0.0
 10
-34.0137
 20
-3.002
 30
0.0
 10
-34.1586
 20
-2.9362
 30
0.0
 10
-34.2583
 20
-2.8223
 30
0.0
 10
-34.2583
 20
-2.8223
 30
0.0
 10
-34.358
 20
-2.7085
 30
0.0
 10
-34.4079
 20
-2.5552
 30
0.0
 10
-34.4079
 20
-2.3633
 30
0.0
 10
-34.4079
 20
-2.3633
 30
0.0
 10
-34.4079
 20
-2.1695
 30
0.0
 10
-34.3538
 20
-2.0161
 30
0.0
 10
-34.2466
 20
-1.9032
 30
0.0
 10
-34.2466
 20
-1.9032
 30
0.0
 10
-34.1388
 20
-1.7899
 30
0.0
 10
-34.0057
 20
-1.7334
 30
0.0
 10
-33.8467
 20
-1.7334
 30
0.0
 10
-33.8467
 20
-1.7334
 30
0.0
 10
-33.7658
 20
-1.7334
 30
0.0
 10
-33.6863
 20
-1.7499
 30
0.0
 10
-33.6083
 20
-1.7833
 30
0.0
 10
-33.6083
 20
-1.7833
 30
0.0
 10
-33.5302
 20
-1.8162
 30
0.0
 10
-33.4479
 20
-1.8713
 30
0.0
 10
-33.3618
 20
-1.9479
 30
0.0
 10
-33.3618
 20
-1.9479
 30
0.0
 10
-33.2752
 20
-2.0246
 30
0.0
 10
-33.1567
 20
-2.1521
 30
0.0
 10
-33.0062
 20
-2.3303
 30
0.0
 10
-33.0062
 20
-2.3303
 30
0.0
 10
-32.8811
 20
-2.479
 30
0.0
 10
-32.7964
 20
-2.5745
 30
0.0
 10
-32.7517
 20
-2.6168
 30
0.0
 10
-32.7517
 20
-2.6168
 30
0.0
 10
-32.7075
 20
-2.6591
 30
0.0
 10
-32.6628
 20
-2.6939
 30
0.0
 10
-32.6177
 20
-2.7217
 30
0.0
 10
-32.6177
 20
-2.7217
 30
0.0
 10
-32.6177
 20
-2.7217
 30
0.0
 10
-32.6177
 20
-1.7306
 30
0.0
 10
-32.6177
 20
-1.7306
 30
0.0
  0
SPLINE
  5
90
330
1F
100
AcDbEntity
  8
VRSTVA_1
 62
   250
100
AcDbSpline
210
0.0
220
0.0
230
1.0
 70
    11
 71
     3
 72
    20
 73
    16
 74
     0
 42
0.0000000001
 43
0.0000000001
 40
0.0
 40
0.0
 40
0.0
 40
0.0
 40
0.2
 40
0.2
 40
0.2
 40
0.2
 40
0.4
 40
0.4
 40
0.4
 40
0.4
 40
0.6
 40
0.6
 40
0.6
 40
0.6
 40
1.0
 40
1.0
 40
1.0
 40
1.0
 10
-31.9996
 20
13.3413
 30
0.0
 10
-31.9996
 20
13.3413
 30
0.0
 10
-31.6467
 20
15.8413
 30
0.0
 10
-31.6467
 20
15.8413
 30
0.0
 10
-31.6467
 20
15.8413
 30
0.0
 10
-31.6467
 20
15.8413
 30
0.0
 10
-31.5684
 20
15.8413
 30
0.0
 10
-31.5684
 20
15.8413
 30
0.0
 10
-31.5684
 20
15.8413
 30
0.0
 10
-31.5684
 20
15.8413
 30
0.0
 10
-31.1921
 20
13.3413
 30
0.0
 10
-31.1921
 20
13.3413
 30
0.0
 10
-31.1921
 20
13.3413
 30
0.0
 10
-31.1921
 20
13.3413
 30
0.0
 10
-31.9996
 20
13.3413
 30
0.0
 10
-31.9996
 20
13.3413
 30
0.0
  0
SPLINE
  5
91
330
1F
100
AcDbEntity
  8
VRSTVA_1
 62
   250
100
AcDbSpline
210
0.0
220
0.0
230
1.0
 70
    11
 71
     3
 72
    20
 73
    16
 74
     0
 42
0.0000000001
 43
0.0000000001
 40
0.0
 40
0.0
 40
0.0
 40
0.0
 40
0.2
 40
0.2
 40
0.2
 40
0.2
 40
0.4
 40
0.4
 40
0.4
 40
0.4
 40
0.6
 40
0.6
 40
0.6
 40
0.6
 40
1.0
 40
1.0
 40
1.0
 40
1.0
 10
-31.22
 20
-22.2178
 30
0.0
 10
-31.22
 20
-22.2178
 30
0.0
 10
-31.5729
 20
-24.7178
 30
0.0
 10
-31.5729
 20
-24.7178
 30
0.0
 10
-31.5729
 20
-24.7178
 30
0.0
 10
-31.5729
 20
-24.7178
 30
0.0
 10
-31.6512
 20
-24.7178
 30
0.0
 10
-31.6512
 20
-24.7178
 30
0.0
 10
-31.6512
 20
-24.7178
 30
0.0
 10
-31.6512
 20
-24.7178
 30
0.0
 10
-32.0275
 20
-22.2178
 30
0.0
 10
-32.0275
 20
-22.2178
 30
0.0
 10
-32.0275
 20
-22.2178
 30
0.0
 10
-32.0275
 20
-22.2178
 30
0.0
 10
-31.22
 20
-22.2178
 30
0.0
 10
-31.22
 20
-22.2178
 30
0.0
  0
SPLINE
  5
92
330
1F
100
AcDbEntity
  8
VRSTVA_1
 62
   250
100
AcDbSpline
210
0.0
220
0.0
230
1.0
 70
    24
 71
     3
 72
     8
 73
     4
 74
     0
 42
0.0000000001
 43
0.0000000001
 40
0.0
 40
0.0
 40
0.0
 40
0.0
 40
1.0
 40
1.0
 40
1.0
 40
1.0
 10
28.2645
 20
16.1969
 30
0.0
 10
28.2645
 20
16.1969
 30
0.0
 10
28.2645
 20
22.9066
 30
0.0
 10
28.2645
 20
22.9066
 30
0.0
  0
SPLINE
  5
93
330
1F
100
AcDbEntity
  8
VRSTVA_1
 62
   250
100
AcDbSpline
210
0.0
220
0.0
230
1.0
 70
    24
 71
     3
 72
     8
 73
     4
 74
     0
 42
0.0000000001
 43
0.0000000001
 40
0.0
 40
0.0
 40
0.0
 40
0.0
 40
1.0
 40
1.0
 40
1.0
 40
1.0
 10
30.3794
 20
16.1363
 30
0.0
 10
30.3794
 20
16.1363
 30
0.0
 10
30.3794
 20
23.0659
 30
0.0
 10
30.3794
 20
23.0659
 30
0.0
  0
SPLINE
  5
94
330
1F
100
AcDbEntity
  8
VRSTVA_1
 62
   250
100
AcDbSpline
210
0.0
220
0.0
230
1.0
 70
    24
 71
     3
 72
     8
 73
     4
 74
     0
 42
0.0000000001
 43
0.0000000001
 40
0.0
 40
0.0
 40
0.0
 40
0.0
 40
1.0
 40
1.0
 40
1.0
 40
1.0
 10
34.4079
 20
22.043
 30
0.0
 10
34.4079
 20
22.043
 30
0.0
 10
24.7799
 20
22.043
 30
0.0
 10
24.7799
 20
22.043
 30
0.0
  0
SPLINE
  5
95
330
1F
100
AcDbEntity
  8
VRSTVA_1
 62
   250
100
AcDbSpline
210
0.0
220
0.0
230
1.0
 70
    11
 71
     3
 72
    92
 73
    88
 74
     0
 42
0.0000000001
 43
0.0000000001
 40
0.0
 40
0.0
 40
0.0
 40
0.0
 40
0.0434782608695652
 40
0.0434782608695652
 40
0.0434782608695652
 40
0.0434782608695652
 40
0.0869565217391304
 40
0.0869565217391304
 40
0.0869565217391304
 40
0.0869565217391304
 40
0.1304347826086956
 40
0.1304347826086956
 40
0.1304347826086956
 40
0.1304347826086956
 40
0.1739130434782609
 40
0.1739130434782609
 40
0.1739130434782609
 40
0.1739130434782609
 40
0.2173913043478261
 40
0.2173913043478261
 40
0.2173913043478261
 40
0.2173913043478261
 40
0.2608695652173913
 40
0.2608695652173913
 40
0.2608695652173913
 40
0.2608695652173913
 40
0.3043478260869565
 40
0.3043478260869565
 40
0.3043478260869565
 40
0.3043478260869565
 40
0.3478260869565217
 40
0.3478260869565217
 40
0.3478260869565217
 40
0.3478260869565217
 40
0.391304347826087
 40
0.391304347826087
 40
0.391304347826087
 40
0.391304347826087
 40
0.4347826086956522
 40
0.4347826086956522
 40
0.4347826086956522
 40
0.4347826086956522
 40
0.4782608695652174
 40
0.4782608695652174
 40
0.4782608695652174
 40
0.4782608695652174
 40
0.5217391304347826
 40
0.5217391304347826
 40
0.5217391304347826
 40
0.5217391304347826
 40
0.5652173913043478
 40
0.5652173913043478
 40
0.5652173913043478
 40
0.5652173913043478
 40
0.6086956521739131
 40
0.6086956521739131
 40
0.6086956521739131
 40
0.6086956521739131
 40
0.6521739130434783
 40
0.6521739130434783
 40
0.6521739130434783
 40
0.6521739130434783
 40
0.6956521739130435
 40
0.6956521739130435
 40
0.6956521739130435
 40
0.6956521739130435
 40
0.7391304347826086
 40
0.7391304347826086
 40
0.7391304347826086
 40
0.7391304347826086
 40
0.782608695652174
 40
0.782608695652174
 40
0.782608695652174
 40
0.782608695652174
 40
0.8260869565217391
 40
0.8260869565217391
 40
0.8260869565217391
 40
0.8260869565217391
 40
0.8695652173913043
 40
0.8695652173913043
 40
0.8695652173913043
 40
0.8695652173913043
 40
0.9130434782608695
 40
0.9130434782608695
 40
0.9130434782608695
 40
0.9130434782608695
 40
1.0
 40
1.0
 40
1.0
 40
1.0
 10
28.7741
 20
23.3069
 30
0.0
 10
28.7741
 20
23.3069
 30
0.0
 10
29.0347
 20
23.329
 30
0.0
 10
29.0347
 20
23.329
 30
0.0
 10
29.0347
 20
23.329
 30
0.0
 10
29.054
 20
23.202
 30
0.0
 10
29.0987
 20
23.107
 30
0.0
 10
29.1688
 20
23.043
 30
0.0
 10
29.1688
 20
23.043
 30
0.0
 10
29.2393
 20
22.979
 30
0.0
 10
29.324
 20
22.947
 30
0.0
 10
29.4232
 20
22.947
 30
0.0
 10
29.4232
 20
22.947
 30
0.0
 10
29.5427
 20
22.947
 30
0.0
 10
29.6438
 20
22.9922
 30
0.0
 10
29.7261
 20
23.082
 30
0.0
 10
29.7261
 20
23.082
 30
0.0
 10
29.8089
 20
23.1723
 30
0.0
 10
29.8503
 20
23.2918
 30
0.0
 10
29.8503
 20
23.4404
 30
0.0
 10
29.8503
 20
23.4404
 30
0.0
 10
29.8503
 20
23.582
 30
0.0
 10
29.8108
 20
23.6935
 30
0.0
 10
29.7313
 20
23.7753
 30
0.0
 10
29.7313
 20
23.7753
 30
0.0
 10
29.6518
 20
23.8572
 30
0.0
 10
29.5479
 20
23.8981
 30
0.0
 10
29.419
 20
23.8981
 30
0.0
 10
29.419
 20
23.8981
 30
0.0
 10
29.339
 20
23.8981
 30
0.0
 10
29.2671
 20
23.8798
 30
0.0
 10
29.2026
 20
23.8436
 30
0.0
 10
29.2026
 20
23.8436
 30
0.0
 10
29.1382
 20
23.8073
 30
0.0
 10
29.0879
 20
23.7603
 30
0.0
 10
29.0512
 20
23.7024
 30
0.0
 10
29.0512
 20
23.7024
 30
0.0
 10
29.0512
 20
23.7024
 30
0.0
 10
28.8183
 20
23.7325
 30
0.0
 10
28.8183
 20
23.7325
 30
0.0
 10
28.8183
 20
23.7325
 30
0.0
 10
28.8183
 20
23.7325
 30
0.0
 10
29.014
 20
24.7702
 30
0.0
 10
29.014
 20
24.7702
 30
0.0
 10
29.014
 20
24.7702
 30
0.0
 10
29.014
 20
24.7702
 30
0.0
 10
30.0187
 20
24.7702
 30
0.0
 10
30.0187
 20
24.7702
 30
0.0
 10
30.0187
 20
24.7702
 30
0.0
 10
30.0187
 20
24.7702
 30
0.0
 10
30.0187
 20
24.5331
 30
0.0
 10
30.0187
 20
24.5331
 30
0.0
 10
30.0187
 20
24.5331
 30
0.0
 10
30.0187
 20
24.5331
 30
0.0
 10
29.2125
 20
24.5331
 30
0.0
 10
29.2125
 20
24.5331
 30
0.0
 10
29.2125
 20
24.5331
 30
0.0
 10
29.2125
 20
24.5331
 30
0.0
 10
29.1034
 20
23.9903
 30
0.0
 10
29.1034
 20
23.9903
 30
0.0
 10
29.1034
 20
23.9903
 30
0.0
 10
29.2247
 20
24.075
 30
0.0
 10
29.3522
 20
24.1173
 30
0.0
 10
29.4853
 20
24.1173
 30
0.0
 10
29.4853
 20
24.1173
 30
0.0
 10
29.6617
 20
24.1173
 30
0.0
 10
29.8103
 20
24.0562
 30
0.0
 10
29.9317
 20
23.9339
 30
0.0
 10
29.9317
 20
23.9339
 30
0.0
 10
30.053
 20
23.8116
 30
0.0
 10
30.1137
 20
23.6545
 30
0.0
 10
30.1137
 20
23.4626
 30
0.0
 10
30.1137
 20
23.4626
 30
0.0
 10
30.1137
 20
23.2796
 30
0.0
 10
30.0601
 20
23.1215
 30
0.0
 10
29.9538
 20
22.9884
 30
0.0
 10
29.9538
 20
22.9884
 30
0.0
 10
29.824
 20
22.8252
 30
0.0
 10
29.6471
 20
22.7434
 30
0.0
 10
29.4232
 20
22.7434
 30
0.0
 10
29.4232
 20
22.7434
 30
0.0
 10
29.2393
 20
22.7434
 30
0.0
 10
29.0893
 20
22.7946
 30
0.0
 10
28.9731
 20
22.8976
 30
0.0
 10
28.9731
 20
22.8976
 30
0.0
 10
28.8569
 20
23.0007
 30
0.0
 10
28.7906
 20
23.1371
 30
0.0
 10
28.7741
 20
23.3069
 30
0.0
  0
SPLINE
  5
96
330
1F
100
AcDbEntity
  8
VRSTVA_1
 62
   250
100
AcDbSpline
210
0.0
220
0.0
230
1.0
 70
    11
 71
     3
 72
    20
 73
    16
 74
     0
 42
0.0000000001
 43
0.0000000001
 40
0.0
 40
0.0
 40
0.0
 40
0.0
 40
0.2
 40
0.2
 40
0.2
 40
0.2
 40
0.4
 40
0.4
 40
0.4
 40
0.4
 40
0.6
 40
0.6
 40
0.6
 40
0.6
 40
1.0
 40
1.0
 40
1.0
 40
1.0
 10
25.7712
 20
22.423
 30
0.0
 10
25.7712
 20
22.423
 30
0.0
 10
28.2712
 20
22.0701
 30
0.0
 10
28.2712
 20
22.0701
 30
0.0
 10
28.2712
 20
22.0701
 30
0.0
 10
28.2712
 20
22.0701
 30
0.0
 10
28.2712
 20
21.9918
 30
0.0
 10
28.2712
 20
21.9918
 30
0.0
 10
28.2712
 20
21.9918
 30
0.0
 10
28.2712
 20
21.9918
 30
0.0
 10
25.7712
 20
21.6155
 30
0.0
 10
25.7712
 20
21.6155
 30
0.0
 10
25.7712
 20
21.6155
 30
0.0
 10
25.7712
 20
21.6155
 30
0.0
 10
25.7712
 20
22.423
 30
0.0
 10
25.7712
 20
22.423
 30
0.0
  0
SPLINE
  5
97
330
1F
100
AcDbEntity
  8
VRSTVA_1
 62
   250
100
AcDbSpline
210
0.0
220
0.0
230
1.0
 70
    11
 71
     3
 72
    20
 73
    16
 74
     0
 42
0.0000000001
 43
0.0000000001
 40
0.0
 40
0.0
 40
0.0
 40
0.0
 40
0.2
 40
0.2
 40
0.2
 40
0.2
 40
0.4
 40
0.4
 40
0.4
 40
0.4
 40
0.6
 40
0.6
 40
0.6
 40
0.6
 40
1.0
 40
1.0
 40
1.0
 40
1.0
 10
32.9817
 20
21.6434
 30
0.0
 10
32.9817
 20
21.6434
 30
0.0
 10
30.4817
 20
21.9963
 30
0.0
 10
30.4817
 20
21.9963
 30
0.0
 10
30.4817
 20
21.9963
 30
0.0
 10
30.4817
 20
21.9963
 30
0.0
 10
30.4817
 20
22.0746
 30
0.0
 10
30.4817
 20
22.0746
 30
0.0
 10
30.4817
 20
22.0746
 30
0.0
 10
30.4817
 20
22.0746
 30
0.0
 10
32.9817
 20
22.4509
 30
0.0
 10
32.9817
 20
22.4509
 30
0.0
 10
32.9817
 20
22.4509
 30
0.0
 10
32.9817
 20
22.4509
 30
0.0
 10
32.9817
 20
21.6434
 30
0.0
 10
32.9817
 20
21.6434
 30
0.0
  0
ENDSEC
  0
SECTION
  2
OBJECTS
  0
DICTIONARY
  5
C
330
0
100
AcDbDictionary
  3
ACAD_GROUP
350
D
  3
ACAD_LAYOUT
350
1A
  3
ACAD_MATERIAL
350
3B
  3
ACAD_MLEADERSTYLE
350
BA
  3
ACAD_MLINESTYLE
350
17
  3
ACAD_PLOTSETTINGS
350
19
  3
ACAD_VISUALSTYLE
350
2A
  3
ACDBHEADERROUNDTRIPXREC
350
98
  3
ACDBVARIABLEDICTIONARY
350
B8
  0
DICTIONARY
  5
D
102
{ACAD_REACTORS
330
C
102
}
330
C
100
AcDbDictionary
  0
DICTIONARY
  5
1A
102
{ACAD_REACTORS
330
C
102
}
330
C
100
AcDbDictionary
  0
DICTIONARY
  5
3B
102
{ACAD_REACTORS
330
C
102
}
330
C
100
AcDbDictionary
  3
BYBLOCK
350
3D
  3
BYLAYER
350
3C
  3
GLOBAL
350
3E
  0
DICTIONARY
  5
BA
102
{ACAD_REACTORS
330
C
102
}
330
C
100
AcDbDictionary
  0
DICTIONARY
  5
17
102
{ACAD_REACTORS
330
C
102
}
330
C
100
AcDbDictionary
  3
STANDARD
350
18
  0
DICTIONARY
  5
19
102
{ACAD_REACTORS
330
C
102
}
330
C
100
AcDbDictionary
  0
DICTIONARY
  5
2A
102
{ACAD_REACTORS
330
C
102
}
330
C
100
AcDbDictionary
  3
2DWIREFRAME
350
2F
  3
3D_HIDDEN
350
31
  3
3DWIREFRAME
350
30
  3
BASIC
350
32
  3
BRIGHTEN
350
36
  3
COLORCHANGE
350
3A
  3
CONCEPTUAL
350
34
  3
DIM
350
35
  3
FACEPATTERN
350
39
  3
FLAT
350
2B
  3
FLATWITHEDGES
350
2C
  3
GOURAUD
350
2D
  3
GOURAUDWITHEDGES
350
2E
  3
LINEPATTERN
350
38
  3
REALISTIC
350
33
  3
THICKEN
350
37
  0
DICTIONARY
  5
98
102
{ACAD_REACTORS
330
C
102
}
330
C
100
AcDbDictionary
  3
CEPSNTYPE
350
A1
  3
DIMSTYLEDATA
350
B7
  3
FINGERPRINTGUID
350
A2
  3
HYPERLINKBASE
350
9B
  3
INSUNITS
350
A0
  3
LAYOUTDICT
350
9D
  3
LWETCUNION
350
9F
  3
PLOTSETDICT
350
9E
  3
PSVPSCALE
350
A4
  3
PUCSBASE
350
A7
  3
PUCSORGBACK
350
AD
  3
PUCSORGBOTTOM
350
A9
  3
PUCSORGFRONT
350
AC
  3
PUCSORGLEFT
350
AA
  3
PUCSORGRIGHT
350
AB
  3
PUCSORGTOP
350
A8
  3
PUCSORTHOREF
350
A5
  3
PUCSORTHOVIEW
350
A6
  3
STYLESHEET
350
9C
  3
TSTACKALIGN
350
99
  3
TSTACKSIZE
350
9A
  3
UCSBASE
350
B0
  3
UCSORGBACK
350
B6
  3
UCSORGBOTTOM
350
B2
  3
UCSORGFRONT
350
B5
  3
UCSORGLEFT
350
B3
  3
UCSORGRIGHT
350
B4
  3
UCSORGTOP
350
B1
  3
UCSORTHOREF
350
AE
  3
UCSORTHOVIEW
350
AF
  3
VERSIONGUID
350
A3
  0
DICTIONARY
  5
B8
102
{ACAD_REACTORS
330
C
102
}
330
C
100
AcDbDictionary
  3
DIMASSOC
350
BB
  3
HIDETEXT
350
BC
  0
MATERIAL
  5
3D
102
{ACAD_REACTORS
330
3B
102
}
102
{ACAD_XDICTIONARY
360
BF
102
}
330
3B
100
AcDbMaterial
  1
ByBlock
  0
MATERIAL
  5
3C
102
{ACAD_REACTORS
330
3B
102
}
102
{ACAD_XDICTIONARY
360
BD
102
}
330
3B
100
AcDbMaterial
  1
ByLayer
  0
MATERIAL
  5
3E
102
{ACAD_REACTORS
330
3B
102
}
102
{ACAD_XDICTIONARY
360
C1
102
}
330
3B
100
AcDbMaterial
  1
Global
  0
MLINESTYLE
  5
18
102
{ACAD_REACTORS
330
17
102
}
330
17
100
AcDbMlineStyle
  2
Standard
 70
     0
  3

 62
   256
 51
90.0
 52
90.0
 71
     2
 49
0.5
 62
   256
  6
BYLAYER
 49
-0.5
 62
   256
  6
BYLAYER
  0
ACAD_PROXY_OBJECT
  5
2F
102
{ACAD_REACTORS
330
2A
102
}
330
2A
100
AcDbProxyObject
 90
      499
 91
      501
 93
      436
310
42CC9915DA5C99599C985B595049028333333333333E3BF0000000000000FB0107901411070040501600405405064090741402480A0340
1001
ACAD
1000
AcDbSavedByObjectVersion
1070
     0
  0
ACAD_PROXY_OBJECT
  5
31
102
{ACAD_REACTORS
330
2A
102
}
330
2A
100
AcDbProxyObject
 90
      499
 91
      501
 93
      500
310
424CD108121A5919195B90640502408333333333333E3BF0000000000000FB01079024090700405020000000000001110200405405064090740C02480A0340
1001
ACAD
1000
AcDbSavedByObjectVersion
1070
     0
  0
ACAD_PROXY_OBJECT
  5
30
102
{ACAD_REACTORS
330
2A
102
}
330
2A
100
AcDbProxyObject
 90
      499
 91
      501
 93
      436
310
42CCD915DA5C99599C985B595059028333333333333E3BF0000000000000FB0107901411070040501600405405064090741402480A0340
1001
ACAD
1000
AcDbSavedByObjectVersion
1070
     0
  0
ACAD_PROXY_OBJECT
  5
32
102
{ACAD_REACTORS
330
2A
102
}
330
2A
100
AcDbProxyObject
 90
      499
 91
      501
 93
      388
310
4150985CDA58D07406404333333333333E3BF0000000000000FB0107A41107004050150841D405064090741402480A0350
1001
ACAD
1000
AcDbSavedByObjectVersion
1070
     0
  0
ACAD_PROXY_OBJECT
  5
36
102
{ACAD_REACTORS
330
2A
102
}
330
2A
100
AcDbProxyObject
 90
      499
 91
      501
 93
      428
310
42109C9A59DA1D195B90C409028333333333333E3BF0000000000000FB010790141107004050150841D405064090741402480A029950
1001
ACAD
1000
AcDbSavedByObjectVersion
1070
     0
  0
ACAD_PROXY_OBJECT
  5
3A
102
{ACAD_REACTORS
330
2A
102
}
330
2A
100
AcDbProxyObject
 90
      499
 91
      501
 93
      452
310
42D0DBDB1BDC90DA185B99D95104090240C333333333333E3BF0000000000000FB0108901411070040501508421405064090741402480A0350
1001
ACAD
1000
AcDbSavedByObjectVersion
1070
     0
  0
ACAD_PROXY_OBJECT
  5
34
102
{ACAD_REACTORS
330
2A
102
}
330
2A
100
AcDbProxyObject
 90
      499
 91
      501
 93
      500
310
4290DBDB98D95C1D1D585B10940D028333333333333E3BF0000000000000FB0107902409070040501000000000000111010841D405064090740C02480A0340
1001
ACAD
1000
AcDbSavedByObjectVersion
1070
     0
  0
ACAD_PROXY_OBJECT
  5
35
102
{ACAD_REACTORS
330
2A
102
}
330
2A
100
AcDbProxyObject
 90
      499
 91
      501
 93
      412
310
40D11A5B50B409028333333333333E3BF0000000000000FB010790141107004050150841D405064090741402480A02677FFFFFD0
1001
ACAD
1000
AcDbSavedByObjectVersion
1070
     0
  0
ACAD_PROXY_OBJECT
  5
39
102
{ACAD_REACTORS
330
2A
102
}
330
2A
100
AcDbProxyObject
 90
      499
 91
      501
 93
      444
310
42D19858D95C185D1D195C9B90F409028333333333333E3BF0000000000000FB010790141107004050150841D405064090741402480A0350
1001
ACAD
1000
AcDbSavedByObjectVersion
1070
     0
  0
ACAD_PROXY_OBJECT
  5
2B
102
{ACAD_REACTORS
330
2A
102
}
330
2A
100
AcDbProxyObject
 90
      499
 91
      501
 93
      388
310
41119B185D240901404333333333333E3BF0000000000000F9010740A41107004050150841D405064090741402480A1B50
1001
ACAD
1000
AcDbSavedByObjectVersion
1070
     0
  0
ACAD_PROXY_OBJECT
  5
2C
102
{ACAD_REACTORS
330
2A
102
}
330
2A
100
AcDbProxyObject
 90
      499
 91
      501
 93
      476
310
43519B185D15DA5D1A115919D95CD0140901404333333333333E3BF0000000000000F9010740901411070040501600405405064090741402480A1B50
1001
ACAD
1000
AcDbSavedByObjectVersion
1070
     0
  0
ACAD_PROXY_OBJECT
  5
2D
102
{ACAD_REACTORS
330
2A
102
}
330
2A
100
AcDbProxyObject
 90
      499
 91
      501
 93
      412
310
41D1DBDD5C985D5910240902404333333333333E3BF0000000000000F9010740A411070040501641D405064090741402480A1B50
1001
ACAD
1000
AcDbSavedByObjectVersion
1070
     0
  0
ACAD_PROXY_OBJECT
  5
2E
102
{ACAD_REACTORS
330
2A
102
}
330
2A
100
AcDbProxyObject
 90
      499
 91
      501
 93
      500
310
4411DBDD5C985D5915DA5D1A115919D95CD0340902404333333333333E3BF0000000000000F9010740901411070040501600405405064090741402480A1B50
1001
ACAD
1000
AcDbSavedByObjectVersion
1070
     0
  0
ACAD_PROXY_OBJECT
  5
38
102
{ACAD_REACTORS
330
2A
102
}
330
2A
100
AcDbProxyObject
 90
      499
 91
      501
 93
      444
310
42D31A5B995C185D1D195C9B90E409028333333333333E3BF0000000000000FB010790141107004050750841D405064090741402483A0350
1001
ACAD
1000
AcDbSavedByObjectVersion
1070
     0
  0
ACAD_PROXY_OBJECT
  5
33
102
{ACAD_REACTORS
330
2A
102
}
330
2A
100
AcDbProxyObject
 90
      499
 91
      501
 93
      420
310
425499585B1A5CDD1A58D08409028333333333333E3BF0000000000000FB01079019070040501508421405064090741402480A1B40
1001
ACAD
1000
AcDbSavedByObjectVersion
1070
     0
  0
ACAD_PROXY_OBJECT
  5
37
102
{ACAD_REACTORS
330
2A
102
}
330
2A
100
AcDbProxyObject
 90
      499
 91
      501
 93
      412
310
41D51A1A58DAD95B90D409028333333333333E3BF0000000000000FB010790141107004050150C41D405064090741402480A0350
1001
ACAD
1000
AcDbSavedByObjectVersion
1070
     0
  0
XRECORD
  5
A1
102
{ACAD_REACTORS
330
98
102
}
330
98
100
AcDbXrecord
 90
        0
  0
XRECORD
  5
B7
102
{ACAD_REACTORS
330
98
102
}
330
98
100
AcDbXrecord
1000
DSTYLE
1002
{
1070
   340
340
11
1002
}
  0
XRECORD
  5
A2
102
{ACAD_REACTORS
330
98
102
}
330
98
100
AcDbXrecord
  1
{64866395-C650-49E7-AB1C-114145A97BE0}
  0
XRECORD
  5
9B
102
{ACAD_REACTORS
330
98
102
}
330
98
100
AcDbXrecord
  1

  0
XRECORD
  5
A0
102
{ACAD_REACTORS
330
98
102
}
330
98
100
AcDbXrecord
 90
        4
  0
XRECORD
  5
9D
102
{ACAD_REACTORS
330
98
102
}
330
98
100
AcDbXrecord
340
1A
  0
XRECORD
  5
9F
102
{ACAD_REACTORS
330
98
102
}
330
98
100
AcDbXrecord
 90
    10781
  0
XRECORD
  5
9E
102
{ACAD_REACTORS
330
98
102
}
330
98
100
AcDbXrecord
340
19
  0
XRECORD
  5
A4
102
{ACAD_REACTORS
330
98
102
}
330
98
100
AcDbXrecord
 40
0.0
  0
XRECORD
  5
A7
102
{ACAD_REACTORS
330
98
102
}
330
98
100
AcDbXrecord
340
0
  0
XRECORD
  5
AD
102
{ACAD_REACTORS
330
98
102
}
330
98
100
AcDbXrecord
 10
0.0
 20
0.0
 30
0.0
  0
XRECORD
  5
A9
102
{ACAD_REACTORS
330
98
102
}
330
98
100
AcDbXrecord
 10
0.0
 20
0.0
 30
0.0
  0
XRECORD
  5
AC
102
{ACAD_REACTORS
330
98
102
}
330
98
100
AcDbXrecord
 10
0.0
 20
0.0
 30
0.0
  0
XRECORD
  5
AA
102
{ACAD_REACTORS
330
98
102
}
330
98
100
AcDbXrecord
 10
0.0
 20
0.0
 30
0.0
  0
XRECORD
  5
AB
102
{ACAD_REACTORS
330
98
102
}
330
98
100
AcDbXrecord
 10
0.0
 20
0.0
 30
0.0
  0
XRECORD
  5
A8
102
{ACAD_REACTORS
330
98
102
}
330
98
100
AcDbXrecord
 10
0.0
 20
0.0
 30
0.0
  0
XRECORD
  5
A5
102
{ACAD_REACTORS
330
98
102
}
330
98
100
AcDbXrecord
340
0
  0
XRECORD
  5
A6
102
{ACAD_REACTORS
330
98
102
}
330
98
100
AcDbXrecord
 70
     0
  0
XRECORD
  5
9C
102
{ACAD_REACTORS
330
98
102
}
330
98
100
AcDbXrecord
  1

  0
XRECORD
  5
99
102
{ACAD_REACTORS
330
98
102
}
330
98
100
AcDbXrecord
 90
        1
  0
XRECORD
  5
9A
102
{ACAD_REACTORS
330
98
102
}
330
98
100
AcDbXrecord
 90
       70
  0
XRECORD
  5
B0
102
{ACAD_REACTORS
330
98
102
}
330
98
100
AcDbXrecord
340
0
  0
XRECORD
  5
B6
102
{ACAD_REACTORS
330
98
102
}
330
98
100
AcDbXrecord
 10
0.0
 20
0.0
 30
0.0
  0
XRECORD
  5
B2
102
{ACAD_REACTORS
330
98
102
}
330
98
100
AcDbXrecord
 10
0.0
 20
0.0
 30
0.0
  0
XRECORD
  5
B5
102
{ACAD_REACTORS
330
98
102
}
330
98
100
AcDbXrecord
 10
0.0
 20
0.0
 30
0.0
  0
XRECORD
  5
B3
102
{ACAD_REACTORS
330
98
102
}
330
98
100
AcDbXrecord
 10
0.0
 20
0.0
 30
0.0
  0
XRECORD
  5
B4
102
{ACAD_REACTORS
330
98
102
}
330
98
100
AcDbXrecord
 10
0.0
 20
0.0
 30
0.0
  0
XRECORD
  5
B1
102
{ACAD_REACTORS
330
98
102
}
330
98
100
AcDbXrecord
 10
0.0
 20
0.0
 30
0.0
  0
XRECORD
  5
AE
102
{ACAD_REACTORS
330
98
102
}
330
98
100
AcDbXrecord
340
0
  0
XRECORD
  5
AF
102
{ACAD_REACTORS
330
98
102
}
330
98
100
AcDbXrecord
 70
     0
  0
XRECORD
  5
A3
102
{ACAD_REACTORS
330
98
102
}
330
98
100
AcDbXrecord
  1
{FAEB1C32-E019-11D5-929B-00C0DF256EC4}
  0
DICTIONARYVAR
  5
BB
102
{ACAD_REACTORS
330
B8
102
}
330
B8
100
DictionaryVariables
280
     0
  1
2
  0
DICTIONARYVAR
  5
BC
102
{ACAD_REACTORS
330
B8
102
}
330
B8
100
DictionaryVariables
280
     0
  1
1
  0
DICTIONARY
  5
BF
330
3D
100
AcDbDictionary
280
     1
  3
ACAD_XREC_ROUNDTRIP
360
C0
  0
DICTIONARY
  5
BD
330
3C
100
AcDbDictionary
280
     1
  3
ACAD_XREC_ROUNDTRIP
360
BE
  0
DICTIONARY
  5
C1
330
3E
100
AcDbDictionary
280
     1
  3
ACAD_XREC_ROUNDTRIP
360
C2
  0
XRECORD
  5
C0
102
{ACAD_REACTORS
330
BF
102
}
330
BF
100
AcDbXrecord
102
MATERIAL
148
0.0
149
0.0
149
0.0
 93
        0
 94
      127
282
     0
 72
     1
 77
     1
171
     1
175
     1
179
     1
273
     0
  0
XRECORD
  5
BE
102
{ACAD_REACTORS
330
BD
102
}
330
BD
100
AcDbXrecord
102
MATERIAL
148
0.0
149
0.0
149
0.0
 93
        0
 94
      127
282
     0
 72
     1
 77
     1
171
     1
175
     1
179
     1
273
     0
  0
XRECORD
  5
C2
102
{ACAD_REACTORS
330
C1
102
}
330
C1
100
AcDbXrecord
102
MATERIAL
148
0.0
149
0.0
149
0.0
 93
        0
 94
      127
282
     0
 72
     1
 77
     1
171
     1
175
     1
179
     1
273
     0
  0
ENDSEC
  0
EOF
