  0
SECTION
  2
HEADER
  9
$ACADVER
  1
AC1015
  9
$ACADMAINTVER
 70
     6
  9
$DWGCODEPAGE
  3
ANSI_1250
  9
$INSBASE
 10
0.0
 20
0.0
 30
0.0
  9
$EXTMIN
 10
-34.0696
 20
-24.8115
 30
0.0
  9
$EXTMAX
 10
34.0695
 20
24.8116
 30
0.0
  9
$LIMMIN
 10
0.0
 20
0.0
  9
$LIMMAX
 10
12.0
 20
9.0
  9
$ORTHOMODE
 70
     0
  9
$REGENMODE
 70
     1
  9
$FILLMODE
 70
     1
  9
$QTEXTMODE
 70
     0
  9
$MIRRTEXT
 70
     1
  9
$LTSCALE
 40
1.0
  9
$ATTMODE
 70
     1
  9
$TEXTSIZE
 40
0.2
  9
$TRACEWID
 40
0.05
  9
$TEXTSTYLE
  7
Standard
  9
$CLAYER
  8
0
  9
$CELTYPE
  6
ByLayer
  9
$CECOLOR
 62
   256
  9
$CELTSCALE
 40
1.0
  9
$DISPSILH
 70
     0
  9
$DIMSCALE
 40
1.0
  9
$DIMASZ
 40
0.18
  9
$DIMEXO
 40
0.0625
  9
$DIMDLI
 40
0.38
  9
$DIMRND
 40
0.0
  9
$DIMDLE
 40
0.0
  9
$DIMEXE
 40
0.18
  9
$DIMTP
 40
0.0
  9
$DIMTM
 40
0.0
  9
$DIMTXT
 40
0.18
  9
$DIMCEN
 40
0.09
  9
$DIMTSZ
 40
0.0
  9
$DIMTOL
 70
     0
  9
$DIMLIM
 70
     0
  9
$DIMTIH
 70
     1
  9
$DIMTOH
 70
     1
  9
$DIMSE1
 70
     0
  9
$DIMSE2
 70
     0
  9
$DIMTAD
 70
     0
  9
$DIMZIN
 70
     0
  9
$DIMBLK
  1

  9
$DIMASO
 70
     1
  9
$DIMSHO
 70
     1
  9
$DIMPOST
  1

  9
$DIMAPOST
  1

  9
$DIMALT
 70
     0
  9
$DIMALTD
 70
     2
  9
$DIMALTF
 40
25.4
  9
$DIMLFAC
 40
1.0
  9
$DIMTOFL
 70
     0
  9
$DIMTVP
 40
0.0
  9
$DIMTIX
 70
     0
  9
$DIMSOXD
 70
     0
  9
$DIMSAH
 70
     0
  9
$DIMBLK1
  1

  9
$DIMBLK2
  1

  9
$DIMSTYLE
  2
Standard
  9
$DIMCLRD
 70
     0
  9
$DIMCLRE
 70
     0
  9
$DIMCLRT
 70
     0
  9
$DIMTFAC
 40
1.0
  9
$DIMGAP
 40
0.09
  9
$DIMJUST
 70
     0
  9
$DIMSD1
 70
     0
  9
$DIMSD2
 70
     0
  9
$DIMTOLJ
 70
     1
  9
$DIMTZIN
 70
     0
  9
$DIMALTZ
 70
     0
  9
$DIMALTTZ
 70
     0
  9
$DIMUPT
 70
     0
  9
$DIMDEC
 70
     4
  9
$DIMTDEC
 70
     4
  9
$DIMALTU
 70
     2
  9
$DIMALTTD
 70
     2
  9
$DIMTXSTY
  7
Standard
  9
$DIMAUNIT
 70
     0
  9
$DIMADEC
 70
     0
  9
$DIMALTRND
 40
0.0
  9
$DIMAZIN
 70
     0
  9
$DIMDSEP
 70
    46
  9
$DIMATFIT
 70
     3
  9
$DIMFRAC
 70
     0
  9
$DIMLDRBLK
  1

  9
$DIMLUNIT
 70
     2
  9
$DIMLWD
 70
    -2
  9
$DIMLWE
 70
    -2
  9
$DIMTMOVE
 70
     0
  9
$LUNITS
 70
     2
  9
$LUPREC
 70
     4
  9
$SKETCHINC
 40
0.1
  9
$FILLETRAD
 40
0.5
  9
$AUNITS
 70
     0
  9
$AUPREC
 70
     0
  9
$MENU
  1
.
  9
$ELEVATION
 40
0.0
  9
$PELEVATION
 40
0.0
  9
$THICKNESS
 40
0.0
  9
$LIMCHECK
 70
     0
  9
$CHAMFERA
 40
0.5
  9
$CHAMFERB
 40
0.5
  9
$CHAMFERC
 40
1.0
  9
$CHAMFERD
 40
0.0
  9
$SKPOLY
 70
     0
  9
$TDCREATE
 40
2458786.386259317
  9
$TDUCREATE
 40
2458786.34459265
  9
$TDUPDATE
 40
2458786.386259329
  9
$TDUUPDATE
 40
2458786.344592662
  9
$TDINDWG
 40
0.0000000116
  9
$TDUSRTIMER
 40
0.0000000116
  9
$USRTIMER
 70
     1
  9
$ANGBASE
 50
0.0
  9
$ANGDIR
 70
     0
  9
$PDMODE
 70
     0
  9
$PDSIZE
 40
0.0
  9
$PLINEWID
 40
0.0
  9
$SPLFRAME
 70
     0
  9
$SPLINETYPE
 70
     6
  9
$SPLINESEGS
 70
     8
  9
$HANDSEED
  5
DC
  9
$SURFTAB1
 70
     6
  9
$SURFTAB2
 70
     6
  9
$SURFTYPE
 70
     6
  9
$SURFU
 70
     6
  9
$SURFV
 70
     6
  9
$UCSBASE
  2

  9
$UCSNAME
  2

  9
$UCSORG
 10
0.0
 20
0.0
 30
0.0
  9
$UCSXDIR
 10
1.0
 20
0.0
 30
0.0
  9
$UCSYDIR
 10
0.0
 20
1.0
 30
0.0
  9
$UCSORTHOREF
  2

  9
$UCSORTHOVIEW
 70
     0
  9
$UCSORGTOP
 10
0.0
 20
0.0
 30
0.0
  9
$UCSORGBOTTOM
 10
0.0
 20
0.0
 30
0.0
  9
$UCSORGLEFT
 10
0.0
 20
0.0
 30
0.0
  9
$UCSORGRIGHT
 10
0.0
 20
0.0
 30
0.0
  9
$UCSORGFRONT
 10
0.0
 20
0.0
 30
0.0
  9
$UCSORGBACK
 10
0.0
 20
0.0
 30
0.0
  9
$PUCSBASE
  2

  9
$PUCSNAME
  2

  9
$PUCSORG
 10
0.0
 20
0.0
 30
0.0
  9
$PUCSXDIR
 10
1.0
 20
0.0
 30
0.0
  9
$PUCSYDIR
 10
0.0
 20
1.0
 30
0.0
  9
$PUCSORTHOREF
  2

  9
$PUCSORTHOVIEW
 70
     0
  9
$PUCSORGTOP
 10
0.0
 20
0.0
 30
0.0
  9
$PUCSORGBOTTOM
 10
0.0
 20
0.0
 30
0.0
  9
$PUCSORGLEFT
 10
0.0
 20
0.0
 30
0.0
  9
$PUCSORGRIGHT
 10
0.0
 20
0.0
 30
0.0
  9
$PUCSORGFRONT
 10
0.0
 20
0.0
 30
0.0
  9
$PUCSORGBACK
 10
0.0
 20
0.0
 30
0.0
  9
$USERI1
 70
     0
  9
$USERI2
 70
     0
  9
$USERI3
 70
     0
  9
$USERI4
 70
     0
  9
$USERI5
 70
     0
  9
$USERR1
 40
0.0
  9
$USERR2
 40
0.0
  9
$USERR3
 40
0.0
  9
$USERR4
 40
0.0
  9
$USERR5
 40
0.0
  9
$WORLDVIEW
 70
     1
  9
$SHADEDGE
 70
     3
  9
$SHADEDIF
 70
    70
  9
$TILEMODE
 70
     1
  9
$MAXACTVP
 70
    64
  9
$PINSBASE
 10
0.0
 20
0.0
 30
0.0
  9
$PLIMCHECK
 70
     0
  9
$PEXTMIN
 10
1.000000000000000E+20
 20
1.000000000000000E+20
 30
1.000000000000000E+20
  9
$PEXTMAX
 10
-1.000000000000000E+20
 20
-1.000000000000000E+20
 30
-1.000000000000000E+20
  9
$PLIMMIN
 10
0.0
 20
0.0
  9
$PLIMMAX
 10
12.0
 20
9.0
  9
$UNITMODE
 70
     0
  9
$VISRETAIN
 70
     1
  9
$PLINEGEN
 70
     0
  9
$PSLTSCALE
 70
     1
  9
$TREEDEPTH
 70
  3020
  9
$CMLSTYLE
  2
Standard
  9
$CMLJUST
 70
     0
  9
$CMLSCALE
 40
1.0
  9
$PROXYGRAPHICS
 70
     1
  9
$MEASUREMENT
 70
     0
  9
$CELWEIGHT
370
    -1
  9
$ENDCAPS
280
     0
  9
$JOINSTYLE
280
     0
  9
$LWDISPLAY
290
     0
  9
$INSUNITS
 70
     4
  9
$HYPERLINKBASE
  1

  9
$STYLESHEET
  1

  9
$XEDIT
290
     1
  9
$CEPSNTYPE
380
     0
  9
$PSTYLEMODE
290
     1
  9
$FINGERPRINTGUID
  2
{A47E7ACF-6B46-404E-A573-300188ECDBD1}
  9
$VERSIONGUID
  2
{FAEB1C32-E019-11D5-929B-00C0DF256EC4}
  9
$EXTNAMES
290
     1
  9
$PSVPSCALE
 40
0.0
  9
$OLESTARTUP
290
     0
  0
ENDSEC
  0
SECTION
  2
CLASSES
  0
CLASS
  1
ACDBDICTIONARYWDFLT
  2
AcDbDictionaryWithDefault
  3
ObjectDBX Classes
 90
        0
280
     0
281
     0
  0
CLASS
  1
VISUALSTYLE
  2
AcDbVisualStyle
  3
ObjectDBX Classes
 90
     4095
280
     0
281
     0
  0
CLASS
  1
MATERIAL
  2
AcDbMaterial
  3
ObjectDBX Classes
 90
     1153
280
     0
281
     0
  0
CLASS
  1
DICTIONARYVAR
  2
AcDbDictionaryVar
  3
ObjectDBX Classes
 90
        0
280
     0
281
     0
  0
CLASS
  1
ACDBPLACEHOLDER
  2
AcDbPlaceHolder
  3
ObjectDBX Classes
 90
        0
280
     0
281
     0
  0
CLASS
  1
LAYOUT
  2
AcDbLayout
  3
ObjectDBX Classes
 90
        0
280
     0
281
     0
  0
ENDSEC
  0
SECTION
  2
TABLES
  0
TABLE
  2
VPORT
  5
8
330
0
100
AcDbSymbolTable
 70
     1
  0
VPORT
  5
29
330
8
100
AcDbSymbolTableRecord
100
AcDbViewportTableRecord
  2
*Active
 70
     0
 10
0.0
 20
0.0
 11
1.0
 21
1.0
 12
10.42990654205607
 22
4.5
 13
0.0
 23
0.0
 14
0.5
 24
0.5
 15
0.5
 25
0.5
 16
0.0
 26
0.0
 36
1.0
 17
0.0
 27
0.0
 37
0.0
 40
9.0
 41
1.972972972850329
 42
50.0
 43
0.0
 44
0.0
 50
0.0
 51
0.0
 71
     0
 72
   100
 73
     1
 74
     3
 75
     0
 76
     0
 77
     0
 78
     0
281
     0
 65
     1
110
0.0
120
0.0
130
0.0
111
1.0
121
0.0
131
0.0
112
0.0
122
1.0
132
0.0
 79
     0
146
0.0
  0
ENDTAB
  0
TABLE
  2
LTYPE
  5
5
330
0
100
AcDbSymbolTable
 70
     4
  0
LTYPE
  5
14
330
5
100
AcDbSymbolTableRecord
100
AcDbLinetypeTableRecord
  2
ByBlock
 70
     0
  3

 72
    65
 73
     0
 40
0.0
  0
LTYPE
  5
15
330
5
100
AcDbSymbolTableRecord
100
AcDbLinetypeTableRecord
  2
ByLayer
 70
     0
  3

 72
    65
 73
     0
 40
0.0
  0
LTYPE
  5
16
330
5
100
AcDbSymbolTableRecord
100
AcDbLinetypeTableRecord
  2
Continuous
 70
     0
  3
Solid line
 72
    65
 73
     0
 40
0.0
  0
LTYPE
  5
76
330
5
100
AcDbSymbolTableRecord
100
AcDbLinetypeTableRecord
  2
New Line1
 70
     0
  3

 72
    65
 73
     4
 40
1.2
 49
0.5
 74
     4
 75
     0
340
0
 46
1.0
 50
0.0
 44
0.0
 45
0.0
 49
-0.3
 74
     4
 75
     0
340
0
 46
1.0
 50
0.0
 44
0.0
 45
0.0
 49
0.1
 74
     4
 75
     0
340
0
 46
1.0
 50
0.0
 44
0.0
 45
0.0
 49
-0.3
 74
     4
 75
     0
340
0
 46
1.0
 50
0.0
 44
0.0
 45
0.0
  0
LTYPE
  5
9C
330
5
100
AcDbSymbolTableRecord
100
AcDbLinetypeTableRecord
  2
New Line2
 70
     0
  3

 72
    65
 73
     4
 40
1.2
 49
0.5
 74
     4
 75
     0
340
0
 46
1.0
 50
0.0
 44
0.0
 45
0.0
 49
-0.3
 74
     4
 75
     0
340
0
 46
1.0
 50
0.0
 44
0.0
 45
0.0
 49
0.1
 74
     4
 75
     0
340
0
 46
1.0
 50
0.0
 44
0.0
 45
0.0
 49
-0.3
 74
     4
 75
     0
340
0
 46
1.0
 50
0.0
 44
0.0
 45
0.0
  0
LTYPE
  5
9E
330
5
100
AcDbSymbolTableRecord
100
AcDbLinetypeTableRecord
  2
New Line3
 70
     0
  3

 72
    65
 73
     4
 40
1.2
 49
0.5
 74
     4
 75
     0
340
0
 46
1.0
 50
0.0
 44
0.0
 45
0.0
 49
-0.3
 74
     4
 75
     0
340
0
 46
1.0
 50
0.0
 44
0.0
 45
0.0
 49
0.1
 74
     4
 75
     0
340
0
 46
1.0
 50
0.0
 44
0.0
 45
0.0
 49
-0.3
 74
     4
 75
     0
340
0
 46
1.0
 50
0.0
 44
0.0
 45
0.0
  0
ENDTAB
  0
TABLE
  2
LAYER
  5
2
330
0
100
AcDbSymbolTable
 70
     2
  0
LAYER
  5
10
330
2
100
AcDbSymbolTableRecord
100
AcDbLayerTableRecord
  2
0
 70
     0
 62
     7
  6
Continuous
370
    -3
390
F
  0
LAYER
  5
40
330
2
100
AcDbSymbolTableRecord
100
AcDbLayerTableRecord
  2
ROUND
 70
     0
 62
     7
  6
Continuous
370
    -3
390
F
  0
ENDTAB
  0
TABLE
  2
STYLE
  5
3
330
0
100
AcDbSymbolTable
 70
     1
  0
STYLE
  5
11
330
3
100
AcDbSymbolTableRecord
100
AcDbTextStyleTableRecord
  2
Standard
 70
     0
 40
0.0
 41
1.0
 50
0.0
 71
     0
 42
0.2
  3
txt
  4

  0
ENDTAB
  0
TABLE
  2
VIEW
  5
6
330
0
100
AcDbSymbolTable
 70
     0
  0
ENDTAB
  0
TABLE
  2
UCS
  5
7
330
0
100
AcDbSymbolTable
 70
     0
  0
ENDTAB
  0
TABLE
  2
APPID
  5
9
330
0
100
AcDbSymbolTable
 70
     2
  0
APPID
  5
12
330
9
100
AcDbSymbolTableRecord
100
AcDbRegAppTableRecord
  2
ACAD
 70
     0
  0
APPID
  5
3F
330
9
100
AcDbSymbolTableRecord
100
AcDbRegAppTableRecord
  2
ODA
 70
     0
  0
ENDTAB
  0
TABLE
  2
DIMSTYLE
  5
A
330
0
100
AcDbSymbolTable
 70
     1
100
AcDbDimStyleTable
  0
DIMSTYLE
105
27
330
A
100
AcDbSymbolTableRecord
100
AcDbDimStyleTableRecord
  2
Standard
 70
     0
340
11
  0
ENDTAB
  0
TABLE
  2
BLOCK_RECORD
  5
1
330
0
100
AcDbSymbolTable
 70
     1
  0
BLOCK_RECORD
  5
1F
330
1
100
AcDbSymbolTableRecord
100
AcDbBlockTableRecord
  2
*Model_Space
340
22
  0
BLOCK_RECORD
  5
1B
330
1
100
AcDbSymbolTableRecord
100
AcDbBlockTableRecord
  2
*Paper_Space
340
1E
  0
BLOCK_RECORD
  5
23
330
1
100
AcDbSymbolTableRecord
100
AcDbBlockTableRecord
  2
*Paper_Space0
340
26
  0
ENDTAB
  0
ENDSEC
  0
SECTION
  2
BLOCKS
  0
BLOCK
  5
20
330
1F
100
AcDbEntity
  8
0
100
AcDbBlockBegin
  2
*Model_Space
 70
     0
 10
0.0
 20
0.0
 30
0.0
  3
*Model_Space
  1

  0
ENDBLK
  5
21
330
1F
100
AcDbEntity
  8
0
100
AcDbBlockEnd
  0
BLOCK
  5
1C
330
1B
100
AcDbEntity
 67
     1
  8
0
100
AcDbBlockBegin
  2
*Paper_Space
 70
     0
 10
0.0
 20
0.0
 30
0.0
  3
*Paper_Space
  1

  0
ENDBLK
  5
1D
330
1B
100
AcDbEntity
 67
     1
  8
0
100
AcDbBlockEnd
  0
BLOCK
  5
24
330
23
100
AcDbEntity
  8
0
100
AcDbBlockBegin
  2
*Paper_Space0
 70
     0
 10
0.0
 20
0.0
 30
0.0
  3
*Paper_Space0
  1

  0
ENDBLK
  5
25
330
23
100
AcDbEntity
  8
0
100
AcDbBlockEnd
  0
ENDSEC
  0
SECTION
  2
ENTITIES
  0
SPLINE
  5
41
330
1F
100
AcDbEntity
  8
ROUND
 62
     9
100
AcDbSpline
210
0.0
220
0.0
230
1.0
 70
    11
 71
     3
 72
   216
 73
   212
 74
     0
 42
0.0000000001
 43
0.0000000001
 40
0.0
 40
0.0
 40
0.0
 40
0.0
 40
0.0185185185185185
 40
0.0185185185185185
 40
0.0185185185185185
 40
0.0185185185185185
 40
0.037037037037037
 40
0.037037037037037
 40
0.037037037037037
 40
0.037037037037037
 40
0.0555555555555556
 40
0.0555555555555556
 40
0.0555555555555556
 40
0.0555555555555556
 40
0.0740740740740741
 40
0.0740740740740741
 40
0.0740740740740741
 40
0.0740740740740741
 40
0.0925925925925926
 40
0.0925925925925926
 40
0.0925925925925926
 40
0.0925925925925926
 40
0.1111111111111111
 40
0.1111111111111111
 40
0.1111111111111111
 40
0.1111111111111111
 40
0.1296296296296296
 40
0.1296296296296296
 40
0.1296296296296296
 40
0.1296296296296296
 40
0.1481481481481481
 40
0.1481481481481481
 40
0.1481481481481481
 40
0.1481481481481481
 40
0.1666666666666667
 40
0.1666666666666667
 40
0.1666666666666667
 40
0.1666666666666667
 40
0.1851851851851852
 40
0.1851851851851852
 40
0.1851851851851852
 40
0.1851851851851852
 40
0.2037037037037037
 40
0.2037037037037037
 40
0.2037037037037037
 40
0.2037037037037037
 40
0.2222222222222222
 40
0.2222222222222222
 40
0.2222222222222222
 40
0.2222222222222222
 40
0.2407407407407407
 40
0.2407407407407407
 40
0.2407407407407407
 40
0.2407407407407407
 40
0.2592592592592592
 40
0.2592592592592592
 40
0.2592592592592592
 40
0.2592592592592592
 40
0.2777777777777778
 40
0.2777777777777778
 40
0.2777777777777778
 40
0.2777777777777778
 40
0.2962962962962963
 40
0.2962962962962963
 40
0.2962962962962963
 40
0.2962962962962963
 40
0.3148148148148148
 40
0.3148148148148148
 40
0.3148148148148148
 40
0.3148148148148148
 40
0.3333333333333333
 40
0.3333333333333333
 40
0.3333333333333333
 40
0.3333333333333333
 40
0.3518518518518519
 40
0.3518518518518519
 40
0.3518518518518519
 40
0.3518518518518519
 40
0.3703703703703703
 40
0.3703703703703703
 40
0.3703703703703703
 40
0.3703703703703703
 40
0.3888888888888889
 40
0.3888888888888889
 40
0.3888888888888889
 40
0.3888888888888889
 40
0.4074074074074074
 40
0.4074074074074074
 40
0.4074074074074074
 40
0.4074074074074074
 40
0.4259259259259259
 40
0.4259259259259259
 40
0.4259259259259259
 40
0.4259259259259259
 40
0.4444444444444444
 40
0.4444444444444444
 40
0.4444444444444444
 40
0.4444444444444444
 40
0.462962962962963
 40
0.462962962962963
 40
0.462962962962963
 40
0.462962962962963
 40
0.4814814814814815
 40
0.4814814814814815
 40
0.4814814814814815
 40
0.4814814814814815
 40
0.5
 40
0.5
 40
0.5
 40
0.5
 40
0.5185185185185185
 40
0.5185185185185185
 40
0.5185185185185185
 40
0.5185185185185185
 40
0.5370370370370371
 40
0.5370370370370371
 40
0.5370370370370371
 40
0.5370370370370371
 40
0.5555555555555556
 40
0.5555555555555556
 40
0.5555555555555556
 40
0.5555555555555556
 40
0.5740740740740741
 40
0.5740740740740741
 40
0.5740740740740741
 40
0.5740740740740741
 40
0.5925925925925926
 40
0.5925925925925926
 40
0.5925925925925926
 40
0.5925925925925926
 40
0.6111111111111112
 40
0.6111111111111112
 40
0.6111111111111112
 40
0.6111111111111112
 40
0.6296296296296297
 40
0.6296296296296297
 40
0.6296296296296297
 40
0.6296296296296297
 40
0.6481481481481481
 40
0.6481481481481481
 40
0.6481481481481481
 40
0.6481481481481481
 40
0.6666666666666666
 40
0.6666666666666666
 40
0.6666666666666666
 40
0.6666666666666666
 40
0.6851851851851852
 40
0.6851851851851852
 40
0.6851851851851852
 40
0.6851851851851852
 40
0.7037037037037037
 40
0.7037037037037037
 40
0.7037037037037037
 40
0.7037037037037037
 40
0.7222222222222222
 40
0.7222222222222222
 40
0.7222222222222222
 40
0.7222222222222222
 40
0.7407407407407407
 40
0.7407407407407407
 40
0.7407407407407407
 40
0.7407407407407407
 40
0.7592592592592593
 40
0.7592592592592593
 40
0.7592592592592593
 40
0.7592592592592593
 40
0.7777777777777778
 40
0.7777777777777778
 40
0.7777777777777778
 40
0.7777777777777778
 40
0.7962962962962963
 40
0.7962962962962963
 40
0.7962962962962963
 40
0.7962962962962963
 40
0.8148148148148148
 40
0.8148148148148148
 40
0.8148148148148148
 40
0.8148148148148148
 40
0.8333333333333334
 40
0.8333333333333334
 40
0.8333333333333334
 40
0.8333333333333334
 40
0.8518518518518519
 40
0.8518518518518519
 40
0.8518518518518519
 40
0.8518518518518519
 40
0.8703703703703703
 40
0.8703703703703703
 40
0.8703703703703703
 40
0.8703703703703703
 40
0.8888888888888888
 40
0.8888888888888888
 40
0.8888888888888888
 40
0.8888888888888888
 40
0.9074074074074074
 40
0.9074074074074074
 40
0.9074074074074074
 40
0.9074074074074074
 40
0.9259259259259259
 40
0.9259259259259259
 40
0.9259259259259259
 40
0.9259259259259259
 40
0.9444444444444444
 40
0.9444444444444444
 40
0.9444444444444444
 40
0.9444444444444444
 40
0.9629629629629629
 40
0.9629629629629629
 40
0.9629629629629629
 40
0.9629629629629629
 40
1.0
 40
1.0
 40
1.0
 40
1.0
 10
-21.534
 20
2.0231
 30
0.0
 10
-21.534
 20
2.0231
 30
0.0
 10
-12.1632
 20
2.0396
 30
0.0
 10
-12.1632
 20
2.0396
 30
0.0
 10
-12.1632
 20
2.0396
 30
0.0
 10
-12.1632
 20
2.0396
 30
0.0
 10
-11.5294
 20
2.1775
 30
0.0
 10
-11.5294
 20
2.1775
 30
0.0
 10
-11.5294
 20
2.1775
 30
0.0
 10
-11.5294
 20
2.1775
 30
0.0
 10
-11.2813
 20
2.6461
 30
0.0
 10
-11.2813
 20
2.6461
 30
0.0
 10
-11.2813
 20
2.6461
 30
0.0
 10
-11.2813
 20
2.6461
 30
0.0
 10
-11.1931
 20
3.0319
 30
0.0
 10
-11.1931
 20
3.0319
 30
0.0
 10
-11.1931
 20
3.0319
 30
0.0
 10
-11.1931
 20
3.0319
 30
0.0
 10
-11.1983
 20
4.9503
 30
0.0
 10
-11.1983
 20
4.9503
 30
0.0
 10
-11.1983
 20
4.9503
 30
0.0
 10
-11.1983
 20
4.9503
 30
0.0
 10
-12.3943
 20
5.4684
 30
0.0
 10
-12.3943
 20
5.4684
 30
0.0
 10
-12.3943
 20
5.4684
 30
0.0
 10
-12.3943
 20
5.4684
 30
0.0
 10
-12.3939
 20
11.4159
 30
0.0
 10
-12.3939
 20
11.4159
 30
0.0
 10
-12.3939
 20
11.4159
 30
0.0
 10
-12.3939
 20
11.4159
 30
0.0
 10
-11.2474
 20
12.1106
 30
0.0
 10
-11.2474
 20
12.1106
 30
0.0
 10
-11.2474
 20
12.1106
 30
0.0
 10
-11.2474
 20
12.1106
 30
0.0
 10
-3.6403
 20
12.105
 30
0.0
 10
-3.6403
 20
12.105
 30
0.0
 10
-3.6403
 20
12.105
 30
0.0
 10
-3.6403
 20
12.105
 30
0.0
 10
-2.3339
 20
11.4435
 30
0.0
 10
-2.3339
 20
11.4435
 30
0.0
 10
-2.3339
 20
11.4435
 30
0.0
 10
-2.3339
 20
11.4435
 30
0.0
 10
-2.3501
 20
5.6499
 30
0.0
 10
-2.3501
 20
5.6499
 30
0.0
 10
-2.3501
 20
5.6499
 30
0.0
 10
-2.3501
 20
5.6499
 30
0.0
 10
-3.6069
 20
4.9333
 30
0.0
 10
-3.6069
 20
4.9333
 30
0.0
 10
-3.6069
 20
4.9333
 30
0.0
 10
-3.6069
 20
4.9333
 30
0.0
 10
-3.6012
 20
2.9764
 30
0.0
 10
-3.6012
 20
2.9764
 30
0.0
 10
-3.6012
 20
2.9764
 30
0.0
 10
-3.6012
 20
2.9764
 30
0.0
 10
-3.4689
 20
2.6071
 30
0.0
 10
-3.4689
 20
2.6071
 30
0.0
 10
-3.4689
 20
2.6071
 30
0.0
 10
-3.4689
 20
2.6071
 30
0.0
 10
-3.3863
 20
2.3701
 30
0.0
 10
-3.3863
 20
2.3701
 30
0.0
 10
-3.3863
 20
2.3701
 30
0.0
 10
-3.3863
 20
2.3701
 30
0.0
 10
-3.2209
 20
2.1716
 30
0.0
 10
-3.2209
 20
2.1716
 30
0.0
 10
-3.2209
 20
2.1716
 30
0.0
 10
-3.2209
 20
2.1716
 30
0.0
 10
-2.8185
 20
2.0779
 30
0.0
 10
-2.8185
 20
2.0779
 30
0.0
 10
-2.8185
 20
2.0779
 30
0.0
 10
-2.8185
 20
2.0779
 30
0.0
 10
11.2822
 20
2.0994
 30
0.0
 10
11.2822
 20
2.0994
 30
0.0
 10
11.2822
 20
2.0994
 30
0.0
 10
11.2822
 20
2.0994
 30
0.0
 10
11.4365
 20
2.7719
 30
0.0
 10
11.4365
 20
2.7719
 30
0.0
 10
11.4365
 20
2.7719
 30
0.0
 10
11.4365
 20
2.7719
 30
0.0
 10
11.6129
 20
3.5215
 30
0.0
 10
11.6129
 20
3.5215
 30
0.0
 10
11.6129
 20
3.5215
 30
0.0
 10
11.6129
 20
3.5215
 30
0.0
 10
13.0128
 20
9.0336
 30
0.0
 10
13.0128
 20
9.0336
 30
0.0
 10
13.0128
 20
9.0336
 30
0.0
 10
13.0128
 20
9.0336
 30
0.0
 10
13.1616
 20
9.1659
 30
0.0
 10
13.1616
 20
9.1659
 30
0.0
 10
13.1616
 20
9.1659
 30
0.0
 10
13.1616
 20
9.1659
 30
0.0
 10
13.3711
 20
9.199
 30
0.0
 10
13.3711
 20
9.199
 30
0.0
 10
13.3711
 20
9.199
 30
0.0
 10
13.3711
 20
9.199
 30
0.0
 10
15.1516
 20
9.1769
 30
0.0
 10
15.1516
 20
9.1769
 30
0.0
 10
15.1516
 20
9.1769
 30
0.0
 10
15.1516
 20
9.1769
 30
0.0
 10
15.2503
 20
0.3737
 30
0.0
 10
15.2503
 20
0.3737
 30
0.0
 10
15.2503
 20
0.3737
 30
0.0
 10
15.2503
 20
0.3737
 30
0.0
 10
20.4535
 20
0.3302
 30
0.0
 10
20.4535
 20
0.3302
 30
0.0
 10
20.4535
 20
0.3302
 30
0.0
 10
20.4535
 20
0.3302
 30
0.0
 10
20.4866
 20
-0.3313
 30
0.0
 10
20.4866
 20
-0.3313
 30
0.0
 10
20.4866
 20
-0.3313
 30
0.0
 10
20.4866
 20
-0.3313
 30
0.0
 10
21.8536
 20
-0.3754
 30
0.0
 10
21.8536
 20
-0.3754
 30
0.0
 10
21.8536
 20
-0.3754
 30
0.0
 10
21.8536
 20
-0.3754
 30
0.0
 10
21.892
 20
-8.9245
 30
0.0
 10
21.892
 20
-8.9245
 30
0.0
 10
21.892
 20
-8.9245
 30
0.0
 10
21.892
 20
-8.9245
 30
0.0
 10
20.5029
 20
-8.9576
 30
0.0
 10
20.5029
 20
-8.9576
 30
0.0
 10
20.5029
 20
-8.9576
 30
0.0
 10
20.5029
 20
-8.9576
 30
0.0
 10
20.4809
 20
-9.6742
 30
0.0
 10
20.4809
 20
-9.6742
 30
0.0
 10
20.4809
 20
-9.6742
 30
0.0
 10
20.4809
 20
-9.6742
 30
0.0
 10
15.2219
 20
-9.6797
 30
0.0
 10
15.2219
 20
-9.6797
 30
0.0
 10
15.2219
 20
-9.6797
 30
0.0
 10
15.2219
 20
-9.6797
 30
0.0
 10
15.1557
 20
-18.532
 30
0.0
 10
15.1557
 20
-18.532
 30
0.0
 10
15.1557
 20
-18.532
 30
0.0
 10
15.1557
 20
-18.532
 30
0.0
 10
13.3697
 20
-18.5209
 30
0.0
 10
13.3697
 20
-18.5209
 30
0.0
 10
13.3697
 20
-18.5209
 30
0.0
 10
13.3697
 20
-18.5209
 30
0.0
 10
13.1382
 20
-18.4548
 30
0.0
 10
13.1382
 20
-18.4548
 30
0.0
 10
13.1382
 20
-18.4548
 30
0.0
 10
13.1382
 20
-18.4548
 30
0.0
 10
12.9839
 20
-18.1792
 30
0.0
 10
12.9839
 20
-18.1792
 30
0.0
 10
12.9839
 20
-18.1792
 30
0.0
 10
12.9839
 20
-18.1792
 30
0.0
 10
11.3743
 20
-11.8732
 30
0.0
 10
11.3743
 20
-11.8732
 30
0.0
 10
11.3743
 20
-11.8732
 30
0.0
 10
11.3743
 20
-11.8732
 30
0.0
 10
11.3633
 20
-11.3551
 30
0.0
 10
11.3633
 20
-11.3551
 30
0.0
 10
11.3633
 20
-11.3551
 30
0.0
 10
11.3633
 20
-11.3551
 30
0.0
 10
-26.0319
 20
-11.3548
 30
0.0
 10
-26.0319
 20
-11.3548
 30
0.0
 10
-26.0319
 20
-11.3548
 30
0.0
 10
-26.0319
 20
-11.3548
 30
0.0
 10
-26.3185
 20
-11.2887
 30
0.0
 10
-26.3185
 20
-11.2887
 30
0.0
 10
-26.3185
 20
-11.2887
 30
0.0
 10
-26.3185
 20
-11.2887
 30
0.0
 10
-26.4287
 20
-11.0241
 30
0.0
 10
-26.4287
 20
-11.0241
 30
0.0
 10
-26.4287
 20
-11.0241
 30
0.0
 10
-26.4287
 20
-11.0241
 30
0.0
 10
-26.4398
 20
-10.5721
 30
0.0
 10
-26.4398
 20
-10.5721
 30
0.0
 10
-26.4398
 20
-10.5721
 30
0.0
 10
-26.4398
 20
-10.5721
 30
0.0
 10
-26.3953
 20
1.7756
 30
0.0
 10
-26.3953
 20
1.7756
 30
0.0
 10
-26.3953
 20
1.7756
 30
0.0
 10
-26.3953
 20
1.7756
 30
0.0
 10
-26.3844
 20
1.9879
 30
0.0
 10
-26.3844
 20
1.9879
 30
0.0
 10
-26.3844
 20
1.9879
 30
0.0
 10
-26.3844
 20
1.9879
 30
0.0
 10
-26.263
 20
2.0293
 30
0.0
 10
-26.2355
 20
2.0375
 30
0.0
 10
-26.2355
 20
2.0375
 30
0.0
 10
-26.208
 20
2.0457
 30
0.0
 10
-25.4914
 20
2.054
 30
0.0
 10
-25.4914
 20
2.054
 30
0.0
 10
-25.4914
 20
2.054
 30
0.0
 10
-25.4914
 20
2.054
 30
0.0
 10
-25.4714
 20
14.2683
 30
0.0
 10
-25.4714
 20
14.2683
 30
0.0
 10
-25.4714
 20
14.2683
 30
0.0
 10
-25.4714
 20
14.2683
 30
0.0
 10
-25.3887
 20
14.4006
 30
0.0
 10
-25.3887
 20
14.4006
 30
0.0
 10
-25.3887
 20
14.4006
 30
0.0
 10
-25.3887
 20
14.4006
 30
0.0
 10
-25.273
 20
14.4502
 30
0.0
 10
-25.273
 20
14.4502
 30
0.0
 10
-25.273
 20
14.4502
 30
0.0
 10
-25.273
 20
14.4502
 30
0.0
 10
-21.8774
 20
14.4447
 30
0.0
 10
-21.8774
 20
14.4447
 30
0.0
 10
-21.8774
 20
14.4447
 30
0.0
 10
-21.8774
 20
14.4447
 30
0.0
 10
-21.7341
 20
14.3455
 30
0.0
 10
-21.7341
 20
14.3455
 30
0.0
 10
-21.7341
 20
14.3455
 30
0.0
 10
-21.7341
 20
14.3455
 30
0.0
 10
-21.6845
 20
14.1691
 30
0.0
 10
-21.6845
 20
14.1691
 30
0.0
 10
-21.6845
 20
14.1691
 30
0.0
 10
-21.6845
 20
14.1691
 30
0.0
 10
-21.534
 20
2.0231
 30
0.0
 10
-21.534
 20
2.0231
 30
0.0
  0
SPLINE
  5
42
330
1F
100
AcDbEntity
  8
ROUND
 62
   250
370
    15
100
AcDbSpline
210
0.0
220
0.0
230
1.0
 70
    24
 71
     3
 72
     8
 73
     4
 74
     0
 42
0.0000000001
 43
0.0000000001
 40
0.0
 40
0.0
 40
0.0
 40
0.0
 40
1.0
 40
1.0
 40
1.0
 40
1.0
 10
20.3144
 20
-9.5849
 30
0.0
 10
20.3144
 20
-9.5849
 30
0.0
 10
20.1152
 20
0.3419
 30
0.0
 10
20.1152
 20
0.3419
 30
0.0
  0
SPLINE
  5
43
330
1F
100
AcDbEntity
  8
ROUND
 62
   250
370
    15
100
AcDbSpline
210
0.0
220
0.0
230
1.0
 70
    24
 71
     3
 72
     8
 73
     4
 74
     0
 42
0.0000000001
 43
0.0000000001
 40
0.0
 40
0.0
 40
0.0
 40
0.0
 40
1.0
 40
1.0
 40
1.0
 40
1.0
 10
16.4464
 20
-9.5351
 30
0.0
 10
16.4464
 20
-9.5351
 30
0.0
 10
16.2472
 20
0.3917
 30
0.0
 10
16.2472
 20
0.3917
 30
0.0
  0
SPLINE
  5
44
330
1F
100
AcDbEntity
  8
ROUND
 62
   250
370
    15
100
AcDbSpline
210
0.0
220
0.0
230
1.0
 70
    24
 71
     3
 72
     8
 73
     4
 74
     0
 42
0.0000000001
 43
0.0000000001
 40
0.0
 40
0.0
 40
0.0
 40
0.0
 40
1.0
 40
1.0
 40
1.0
 40
1.0
 10
17.1436
 20
-9.5351
 30
0.0
 10
17.1436
 20
-9.5351
 30
0.0
 10
16.9444
 20
0.3917
 30
0.0
 10
16.9444
 20
0.3917
 30
0.0
  0
SPLINE
  5
45
330
1F
100
AcDbEntity
  8
ROUND
 62
   250
370
    15
100
AcDbSpline
210
0.0
220
0.0
230
1.0
 70
    24
 71
     3
 72
     8
 73
     4
 74
     0
 42
0.0000000001
 43
0.0000000001
 40
0.0
 40
0.0
 40
0.0
 40
0.0
 40
1.0
 40
1.0
 40
1.0
 40
1.0
 10
17.7744
 20
-9.5849
 30
0.0
 10
17.7744
 20
-9.5849
 30
0.0
 10
17.5752
 20
0.3419
 30
0.0
 10
17.5752
 20
0.3419
 30
0.0
  0
SPLINE
  5
46
330
1F
100
AcDbEntity
  8
ROUND
 62
   250
370
    15
100
AcDbSpline
210
0.0
220
0.0
230
1.0
 70
    24
 71
     3
 72
     8
 73
     4
 74
     0
 42
0.0000000001
 43
0.0000000001
 40
0.0
 40
0.0
 40
0.0
 40
0.0
 40
1.0
 40
1.0
 40
1.0
 40
1.0
 10
18.3556
 20
-9.5683
 30
0.0
 10
18.3556
 20
-9.5683
 30
0.0
 10
18.1564
 20
0.3585
 30
0.0
 10
18.1564
 20
0.3585
 30
0.0
  0
SPLINE
  5
47
330
1F
100
AcDbEntity
  8
ROUND
 62
   250
370
    15
100
AcDbSpline
210
0.0
220
0.0
230
1.0
 70
    24
 71
     3
 72
     8
 73
     4
 74
     0
 42
0.0000000001
 43
0.0000000001
 40
0.0
 40
0.0
 40
0.0
 40
0.0
 40
1.0
 40
1.0
 40
1.0
 40
1.0
 10
18.9864
 20
-9.5351
 30
0.0
 10
18.9864
 20
-9.5351
 30
0.0
 10
18.7872
 20
0.3917
 30
0.0
 10
18.7872
 20
0.3917
 30
0.0
  0
SPLINE
  5
48
330
1F
100
AcDbEntity
  8
ROUND
 62
   250
370
    15
100
AcDbSpline
210
0.0
220
0.0
230
1.0
 70
    24
 71
     3
 72
     8
 73
     4
 74
     0
 42
0.0000000001
 43
0.0000000001
 40
0.0
 40
0.0
 40
0.0
 40
0.0
 40
1.0
 40
1.0
 40
1.0
 40
1.0
 10
19.6836
 20
-9.5351
 30
0.0
 10
19.6836
 20
-9.5351
 30
0.0
 10
19.4844
 20
0.3917
 30
0.0
 10
19.4844
 20
0.3917
 30
0.0
  0
SPLINE
  5
49
330
1F
100
AcDbEntity
  8
ROUND
 62
   250
370
    15
100
AcDbSpline
210
0.0
220
0.0
230
1.0
 70
    24
 71
     3
 72
     8
 73
     4
 74
     0
 42
0.0000000001
 43
0.0000000001
 40
0.0
 40
0.0
 40
0.0
 40
0.0
 40
1.0
 40
1.0
 40
1.0
 40
1.0
 10
15.8156
 20
-9.5683
 30
0.0
 10
15.8156
 20
-9.5683
 30
0.0
 10
15.6164
 20
0.3585
 30
0.0
 10
15.6164
 20
0.3585
 30
0.0
  0
SPLINE
  5
4A
330
1F
100
AcDbEntity
  8
ROUND
 62
   250
370
    15
100
AcDbSpline
210
0.0
220
0.0
230
1.0
 70
    24
 71
     3
 72
     8
 73
     4
 74
     0
 42
0.0000000001
 43
0.0000000001
 40
0.0
 40
0.0
 40
0.0
 40
0.0
 40
1.0
 40
1.0
 40
1.0
 40
1.0
 10
-2.299
 20
6.5513
 30
0.0
 10
-2.299
 20
6.5513
 30
0.0
 10
-12.3174
 20
6.1603
 30
0.0
 10
-12.3174
 20
6.1603
 30
0.0
  0
SPLINE
  5
4B
330
1F
100
AcDbEntity
  8
ROUND
 62
   250
370
    15
100
AcDbSpline
210
0.0
220
0.0
230
1.0
 70
    24
 71
     3
 72
     8
 73
     4
 74
     0
 42
0.0000000001
 43
0.0000000001
 40
0.0
 40
0.0
 40
0.0
 40
0.0
 40
1.0
 40
1.0
 40
1.0
 40
1.0
 10
-2.299
 20
10.5011
 30
0.0
 10
-2.299
 20
10.5011
 30
0.0
 10
-12.3174
 20
10.1101
 30
0.0
 10
-12.3174
 20
10.1101
 30
0.0
  0
SPLINE
  5
4C
330
1F
100
AcDbEntity
  8
ROUND
 62
   250
370
    15
100
AcDbSpline
210
0.0
220
0.0
230
1.0
 70
    24
 71
     3
 72
     8
 73
     4
 74
     0
 42
0.0000000001
 43
0.0000000001
 40
0.0
 40
0.0
 40
0.0
 40
0.0
 40
1.0
 40
1.0
 40
1.0
 40
1.0
 10
-2.2989
 20
9.6864
 30
0.0
 10
-2.2989
 20
9.6864
 30
0.0
 10
-12.3174
 20
9.2954
 30
0.0
 10
-12.3174
 20
9.2954
 30
0.0
  0
SPLINE
  5
4D
330
1F
100
AcDbEntity
  8
ROUND
 62
   250
370
    15
100
AcDbSpline
210
0.0
220
0.0
230
1.0
 70
    24
 71
     3
 72
     8
 73
     4
 74
     0
 42
0.0000000001
 43
0.0000000001
 40
0.0
 40
0.0
 40
0.0
 40
0.0
 40
1.0
 40
1.0
 40
1.0
 40
1.0
 10
-2.299
 20
9.0348
 30
0.0
 10
-2.299
 20
9.0348
 30
0.0
 10
-12.3174
 20
8.6437
 30
0.0
 10
-12.3174
 20
8.6437
 30
0.0
  0
SPLINE
  5
4E
330
1F
100
AcDbEntity
  8
ROUND
 62
   250
370
    15
100
AcDbSpline
210
0.0
220
0.0
230
1.0
 70
    24
 71
     3
 72
     8
 73
     4
 74
     0
 42
0.0000000001
 43
0.0000000001
 40
0.0
 40
0.0
 40
0.0
 40
0.0
 40
1.0
 40
1.0
 40
1.0
 40
1.0
 10
-2.2989
 20
8.1807
 30
0.0
 10
-2.2989
 20
8.1807
 30
0.0
 10
-12.3174
 20
7.7897
 30
0.0
 10
-12.3174
 20
7.7897
 30
0.0
  0
SPLINE
  5
4F
330
1F
100
AcDbEntity
  8
ROUND
 62
   250
370
    15
100
AcDbSpline
210
0.0
220
0.0
230
1.0
 70
    24
 71
     3
 72
     8
 73
     4
 74
     0
 42
0.0000000001
 43
0.0000000001
 40
0.0
 40
0.0
 40
0.0
 40
0.0
 40
1.0
 40
1.0
 40
1.0
 40
1.0
 10
-2.299
 20
7.3661
 30
0.0
 10
-2.299
 20
7.3661
 30
0.0
 10
-12.3174
 20
6.9749
 30
0.0
 10
-12.3174
 20
6.9749
 30
0.0
  0
SPLINE
  5
50
330
1F
100
AcDbEntity
  8
ROUND
 62
   250
370
    15
100
AcDbSpline
210
0.0
220
0.0
230
1.0
 70
    24
 71
     3
 72
     8
 73
     4
 74
     0
 42
0.0000000001
 43
0.0000000001
 40
0.0
 40
0.0
 40
0.0
 40
0.0
 40
1.0
 40
1.0
 40
1.0
 40
1.0
 10
-2.299
 20
11.3156
 30
0.0
 10
-2.299
 20
11.3156
 30
0.0
 10
-12.3172
 20
10.9247
 30
0.0
 10
-12.3172
 20
10.9247
 30
0.0
  0
SPLINE
  5
51
330
1F
100
AcDbEntity
  8
ROUND
 62
   250
370
    30
100
AcDbSpline
210
0.0
220
0.0
230
1.0
 70
    11
 71
     3
 72
    52
 73
    48
 74
     0
 42
0.0000000001
 43
0.0000000001
 40
0.0
 40
0.0
 40
0.0
 40
0.0
 40
0.0769230769230769
 40
0.0769230769230769
 40
0.0769230769230769
 40
0.0769230769230769
 40
0.1538461538461539
 40
0.1538461538461539
 40
0.1538461538461539
 40
0.1538461538461539
 40
0.2307692307692308
 40
0.2307692307692308
 40
0.2307692307692308
 40
0.2307692307692308
 40
0.3076923076923077
 40
0.3076923076923077
 40
0.3076923076923077
 40
0.3076923076923077
 40
0.3846153846153846
 40
0.3846153846153846
 40
0.3846153846153846
 40
0.3846153846153846
 40
0.4615384615384616
 40
0.4615384615384616
 40
0.4615384615384616
 40
0.4615384615384616
 40
0.5384615384615384
 40
0.5384615384615384
 40
0.5384615384615384
 40
0.5384615384615384
 40
0.6153846153846154
 40
0.6153846153846154
 40
0.6153846153846154
 40
0.6153846153846154
 40
0.6923076923076923
 40
0.6923076923076923
 40
0.6923076923076923
 40
0.6923076923076923
 40
0.7692307692307693
 40
0.7692307692307693
 40
0.7692307692307693
 40
0.7692307692307693
 40
0.8461538461538461
 40
0.8461538461538461
 40
0.8461538461538461
 40
0.8461538461538461
 40
1.0
 40
1.0
 40
1.0
 40
1.0
 10
11.364
 20
2.232
 30
0.0
 10
11.364
 20
2.232
 30
0.0
 10
11.4317
 20
2.7723
 30
0.0
 10
11.4317
 20
2.7723
 30
0.0
 10
11.4317
 20
2.7723
 30
0.0
 10
11.4317
 20
2.7723
 30
0.0
 10
12.9883
 20
9.0085
 30
0.0
 10
12.9883
 20
9.0085
 30
0.0
 10
12.9883
 20
9.0085
 30
0.0
 10
12.9883
 20
9.0085
 30
0.0
 10
13.1462
 20
9.1886
 30
0.0
 10
13.1462
 20
9.1886
 30
0.0
 10
13.1462
 20
9.1886
 30
0.0
 10
13.1462
 20
9.1886
 30
0.0
 10
13.462
 20
9.2111
 30
0.0
 10
13.462
 20
9.2111
 30
0.0
 10
13.462
 20
9.2111
 30
0.0
 10
13.462
 20
9.2111
 30
0.0
 10
15.1896
 20
9.2286
 30
0.0
 10
15.1896
 20
9.2286
 30
0.0
 10
15.1896
 20
9.2286
 30
0.0
 10
15.1896
 20
9.2286
 30
0.0
 10
15.1896
 20
-18.5234
 30
0.0
 10
15.1896
 20
-18.5234
 30
0.0
 10
15.1896
 20
-18.5234
 30
0.0
 10
15.1896
 20
-18.5234
 30
0.0
 10
13.3267
 20
-18.5252
 30
0.0
 10
13.3267
 20
-18.5252
 30
0.0
 10
13.3267
 20
-18.5252
 30
0.0
 10
13.3267
 20
-18.5252
 30
0.0
 10
13.1236
 20
-18.4577
 30
0.0
 10
13.1236
 20
-18.4577
 30
0.0
 10
13.1236
 20
-18.4577
 30
0.0
 10
13.1236
 20
-18.4577
 30
0.0
 10
13.0108
 20
-18.3226
 30
0.0
 10
13.0108
 20
-18.3226
 30
0.0
 10
13.0108
 20
-18.3226
 30
0.0
 10
13.0108
 20
-18.3226
 30
0.0
 10
11.4091
 20
-11.8388
 30
0.0
 10
11.4091
 20
-11.8388
 30
0.0
 10
11.4091
 20
-11.8388
 30
0.0
 10
11.4091
 20
-11.8388
 30
0.0
 10
11.3866
 20
-11.411
 30
0.0
 10
11.3866
 20
-11.411
 30
0.0
 10
11.3866
 20
-11.411
 30
0.0
 10
11.3866
 20
-11.411
 30
0.0
 10
11.364
 20
2.232
 30
0.0
 10
11.364
 20
2.232
 30
0.0
  0
SPLINE
  5
52
330
1F
100
AcDbEntity
  8
ROUND
 62
   250
370
    30
100
AcDbSpline
210
0.0
220
0.0
230
1.0
 70
    27
 71
     3
 72
    20
 73
    16
 74
     0
 42
0.0000000001
 43
0.0000000001
 40
0.0
 40
0.0
 40
0.0
 40
0.0
 40
0.2
 40
0.2
 40
0.2
 40
0.2
 40
0.4
 40
0.4
 40
0.4
 40
0.4
 40
0.6
 40
0.6
 40
0.6
 40
0.6
 40
1.0
 40
1.0
 40
1.0
 40
1.0
 10
11.3616
 20
1.715
 30
0.0
 10
11.3616
 20
1.715
 30
0.0
 10
7.6312
 20
1.715
 30
0.0
 10
7.6312
 20
1.715
 30
0.0
 10
7.6312
 20
1.715
 30
0.0
 10
7.6312
 20
1.715
 30
0.0
 10
7.6295
 20
1.715
 30
0.0
 10
7.6295
 20
1.715
 30
0.0
 10
7.6295
 20
1.715
 30
0.0
 10
7.6295
 20
1.715
 30
0.0
 10
7.6312
 20
1.715
 30
0.0
 10
7.6312
 20
1.715
 30
0.0
 10
7.6312
 20
1.715
 30
0.0
 10
7.6312
 20
1.715
 30
0.0
 10
11.3616
 20
1.715
 30
0.0
 10
11.3616
 20
1.715
 30
0.0
  0
SPLINE
  5
53
330
1F
100
AcDbEntity
  8
ROUND
 62
   250
370
    30
100
AcDbSpline
210
0.0
220
0.0
230
1.0
 70
    27
 71
     3
 72
    20
 73
    16
 74
     0
 42
0.0000000001
 43
0.0000000001
 40
0.0
 40
0.0
 40
0.0
 40
0.0
 40
0.2
 40
0.2
 40
0.2
 40
0.2
 40
0.4
 40
0.4
 40
0.4
 40
0.4
 40
0.6
 40
0.6
 40
0.6
 40
0.6
 40
1.0
 40
1.0
 40
1.0
 40
1.0
 10
11.3616
 20
-2.5514
 30
0.0
 10
11.3616
 20
-2.5514
 30
0.0
 10
7.6307
 20
-2.5514
 30
0.0
 10
7.6307
 20
-2.5514
 30
0.0
 10
7.6307
 20
-2.5514
 30
0.0
 10
7.6307
 20
-2.5514
 30
0.0
 10
7.6295
 20
-2.5514
 30
0.0
 10
7.6295
 20
-2.5514
 30
0.0
 10
7.6295
 20
-2.5514
 30
0.0
 10
7.6295
 20
-2.5514
 30
0.0
 10
7.6307
 20
-2.5514
 30
0.0
 10
7.6307
 20
-2.5514
 30
0.0
 10
7.6307
 20
-2.5514
 30
0.0
 10
7.6307
 20
-2.5514
 30
0.0
 10
11.3616
 20
-2.5514
 30
0.0
 10
11.3616
 20
-2.5514
 30
0.0
  0
SPLINE
  5
54
330
1F
100
AcDbEntity
  8
ROUND
 62
   250
370
    30
100
AcDbSpline
210
0.0
220
0.0
230
1.0
 70
     8
 71
     3
 72
    24
 73
    20
 74
     0
 42
0.0000000001
 43
0.0000000001
 40
0.0
 40
0.0
 40
0.0
 40
0.0
 40
0.1666666666666667
 40
0.1666666666666667
 40
0.1666666666666667
 40
0.1666666666666667
 40
0.3333333333333333
 40
0.3333333333333333
 40
0.3333333333333333
 40
0.3333333333333333
 40
0.5
 40
0.5
 40
0.5
 40
0.5
 40
0.6666666666666666
 40
0.6666666666666666
 40
0.6666666666666666
 40
0.6666666666666666
 40
1.0
 40
1.0
 40
1.0
 40
1.0
 10
11.3617
 20
-11.3462
 30
0.0
 10
11.3617
 20
-11.3462
 30
0.0
 10
7.6296
 20
-11.3462
 30
0.0
 10
7.6296
 20
-11.3462
 30
0.0
 10
7.6296
 20
-11.3462
 30
0.0
 10
7.6296
 20
-11.3462
 30
0.0
 10
7.6307
 20
-2.5514
 30
0.0
 10
7.6307
 20
-2.5514
 30
0.0
 10
7.6307
 20
-2.5514
 30
0.0
 10
7.6307
 20
-2.5514
 30
0.0
 10
7.6312
 20
1.715
 30
0.0
 10
7.6312
 20
1.715
 30
0.0
 10
7.6312
 20
1.715
 30
0.0
 10
7.6312
 20
1.715
 30
0.0
 10
7.6312
 20
2.0648
 30
0.0
 10
7.6312
 20
2.0648
 30
0.0
 10
7.6312
 20
2.0648
 30
0.0
 10
7.6312
 20
2.0648
 30
0.0
 10
11.4427
 20
2.088
 30
0.0
 10
11.4427
 20
2.088
 30
0.0
  0
SPLINE
  5
55
330
1F
100
AcDbEntity
  8
ROUND
 62
   250
370
    30
100
AcDbSpline
210
0.0
220
0.0
230
1.0
 70
     8
 71
     3
 72
    16
 73
    12
 74
     0
 42
0.0000000001
 43
0.0000000001
 40
0.0
 40
0.0
 40
0.0
 40
0.0
 40
0.25
 40
0.25
 40
0.25
 40
0.25
 40
0.5
 40
0.5
 40
0.5
 40
0.5
 40
1.0
 40
1.0
 40
1.0
 40
1.0
 10
20.4557
 20
-8.9571
 30
0.0
 10
20.4557
 20
-8.9571
 30
0.0
 10
21.8883
 20
-8.9538
 30
0.0
 10
21.8883
 20
-8.9538
 30
0.0
 10
21.8883
 20
-8.9538
 30
0.0
 10
21.8883
 20
-8.9538
 30
0.0
 10
21.8883
 20
-0.3411
 30
0.0
 10
21.8883
 20
-0.3411
 30
0.0
 10
21.8883
 20
-0.3411
 30
0.0
 10
21.8883
 20
-0.3411
 30
0.0
 10
20.4159
 20
-0.3358
 30
0.0
 10
20.4159
 20
-0.3358
 30
0.0
  0
SPLINE
  5
56
330
1F
100
AcDbEntity
  8
ROUND
 62
   250
370
    30
100
AcDbSpline
210
0.0
220
0.0
230
1.0
 70
     8
 71
     3
 72
    16
 73
    12
 74
     0
 42
0.0000000001
 43
0.0000000001
 40
0.0
 40
0.0
 40
0.0
 40
0.0
 40
0.25
 40
0.25
 40
0.25
 40
0.25
 40
0.5
 40
0.5
 40
0.5
 40
0.5
 40
1.0
 40
1.0
 40
1.0
 40
1.0
 10
15.2007
 20
-9.6723
 30
0.0
 10
15.2007
 20
-9.6723
 30
0.0
 10
20.4529
 20
-9.6715
 30
0.0
 10
20.4529
 20
-9.6715
 30
0.0
 10
20.4529
 20
-9.6715
 30
0.0
 10
20.4529
 20
-9.6715
 30
0.0
 10
20.4529
 20
0.3766
 30
0.0
 10
20.4529
 20
0.3766
 30
0.0
 10
20.4529
 20
0.3766
 30
0.0
 10
20.4529
 20
0.3766
 30
0.0
 10
15.214
 20
0.3926
 30
0.0
 10
15.214
 20
0.3926
 30
0.0
  0
SPLINE
  5
57
330
1F
100
AcDbEntity
  8
ROUND
 62
   250
370
    30
100
AcDbSpline
210
0.0
220
0.0
230
1.0
 70
     8
 71
     3
 72
    40
 73
    36
 74
     0
 42
0.0000000001
 43
0.0000000001
 40
0.0
 40
0.0
 40
0.0
 40
0.0
 40
0.1
 40
0.1
 40
0.1
 40
0.1
 40
0.2
 40
0.2
 40
0.2
 40
0.2
 40
0.3
 40
0.3
 40
0.3
 40
0.3
 40
0.4
 40
0.4
 40
0.4
 40
0.4
 40
0.5
 40
0.5
 40
0.5
 40
0.5
 40
0.6
 40
0.6
 40
0.6
 40
0.6
 40
0.7
 40
0.7
 40
0.7
 40
0.7
 40
0.8
 40
0.8
 40
0.8
 40
0.8
 40
1.0
 40
1.0
 40
1.0
 40
1.0
 10
-25.6604
 20
-11.3523
 30
0.0
 10
-25.6604
 20
-11.3523
 30
0.0
 10
-26.0322
 20
-11.3525
 30
0.0
 10
-26.0322
 20
-11.3525
 30
0.0
 10
-26.0322
 20
-11.3525
 30
0.0
 10
-26.0322
 20
-11.3525
 30
0.0
 10
-26.2688
 20
-11.3165
 30
0.0
 10
-26.2688
 20
-11.3165
 30
0.0
 10
-26.2688
 20
-11.3165
 30
0.0
 10
-26.2688
 20
-11.3165
 30
0.0
 10
-26.3874
 20
-11.21
 30
0.0
 10
-26.3874
 20
-11.21
 30
0.0
 10
-26.3874
 20
-11.21
 30
0.0
 10
-26.3874
 20
-11.21
 30
0.0
 10
-26.4467
 20
-11.0325
 30
0.0
 10
-26.4467
 20
-11.0325
 30
0.0
 10
-26.4467
 20
-11.0325
 30
0.0
 10
-26.4467
 20
-11.0325
 30
0.0
 10
-26.4467
 20
-4.0028
 30
0.0
 10
-26.4467
 20
-4.0028
 30
0.0
 10
-26.4467
 20
-4.0028
 30
0.0
 10
-26.4467
 20
-4.0028
 30
0.0
 10
-26.4517
 20
1.825
 30
0.0
 10
-26.4517
 20
1.825
 30
0.0
 10
-26.4517
 20
1.825
 30
0.0
 10
-26.4517
 20
1.825
 30
0.0
 10
-26.3597
 20
2.0205
 30
0.0
 10
-26.3597
 20
2.0205
 30
0.0
 10
-26.3597
 20
2.0205
 30
0.0
 10
-26.3597
 20
2.0205
 30
0.0
 10
-26.2447
 20
2.0665
 30
0.0
 10
-26.2447
 20
2.0665
 30
0.0
 10
-26.2447
 20
2.0665
 30
0.0
 10
-26.2447
 20
2.0665
 30
0.0
 10
-25.5432
 20
2.0665
 30
0.0
 10
-25.5432
 20
2.0665
 30
0.0
  0
SPLINE
  5
58
330
1F
100
AcDbEntity
  8
ROUND
 62
   250
370
    30
100
AcDbSpline
210
0.0
220
0.0
230
1.0
 70
     8
 71
     3
 72
    16
 73
    12
 74
     0
 42
0.0000000001
 43
0.0000000001
 40
0.0
 40
0.0
 40
0.0
 40
0.0
 40
0.25
 40
0.25
 40
0.25
 40
0.25
 40
0.5
 40
0.5
 40
0.5
 40
0.5
 40
1.0
 40
1.0
 40
1.0
 40
1.0
 10
-21.5418
 20
2.0716
 30
0.0
 10
-21.5418
 20
2.0716
 30
0.0
 10
-13.9977
 20
2.0513
 30
0.0
 10
-13.9977
 20
2.0513
 30
0.0
 10
-13.9977
 20
2.0513
 30
0.0
 10
-13.9977
 20
2.0513
 30
0.0
 10
-13.9977
 20
-11.3462
 30
0.0
 10
-13.9977
 20
-11.3462
 30
0.0
 10
-13.9977
 20
-11.3462
 30
0.0
 10
-13.9977
 20
-11.3462
 30
0.0
 10
-25.7159
 20
-11.3501
 30
0.0
 10
-25.7159
 20
-11.3501
 30
0.0
  0
SPLINE
  5
59
330
1F
100
AcDbEntity
  8
ROUND
 62
   250
370
    30
100
AcDbSpline
210
0.0
220
0.0
230
1.0
 70
    24
 71
     3
 72
     8
 73
     4
 74
     0
 42
0.0000000001
 43
0.0000000001
 40
0.0
 40
0.0
 40
0.0
 40
0.0
 40
1.0
 40
1.0
 40
1.0
 40
1.0
 10
-11.3698
 20
-11.3643
 30
0.0
 10
-11.3698
 20
-11.3643
 30
0.0
 10
7.5442
 20
-11.3796
 30
0.0
 10
7.5442
 20
-11.3796
 30
0.0
  0
SPLINE
  5
5A
330
1F
100
AcDbEntity
  8
ROUND
 62
   250
370
    30
100
AcDbSpline
210
0.0
220
0.0
230
1.0
 70
     8
 71
     3
 72
    16
 73
    12
 74
     0
 42
0.0000000001
 43
0.0000000001
 40
0.0
 40
0.0
 40
0.0
 40
0.0
 40
0.25
 40
0.25
 40
0.25
 40
0.25
 40
0.5
 40
0.5
 40
0.5
 40
0.5
 40
1.0
 40
1.0
 40
1.0
 40
1.0
 10
-12.092
 20
2.0615
 30
0.0
 10
-12.092
 20
2.0615
 30
0.0
 10
-13.8163
 20
2.0501
 30
0.0
 10
-13.8163
 20
2.0501
 30
0.0
 10
-13.8163
 20
2.0501
 30
0.0
 10
-13.8163
 20
2.0501
 30
0.0
 10
-13.8058
 20
-11.3496
 30
0.0
 10
-13.8058
 20
-11.3496
 30
0.0
 10
-13.8058
 20
-11.3496
 30
0.0
 10
-13.8058
 20
-11.3496
 30
0.0
 10
-11.2421
 20
-11.3531
 30
0.0
 10
-11.2421
 20
-11.3531
 30
0.0
  0
SPLINE
  5
5B
330
1F
100
AcDbEntity
  8
ROUND
 62
   250
370
    30
100
AcDbSpline
210
0.0
220
0.0
230
1.0
 70
     8
 71
     3
 72
    12
 73
     8
 74
     0
 42
0.0000000001
 43
0.0000000001
 40
0.0
 40
0.0
 40
0.0
 40
0.0
 40
0.3333333333333333
 40
0.3333333333333333
 40
0.3333333333333333
 40
0.3333333333333333
 40
1.0
 40
1.0
 40
1.0
 40
1.0
 10
7.5442
 20
-11.3796
 30
0.0
 10
7.5442
 20
-11.3796
 30
0.0
 10
7.5261
 20
2.0578
 30
0.0
 10
7.5261
 20
2.0578
 30
0.0
 10
7.5261
 20
2.0578
 30
0.0
 10
7.5261
 20
2.0578
 30
0.0
 10
-2.5852
 20
2.0615
 30
0.0
 10
-2.5852
 20
2.0615
 30
0.0
  0
SPLINE
  5
5C
330
1F
100
AcDbEntity
  8
ROUND
 62
   250
370
    30
100
AcDbSpline
210
0.0
220
0.0
230
1.0
 70
     8
 71
     3
 72
    96
 73
    92
 74
     0
 42
0.0000000001
 43
0.0000000001
 40
0.0
 40
0.0
 40
0.0
 40
0.0
 40
0.0416666666666667
 40
0.0416666666666667
 40
0.0416666666666667
 40
0.0416666666666667
 40
0.0833333333333333
 40
0.0833333333333333
 40
0.0833333333333333
 40
0.0833333333333333
 40
0.125
 40
0.125
 40
0.125
 40
0.125
 40
0.1666666666666667
 40
0.1666666666666667
 40
0.1666666666666667
 40
0.1666666666666667
 40
0.2083333333333333
 40
0.2083333333333333
 40
0.2083333333333333
 40
0.2083333333333333
 40
0.25
 40
0.25
 40
0.25
 40
0.25
 40
0.2916666666666667
 40
0.2916666666666667
 40
0.2916666666666667
 40
0.2916666666666667
 40
0.3333333333333333
 40
0.3333333333333333
 40
0.3333333333333333
 40
0.3333333333333333
 40
0.375
 40
0.375
 40
0.375
 40
0.375
 40
0.4166666666666667
 40
0.4166666666666667
 40
0.4166666666666667
 40
0.4166666666666667
 40
0.4583333333333333
 40
0.4583333333333333
 40
0.4583333333333333
 40
0.4583333333333333
 40
0.5
 40
0.5
 40
0.5
 40
0.5
 40
0.5416666666666666
 40
0.5416666666666666
 40
0.5416666666666666
 40
0.5416666666666666
 40
0.5833333333333334
 40
0.5833333333333334
 40
0.5833333333333334
 40
0.5833333333333334
 40
0.625
 40
0.625
 40
0.625
 40
0.625
 40
0.6666666666666666
 40
0.6666666666666666
 40
0.6666666666666666
 40
0.6666666666666666
 40
0.7083333333333334
 40
0.7083333333333334
 40
0.7083333333333334
 40
0.7083333333333334
 40
0.75
 40
0.75
 40
0.75
 40
0.75
 40
0.7916666666666666
 40
0.7916666666666666
 40
0.7916666666666666
 40
0.7916666666666666
 40
0.8333333333333334
 40
0.8333333333333334
 40
0.8333333333333334
 40
0.8333333333333334
 40
0.875
 40
0.875
 40
0.875
 40
0.875
 40
0.9166666666666666
 40
0.9166666666666666
 40
0.9166666666666666
 40
0.9166666666666666
 40
1.0
 40
1.0
 40
1.0
 40
1.0
 10
-7.3241
 20
0.8876
 30
0.0
 10
-7.3241
 20
0.8876
 30
0.0
 10
-7.5979
 20
0.8919
 30
0.0
 10
-7.5979
 20
0.8919
 30
0.0
 10
-7.5979
 20
0.8919
 30
0.0
 10
-7.5979
 20
0.8919
 30
0.0
 10
-7.8542
 20
0.9036
 30
0.0
 10
-7.8542
 20
0.9036
 30
0.0
 10
-7.8542
 20
0.9036
 30
0.0
 10
-7.8542
 20
0.9036
 30
0.0
 10
-8.0975
 20
0.9216
 30
0.0
 10
-8.0975
 20
0.9216
 30
0.0
 10
-8.0975
 20
0.9216
 30
0.0
 10
-8.0975
 20
0.9216
 30
0.0
 10
-8.3318
 20
0.9457
 30
0.0
 10
-8.3318
 20
0.9457
 30
0.0
 10
-8.3318
 20
0.9457
 30
0.0
 10
-8.3318
 20
0.9457
 30
0.0
 10
-8.561
 20
0.9748
 30
0.0
 10
-8.561
 20
0.9748
 30
0.0
 10
-8.561
 20
0.9748
 30
0.0
 10
-8.561
 20
0.9748
 30
0.0
 10
-8.7878
 20
1.0096
 30
0.0
 10
-8.7878
 20
1.0096
 30
0.0
 10
-8.7878
 20
1.0096
 30
0.0
 10
-8.7878
 20
1.0096
 30
0.0
 10
-9.0084
 20
1.0486
 30
0.0
 10
-9.0084
 20
1.0486
 30
0.0
 10
-9.0084
 20
1.0486
 30
0.0
 10
-9.0084
 20
1.0486
 30
0.0
 10
-9.2203
 20
1.0911
 30
0.0
 10
-9.2203
 20
1.0911
 30
0.0
 10
-9.2203
 20
1.0911
 30
0.0
 10
-9.2203
 20
1.0911
 30
0.0
 10
-9.4369
 20
1.1396
 30
0.0
 10
-9.4369
 20
1.1396
 30
0.0
 10
-9.4369
 20
1.1396
 30
0.0
 10
-9.4369
 20
1.1396
 30
0.0
 10
-9.6758
 20
1.1985
 30
0.0
 10
-9.6758
 20
1.1985
 30
0.0
 10
-9.6758
 20
1.1985
 30
0.0
 10
-9.6758
 20
1.1985
 30
0.0
 10
-9.9403
 20
1.2704
 30
0.0
 10
-9.9403
 20
1.2704
 30
0.0
 10
-9.9403
 20
1.2704
 30
0.0
 10
-9.9403
 20
1.2704
 30
0.0
 10
-10.2218
 20
1.3547
 30
0.0
 10
-10.2218
 20
1.3547
 30
0.0
 10
-10.2218
 20
1.3547
 30
0.0
 10
-10.2218
 20
1.3547
 30
0.0
 10
-10.5113
 20
1.449
 30
0.0
 10
-10.5113
 20
1.449
 30
0.0
 10
-10.5113
 20
1.449
 30
0.0
 10
-10.5113
 20
1.449
 30
0.0
 10
-10.7975
 20
1.55
 30
0.0
 10
-10.7975
 20
1.55
 30
0.0
 10
-10.7975
 20
1.55
 30
0.0
 10
-10.7975
 20
1.55
 30
0.0
 10
-11.0615
 20
1.6495
 30
0.0
 10
-11.0615
 20
1.6495
 30
0.0
 10
-11.0615
 20
1.6495
 30
0.0
 10
-11.0615
 20
1.6495
 30
0.0
 10
-11.2909
 20
1.7407
 30
0.0
 10
-11.2909
 20
1.7407
 30
0.0
 10
-11.2909
 20
1.7407
 30
0.0
 10
-11.2909
 20
1.7407
 30
0.0
 10
-11.4883
 20
1.8225
 30
0.0
 10
-11.4883
 20
1.8225
 30
0.0
 10
-11.4883
 20
1.8225
 30
0.0
 10
-11.4883
 20
1.8225
 30
0.0
 10
-11.6547
 20
1.8941
 30
0.0
 10
-11.6547
 20
1.8941
 30
0.0
 10
-11.6547
 20
1.8941
 30
0.0
 10
-11.6547
 20
1.8941
 30
0.0
 10
-11.791
 20
1.9541
 30
0.0
 10
-11.791
 20
1.9541
 30
0.0
 10
-11.791
 20
1.9541
 30
0.0
 10
-11.791
 20
1.9541
 30
0.0
 10
-11.8978
 20
2.0022
 30
0.0
 10
-11.8978
 20
2.0022
 30
0.0
 10
-11.8978
 20
2.0022
 30
0.0
 10
-11.8978
 20
2.0022
 30
0.0
 10
-11.977
 20
2.0386
 30
0.0
 10
-11.977
 20
2.0386
 30
0.0
 10
-11.977
 20
2.0386
 30
0.0
 10
-11.977
 20
2.0386
 30
0.0
 10
-12.0293
 20
2.0626
 30
0.0
 10
-12.0293
 20
2.0626
 30
0.0
 10
-12.0293
 20
2.0626
 30
0.0
 10
-12.0293
 20
2.0626
 30
0.0
 10
-12.0552
 20
2.0748
 30
0.0
 10
-12.0552
 20
2.0748
 30
0.0
  0
SPLINE
  5
5D
330
1F
100
AcDbEntity
  8
ROUND
 62
   250
370
    30
100
AcDbSpline
210
0.0
220
0.0
230
1.0
 70
     8
 71
     3
 72
    96
 73
    92
 74
     0
 42
0.0000000001
 43
0.0000000001
 40
0.0
 40
0.0
 40
0.0
 40
0.0
 40
0.0416666666666667
 40
0.0416666666666667
 40
0.0416666666666667
 40
0.0416666666666667
 40
0.0833333333333333
 40
0.0833333333333333
 40
0.0833333333333333
 40
0.0833333333333333
 40
0.125
 40
0.125
 40
0.125
 40
0.125
 40
0.1666666666666667
 40
0.1666666666666667
 40
0.1666666666666667
 40
0.1666666666666667
 40
0.2083333333333333
 40
0.2083333333333333
 40
0.2083333333333333
 40
0.2083333333333333
 40
0.25
 40
0.25
 40
0.25
 40
0.25
 40
0.2916666666666667
 40
0.2916666666666667
 40
0.2916666666666667
 40
0.2916666666666667
 40
0.3333333333333333
 40
0.3333333333333333
 40
0.3333333333333333
 40
0.3333333333333333
 40
0.375
 40
0.375
 40
0.375
 40
0.375
 40
0.4166666666666667
 40
0.4166666666666667
 40
0.4166666666666667
 40
0.4166666666666667
 40
0.4583333333333333
 40
0.4583333333333333
 40
0.4583333333333333
 40
0.4583333333333333
 40
0.5
 40
0.5
 40
0.5
 40
0.5
 40
0.5416666666666666
 40
0.5416666666666666
 40
0.5416666666666666
 40
0.5416666666666666
 40
0.5833333333333334
 40
0.5833333333333334
 40
0.5833333333333334
 40
0.5833333333333334
 40
0.625
 40
0.625
 40
0.625
 40
0.625
 40
0.6666666666666666
 40
0.6666666666666666
 40
0.6666666666666666
 40
0.6666666666666666
 40
0.7083333333333334
 40
0.7083333333333334
 40
0.7083333333333334
 40
0.7083333333333334
 40
0.75
 40
0.75
 40
0.75
 40
0.75
 40
0.7916666666666666
 40
0.7916666666666666
 40
0.7916666666666666
 40
0.7916666666666666
 40
0.8333333333333334
 40
0.8333333333333334
 40
0.8333333333333334
 40
0.8333333333333334
 40
0.875
 40
0.875
 40
0.875
 40
0.875
 40
0.9166666666666666
 40
0.9166666666666666
 40
0.9166666666666666
 40
0.9166666666666666
 40
1.0
 40
1.0
 40
1.0
 40
1.0
 10
-7.3241
 20
0.8876
 30
0.0
 10
-7.3241
 20
0.8876
 30
0.0
 10
-7.0504
 20
0.8918
 30
0.0
 10
-7.0504
 20
0.8918
 30
0.0
 10
-7.0504
 20
0.8918
 30
0.0
 10
-7.0504
 20
0.8918
 30
0.0
 10
-6.794
 20
0.9037
 30
0.0
 10
-6.794
 20
0.9037
 30
0.0
 10
-6.794
 20
0.9037
 30
0.0
 10
-6.794
 20
0.9037
 30
0.0
 10
-6.5507
 20
0.9216
 30
0.0
 10
-6.5507
 20
0.9216
 30
0.0
 10
-6.5507
 20
0.9216
 30
0.0
 10
-6.5507
 20
0.9216
 30
0.0
 10
-6.3163
 20
0.9456
 30
0.0
 10
-6.3163
 20
0.9456
 30
0.0
 10
-6.3163
 20
0.9456
 30
0.0
 10
-6.3163
 20
0.9456
 30
0.0
 10
-6.0873
 20
0.9748
 30
0.0
 10
-6.0873
 20
0.9748
 30
0.0
 10
-6.0873
 20
0.9748
 30
0.0
 10
-6.0873
 20
0.9748
 30
0.0
 10
-5.8604
 20
1.0096
 30
0.0
 10
-5.8604
 20
1.0096
 30
0.0
 10
-5.8604
 20
1.0096
 30
0.0
 10
-5.8604
 20
1.0096
 30
0.0
 10
-5.6396
 20
1.0486
 30
0.0
 10
-5.6396
 20
1.0486
 30
0.0
 10
-5.6396
 20
1.0486
 30
0.0
 10
-5.6396
 20
1.0486
 30
0.0
 10
-5.428
 20
1.0911
 30
0.0
 10
-5.428
 20
1.0911
 30
0.0
 10
-5.428
 20
1.0911
 30
0.0
 10
-5.428
 20
1.0911
 30
0.0
 10
-5.2112
 20
1.1397
 30
0.0
 10
-5.2112
 20
1.1397
 30
0.0
 10
-5.2112
 20
1.1397
 30
0.0
 10
-5.2112
 20
1.1397
 30
0.0
 10
-4.9725
 20
1.1985
 30
0.0
 10
-4.9725
 20
1.1985
 30
0.0
 10
-4.9725
 20
1.1985
 30
0.0
 10
-4.9725
 20
1.1985
 30
0.0
 10
-4.7077
 20
1.2706
 30
0.0
 10
-4.7077
 20
1.2706
 30
0.0
 10
-4.7077
 20
1.2706
 30
0.0
 10
-4.7077
 20
1.2706
 30
0.0
 10
-4.4263
 20
1.3549
 30
0.0
 10
-4.4263
 20
1.3549
 30
0.0
 10
-4.4263
 20
1.3549
 30
0.0
 10
-4.4263
 20
1.3549
 30
0.0
 10
-4.1367
 20
1.4493
 30
0.0
 10
-4.1367
 20
1.4493
 30
0.0
 10
-4.1367
 20
1.4493
 30
0.0
 10
-4.1367
 20
1.4493
 30
0.0
 10
-3.8505
 20
1.5501
 30
0.0
 10
-3.8505
 20
1.5501
 30
0.0
 10
-3.8505
 20
1.5501
 30
0.0
 10
-3.8505
 20
1.5501
 30
0.0
 10
-3.5866
 20
1.6496
 30
0.0
 10
-3.5866
 20
1.6496
 30
0.0
 10
-3.5866
 20
1.6496
 30
0.0
 10
-3.5866
 20
1.6496
 30
0.0
 10
-3.3572
 20
1.7407
 30
0.0
 10
-3.3572
 20
1.7407
 30
0.0
 10
-3.3572
 20
1.7407
 30
0.0
 10
-3.3572
 20
1.7407
 30
0.0
 10
-3.1598
 20
1.8227
 30
0.0
 10
-3.1598
 20
1.8227
 30
0.0
 10
-3.1598
 20
1.8227
 30
0.0
 10
-3.1598
 20
1.8227
 30
0.0
 10
-2.9934
 20
1.8941
 30
0.0
 10
-2.9934
 20
1.8941
 30
0.0
 10
-2.9934
 20
1.8941
 30
0.0
 10
-2.9934
 20
1.8941
 30
0.0
 10
-2.8572
 20
1.9543
 30
0.0
 10
-2.8572
 20
1.9543
 30
0.0
 10
-2.8572
 20
1.9543
 30
0.0
 10
-2.8572
 20
1.9543
 30
0.0
 10
-2.7501
 20
2.0022
 30
0.0
 10
-2.7501
 20
2.0022
 30
0.0
 10
-2.7501
 20
2.0022
 30
0.0
 10
-2.7501
 20
2.0022
 30
0.0
 10
-2.6713
 20
2.0385
 30
0.0
 10
-2.6713
 20
2.0385
 30
0.0
 10
-2.6713
 20
2.0385
 30
0.0
 10
-2.6713
 20
2.0385
 30
0.0
 10
-2.6188
 20
2.0627
 30
0.0
 10
-2.6188
 20
2.0627
 30
0.0
 10
-2.6188
 20
2.0627
 30
0.0
 10
-2.6188
 20
2.0627
 30
0.0
 10
-2.593
 20
2.0747
 30
0.0
 10
-2.593
 20
2.0747
 30
0.0
  0
SPLINE
  5
5E
330
1F
100
AcDbEntity
  8
ROUND
 62
   250
370
    30
100
AcDbSpline
210
0.0
220
0.0
230
1.0
 70
    11
 71
     3
 72
    16
 73
    12
 74
     0
 42
0.0000000001
 43
0.0000000001
 40
0.0
 40
0.0
 40
0.0
 40
0.0
 40
0.25
 40
0.25
 40
0.25
 40
0.25
 40
0.5
 40
0.5
 40
0.5
 40
0.5
 40
1.0
 40
1.0
 40
1.0
 40
1.0
 10
-12.3544
 20
11.4337
 30
0.0
 10
-12.3544
 20
11.4337
 30
0.0
 10
-12.2655
 20
11.4336
 30
0.0
 10
-12.2655
 20
11.4336
 30
0.0
 10
-12.2655
 20
11.4336
 30
0.0
 10
-12.2655
 20
11.4336
 30
0.0
 10
-2.2936
 20
11.4336
 30
0.0
 10
-2.2936
 20
11.4336
 30
0.0
 10
-2.2936
 20
11.4336
 30
0.0
 10
-2.2936
 20
11.4336
 30
0.0
 10
-12.3544
 20
11.4337
 30
0.0
 10
-12.3544
 20
11.4337
 30
0.0
  0
SPLINE
  5
5F
330
1F
100
AcDbEntity
  8
ROUND
 62
   250
370
    30
100
AcDbSpline
210
0.0
220
0.0
230
1.0
 70
    11
 71
     3
 72
    20
 73
    16
 74
     0
 42
0.0000000001
 43
0.0000000001
 40
0.0
 40
0.0
 40
0.0
 40
0.0
 40
0.2
 40
0.2
 40
0.2
 40
0.2
 40
0.4
 40
0.4
 40
0.4
 40
0.4
 40
0.6
 40
0.6
 40
0.6
 40
0.6
 40
1.0
 40
1.0
 40
1.0
 40
1.0
 10
-12.3544
 20
5.5546
 30
0.0
 10
-12.3544
 20
5.5546
 30
0.0
 10
-12.2886
 20
5.5545
 30
0.0
 10
-12.2886
 20
5.5545
 30
0.0
 10
-12.2886
 20
5.5545
 30
0.0
 10
-12.2886
 20
5.5545
 30
0.0
 10
-2.4052
 20
5.5545
 30
0.0
 10
-2.4052
 20
5.5545
 30
0.0
 10
-2.4052
 20
5.5545
 30
0.0
 10
-2.4052
 20
5.5545
 30
0.0
 10
-2.2936
 20
5.5546
 30
0.0
 10
-2.2936
 20
5.5546
 30
0.0
 10
-2.2936
 20
5.5546
 30
0.0
 10
-2.2936
 20
5.5546
 30
0.0
 10
-12.3544
 20
5.5546
 30
0.0
 10
-12.3544
 20
5.5546
 30
0.0
  0
SPLINE
  5
60
330
1F
100
AcDbEntity
  8
ROUND
 62
   250
370
    30
100
AcDbSpline
210
0.0
220
0.0
230
1.0
 70
    11
 71
     3
 72
    20
 73
    16
 74
     0
 42
0.0000000001
 43
0.0000000001
 40
0.0
 40
0.0
 40
0.0
 40
0.0
 40
0.2
 40
0.2
 40
0.2
 40
0.2
 40
0.4
 40
0.4
 40
0.4
 40
0.4
 40
0.6
 40
0.6
 40
0.6
 40
0.6
 40
1.0
 40
1.0
 40
1.0
 40
1.0
 10
-11.1706
 20
5.0023
 30
0.0
 10
-11.1706
 20
5.0023
 30
0.0
 10
-11.1372
 20
5.0024
 30
0.0
 10
-11.1372
 20
5.0024
 30
0.0
 10
-11.1372
 20
5.0024
 30
0.0
 10
-11.1372
 20
5.0024
 30
0.0
 10
-3.4833
 20
5.0024
 30
0.0
 10
-3.4833
 20
5.0024
 30
0.0
 10
-3.4833
 20
5.0024
 30
0.0
 10
-3.4833
 20
5.0024
 30
0.0
 10
-3.4776
 20
5.0024
 30
0.0
 10
-3.4776
 20
5.0024
 30
0.0
 10
-3.4776
 20
5.0024
 30
0.0
 10
-3.4776
 20
5.0024
 30
0.0
 10
-11.1706
 20
5.0023
 30
0.0
 10
-11.1706
 20
5.0023
 30
0.0
  0
SPLINE
  5
61
330
1F
100
AcDbEntity
  8
ROUND
 62
   250
370
    30
100
AcDbSpline
210
0.0
220
0.0
230
1.0
 70
     8
 71
     3
 72
    88
 73
    84
 74
     0
 42
0.0000000001
 43
0.0000000001
 40
0.0
 40
0.0
 40
0.0
 40
0.0
 40
0.0454545454545455
 40
0.0454545454545455
 40
0.0454545454545455
 40
0.0454545454545455
 40
0.0909090909090909
 40
0.0909090909090909
 40
0.0909090909090909
 40
0.0909090909090909
 40
0.1363636363636364
 40
0.1363636363636364
 40
0.1363636363636364
 40
0.1363636363636364
 40
0.1818181818181818
 40
0.1818181818181818
 40
0.1818181818181818
 40
0.1818181818181818
 40
0.2272727272727273
 40
0.2272727272727273
 40
0.2272727272727273
 40
0.2272727272727273
 40
0.2727272727272727
 40
0.2727272727272727
 40
0.2727272727272727
 40
0.2727272727272727
 40
0.3181818181818182
 40
0.3181818181818182
 40
0.3181818181818182
 40
0.3181818181818182
 40
0.3636363636363636
 40
0.3636363636363636
 40
0.3636363636363636
 40
0.3636363636363636
 40
0.4090909090909091
 40
0.4090909090909091
 40
0.4090909090909091
 40
0.4090909090909091
 40
0.4545454545454545
 40
0.4545454545454545
 40
0.4545454545454545
 40
0.4545454545454545
 40
0.5
 40
0.5
 40
0.5
 40
0.5
 40
0.5454545454545454
 40
0.5454545454545454
 40
0.5454545454545454
 40
0.5454545454545454
 40
0.5909090909090909
 40
0.5909090909090909
 40
0.5909090909090909
 40
0.5909090909090909
 40
0.6363636363636364
 40
0.6363636363636364
 40
0.6363636363636364
 40
0.6363636363636364
 40
0.6818181818181818
 40
0.6818181818181818
 40
0.6818181818181818
 40
0.6818181818181818
 40
0.7272727272727273
 40
0.7272727272727273
 40
0.7272727272727273
 40
0.7272727272727273
 40
0.7727272727272727
 40
0.7727272727272727
 40
0.7727272727272727
 40
0.7727272727272727
 40
0.8181818181818182
 40
0.8181818181818182
 40
0.8181818181818182
 40
0.8181818181818182
 40
0.8636363636363636
 40
0.8636363636363636
 40
0.8636363636363636
 40
0.8636363636363636
 40
0.9090909090909091
 40
0.9090909090909091
 40
0.9090909090909091
 40
0.9090909090909091
 40
1.0
 40
1.0
 40
1.0
 40
1.0
 10
-12.1342
 20
2.0623
 30
0.0
 10
-12.1342
 20
2.0623
 30
0.0
 10
-11.822
 20
2.1247
 30
0.0
 10
-11.822
 20
2.1247
 30
0.0
 10
-11.822
 20
2.1247
 30
0.0
 10
-11.822
 20
2.1247
 30
0.0
 10
-11.6034
 20
2.1559
 30
0.0
 10
-11.6034
 20
2.1559
 30
0.0
 10
-11.6034
 20
2.1559
 30
0.0
 10
-11.6034
 20
2.1559
 30
0.0
 10
-11.3536
 20
2.4058
 30
0.0
 10
-11.3536
 20
2.4058
 30
0.0
 10
-11.3536
 20
2.4058
 30
0.0
 10
-11.3536
 20
2.4058
 30
0.0
 10
-11.2066
 20
2.9596
 30
0.0
 10
-11.2066
 20
2.9596
 30
0.0
 10
-11.2066
 20
2.9596
 30
0.0
 10
-11.2066
 20
2.9596
 30
0.0
 10
-11.2021
 20
4.9867
 30
0.0
 10
-11.2021
 20
4.9867
 30
0.0
 10
-11.2021
 20
4.9867
 30
0.0
 10
-11.2021
 20
4.9867
 30
0.0
 10
-11.2371
 20
5.0023
 30
0.0
 10
-11.2371
 20
5.0023
 30
0.0
 10
-11.2371
 20
5.0023
 30
0.0
 10
-11.2371
 20
5.0023
 30
0.0
 10
-12.3887
 20
5.5175
 30
0.0
 10
-12.3887
 20
5.5175
 30
0.0
 10
-12.3887
 20
5.5175
 30
0.0
 10
-12.3887
 20
5.5175
 30
0.0
 10
-12.3887
 20
5.5546
 30
0.0
 10
-12.3887
 20
5.5546
 30
0.0
 10
-12.3887
 20
5.5546
 30
0.0
 10
-12.3887
 20
5.5546
 30
0.0
 10
-12.3887
 20
11.4195
 30
0.0
 10
-12.3887
 20
11.4195
 30
0.0
 10
-12.3887
 20
11.4195
 30
0.0
 10
-12.3887
 20
11.4195
 30
0.0
 10
-12.3655
 20
11.4337
 30
0.0
 10
-12.3655
 20
11.4337
 30
0.0
 10
-12.3655
 20
11.4337
 30
0.0
 10
-12.3655
 20
11.4337
 30
0.0
 10
-11.2707
 20
12.1041
 30
0.0
 10
-11.2707
 20
12.1041
 30
0.0
 10
-11.2707
 20
12.1041
 30
0.0
 10
-11.2707
 20
12.1041
 30
0.0
 10
-3.5773
 20
12.1041
 30
0.0
 10
-3.5773
 20
12.1041
 30
0.0
 10
-3.5773
 20
12.1041
 30
0.0
 10
-3.5773
 20
12.1041
 30
0.0
 10
-2.3336
 20
11.4507
 30
0.0
 10
-2.3336
 20
11.4507
 30
0.0
 10
-2.3336
 20
11.4507
 30
0.0
 10
-2.3336
 20
11.4507
 30
0.0
 10
-2.3336
 20
5.6424
 30
0.0
 10
-2.3336
 20
5.6424
 30
0.0
 10
-2.3336
 20
5.6424
 30
0.0
 10
-2.3336
 20
5.6424
 30
0.0
 10
-2.5051
 20
5.5546
 30
0.0
 10
-2.5051
 20
5.5546
 30
0.0
 10
-2.5051
 20
5.5546
 30
0.0
 10
-2.5051
 20
5.5546
 30
0.0
 10
-3.5833
 20
5.0023
 30
0.0
 10
-3.5833
 20
5.0023
 30
0.0
 10
-3.5833
 20
5.0023
 30
0.0
 10
-3.5833
 20
5.0023
 30
0.0
 10
-3.6139
 20
4.9867
 30
0.0
 10
-3.6139
 20
4.9867
 30
0.0
 10
-3.6139
 20
4.9867
 30
0.0
 10
-3.6139
 20
4.9867
 30
0.0
 10
-3.6139
 20
3.0029
 30
0.0
 10
-3.6139
 20
3.0029
 30
0.0
 10
-3.6139
 20
3.0029
 30
0.0
 10
-3.6139
 20
3.0029
 30
0.0
 10
-3.297
 20
2.2496
 30
0.0
 10
-3.297
 20
2.2496
 30
0.0
 10
-3.297
 20
2.2496
 30
0.0
 10
-3.297
 20
2.2496
 30
0.0
 10
-2.8598
 20
2.0623
 30
0.0
 10
-2.8598
 20
2.0623
 30
0.0
 10
-2.8598
 20
2.0623
 30
0.0
 10
-2.8598
 20
2.0623
 30
0.0
 10
-2.5475
 20
2.0623
 30
0.0
 10
-2.5475
 20
2.0623
 30
0.0
  0
SPLINE
  5
62
330
1F
100
AcDbEntity
  8
ROUND
 62
   250
370
    30
100
AcDbSpline
210
0.0
220
0.0
230
1.0
 70
     8
 71
     3
 72
    28
 73
    24
 74
     0
 42
0.0000000001
 43
0.0000000001
 40
0.0
 40
0.0
 40
0.0
 40
0.0
 40
0.1428571428571428
 40
0.1428571428571428
 40
0.1428571428571428
 40
0.1428571428571428
 40
0.2857142857142857
 40
0.2857142857142857
 40
0.2857142857142857
 40
0.2857142857142857
 40
0.4285714285714285
 40
0.4285714285714285
 40
0.4285714285714285
 40
0.4285714285714285
 40
0.5714285714285714
 40
0.5714285714285714
 40
0.5714285714285714
 40
0.5714285714285714
 40
0.7142857142857143
 40
0.7142857142857143
 40
0.7142857142857143
 40
0.7142857142857143
 40
1.0
 40
1.0
 40
1.0
 40
1.0
 10
-25.4795
 20
2.0488
 30
0.0
 10
-25.4795
 20
2.0488
 30
0.0
 10
-25.4762
 20
14.2348
 30
0.0
 10
-25.4762
 20
14.2348
 30
0.0
 10
-25.4762
 20
14.2348
 30
0.0
 10
-25.4762
 20
14.367
 30
0.0
 10
-25.3691
 20
14.4741
 30
0.0
 10
-25.237
 20
14.4741
 30
0.0
 10
-25.237
 20
14.4741
 30
0.0
 10
-25.237
 20
14.4741
 30
0.0
 10
-21.8584
 20
14.4876
 30
0.0
 10
-21.8584
 20
14.4876
 30
0.0
 10
-21.8584
 20
14.4876
 30
0.0
 10
-21.8584
 20
14.4876
 30
0.0
 10
-21.6869
 20
14.3735
 30
0.0
 10
-21.6869
 20
14.3735
 30
0.0
 10
-21.6869
 20
14.3735
 30
0.0
 10
-21.6869
 20
14.3735
 30
0.0
 10
-21.6487
 20
14.1833
 30
0.0
 10
-21.6487
 20
14.1833
 30
0.0
 10
-21.6487
 20
14.1833
 30
0.0
 10
-21.6487
 20
14.1833
 30
0.0
 10
-21.6438
 20
2.0199
 30
0.0
 10
-21.6438
 20
2.0199
 30
0.0
  0
SPLINE
  5
63
330
1F
100
AcDbEntity
  8
ROUND
 62
   250
370
    30
100
AcDbSpline
210
0.0
220
0.0
230
1.0
 70
     8
 71
     3
 72
    32
 73
    28
 74
     0
 42
0.0000000001
 43
0.0000000001
 40
0.0
 40
0.0
 40
0.0
 40
0.0
 40
0.125
 40
0.125
 40
0.125
 40
0.125
 40
0.25
 40
0.25
 40
0.25
 40
0.25
 40
0.375
 40
0.375
 40
0.375
 40
0.375
 40
0.5
 40
0.5
 40
0.5
 40
0.5
 40
0.625
 40
0.625
 40
0.625
 40
0.625
 40
0.75
 40
0.75
 40
0.75
 40
0.75
 40
1.0
 40
1.0
 40
1.0
 40
1.0
 10
-25.5381
 20
2.0487
 30
0.0
 10
-25.5381
 20
2.0487
 30
0.0
 10
-25.1356
 20
1.8762
 30
0.0
 10
-25.1356
 20
1.8762
 30
0.0
 10
-25.1356
 20
1.8762
 30
0.0
 10
-25.1356
 20
1.8762
 30
0.0
 10
-24.3306
 20
1.7037
 30
0.0
 10
-24.3306
 20
1.7037
 30
0.0
 10
-24.3306
 20
1.7037
 30
0.0
 10
-24.3306
 20
1.7037
 30
0.0
 10
-23.6636
 20
1.6577
 30
0.0
 10
-23.6636
 20
1.6577
 30
0.0
 10
-23.6636
 20
1.6577
 30
0.0
 10
-23.6636
 20
1.6577
 30
0.0
 10
-23.0886
 20
1.6577
 30
0.0
 10
-23.0886
 20
1.6577
 30
0.0
 10
-23.0886
 20
1.6577
 30
0.0
 10
-23.0886
 20
1.6577
 30
0.0
 10
-22.3986
 20
1.7037
 30
0.0
 10
-22.3986
 20
1.7037
 30
0.0
 10
-22.3986
 20
1.7037
 30
0.0
 10
-22.3986
 20
1.7037
 30
0.0
 10
-21.6741
 20
1.9107
 30
0.0
 10
-21.6741
 20
1.9107
 30
0.0
 10
-21.6741
 20
1.9107
 30
0.0
 10
-21.6741
 20
1.9107
 30
0.0
 10
-21.5695
 20
2.052
 30
0.0
 10
-21.5695
 20
2.052
 30
0.0
  0
SPLINE
  5
64
330
1F
100
AcDbEntity
  8
ROUND
 62
   250
370
    15
100
AcDbSpline
210
0.0
220
0.0
230
1.0
 70
    24
 71
     3
 72
     8
 73
     4
 74
     0
 42
0.0000000001
 43
0.0000000001
 40
0.0
 40
0.0
 40
0.0
 40
0.0
 40
1.0
 40
1.0
 40
1.0
 40
1.0
 10
22.7159
 20
-9.6719
 30
0.0
 10
22.7159
 20
-9.6719
 30
0.0
 10
28.3995
 20
-9.6719
 30
0.0
 10
28.3995
 20
-9.6719
 30
0.0
  0
SPLINE
  5
65
330
1F
100
AcDbEntity
  8
ROUND
 62
   250
370
    15
100
AcDbSpline
210
0.0
220
0.0
230
1.0
 70
    24
 71
     3
 72
     8
 73
     4
 74
     0
 42
0.0000000001
 43
0.0000000001
 40
0.0
 40
0.0
 40
0.0
 40
0.0
 40
1.0
 40
1.0
 40
1.0
 40
1.0
 10
22.6597
 20
0.3767
 30
0.0
 10
22.6597
 20
0.3767
 30
0.0
 10
28.3095
 20
0.3767
 30
0.0
 10
28.3095
 20
0.3767
 30
0.0
  0
SPLINE
  5
66
330
1F
100
AcDbEntity
  8
ROUND
 62
   250
370
    15
100
AcDbSpline
210
0.0
220
0.0
230
1.0
 70
    24
 71
     3
 72
     8
 73
     4
 74
     0
 42
0.0000000001
 43
0.0000000001
 40
0.0
 40
0.0
 40
0.0
 40
0.0
 40
1.0
 40
1.0
 40
1.0
 40
1.0
 10
27.7202
 20
2.4624
 30
0.0
 10
27.7202
 20
2.4624
 30
0.0
 10
27.7202
 20
-11.7373
 30
0.0
 10
27.7202
 20
-11.7373
 30
0.0
  0
SPLINE
  5
67
330
1F
100
AcDbEntity
  8
ROUND
 62
   250
370
    15
100
AcDbSpline
210
0.0
220
0.0
230
1.0
 70
    24
 71
     3
 72
     8
 73
     4
 74
     0
 42
0.0000000001
 43
0.0000000001
 40
0.0
 40
0.0
 40
0.0
 40
0.0
 40
1.0
 40
1.0
 40
1.0
 40
1.0
 10
16.4889
 20
-18.5234
 30
0.0
 10
16.4889
 20
-18.5234
 30
0.0
 10
33.9795
 20
-18.5234
 30
0.0
 10
33.9795
 20
-18.5234
 30
0.0
  0
SPLINE
  5
68
330
1F
100
AcDbEntity
  8
ROUND
 62
   250
370
    15
100
AcDbSpline
210
0.0
220
0.0
230
1.0
 70
    24
 71
     3
 72
     8
 73
     4
 74
     0
 42
0.0000000001
 43
0.0000000001
 40
0.0
 40
0.0
 40
0.0
 40
0.0
 40
1.0
 40
1.0
 40
1.0
 40
1.0
 10
16.8489
 20
9.2286
 30
0.0
 10
16.8489
 20
9.2286
 30
0.0
 10
34.0695
 20
9.2286
 30
0.0
 10
34.0695
 20
9.2286
 30
0.0
  0
SPLINE
  5
69
330
1F
100
AcDbEntity
  8
ROUND
 62
   250
370
    15
100
AcDbSpline
210
0.0
220
0.0
230
1.0
 70
    24
 71
     3
 72
     8
 73
     4
 74
     0
 42
0.0000000001
 43
0.0000000001
 40
0.0
 40
0.0
 40
0.0
 40
0.0
 40
1.0
 40
1.0
 40
1.0
 40
1.0
 10
33.2196
 20
9.2285
 30
0.0
 10
33.2196
 20
9.2285
 30
0.0
 10
33.2196
 20
-18.4611
 30
0.0
 10
33.2196
 20
-18.4611
 30
0.0
  0
SPLINE
  5
6A
330
1F
100
AcDbEntity
  8
ROUND
 62
   250
370
    15
100
AcDbSpline
210
0.0
220
0.0
230
1.0
 70
    24
 71
     3
 72
     8
 73
     4
 74
     0
 42
0.0000000001
 43
0.0000000001
 40
0.0
 40
0.0
 40
0.0
 40
0.0
 40
1.0
 40
1.0
 40
1.0
 40
1.0
 10
11.3617
 20
12.1197
 30
0.0
 10
11.3617
 20
12.1197
 30
0.0
 10
11.3617
 20
4.1971
 30
0.0
 10
11.3617
 20
4.1971
 30
0.0
  0
SPLINE
  5
6B
330
1F
100
AcDbEntity
  8
ROUND
 62
   250
370
    15
100
AcDbSpline
210
0.0
220
0.0
230
1.0
 70
    24
 71
     3
 72
     8
 73
     4
 74
     0
 42
0.0000000001
 43
0.0000000001
 40
0.0
 40
0.0
 40
0.0
 40
0.0
 40
1.0
 40
1.0
 40
1.0
 40
1.0
 10
23.8686
 20
11.5516
 30
0.0
 10
23.8686
 20
11.5516
 30
0.0
 10
9.2724
 20
11.5516
 30
0.0
 10
9.2724
 20
11.5516
 30
0.0
  0
SPLINE
  5
6C
330
1F
100
AcDbEntity
  8
ROUND
 62
   250
370
    15
100
AcDbSpline
210
0.0
220
0.0
230
1.0
 70
    24
 71
     3
 72
     8
 73
     4
 74
     0
 42
0.0000000001
 43
0.0000000001
 40
0.0
 40
0.0
 40
0.0
 40
0.0
 40
1.0
 40
1.0
 40
1.0
 40
1.0
 10
21.8883
 20
-9.6731
 30
0.0
 10
21.8883
 20
-9.6731
 30
0.0
 10
21.8883
 20
-24.4803
 30
0.0
 10
21.8883
 20
-24.4803
 30
0.0
  0
SPLINE
  5
6D
330
1F
100
AcDbEntity
  8
ROUND
 62
   250
370
    15
100
AcDbSpline
210
0.0
220
0.0
230
1.0
 70
    24
 71
     3
 72
     8
 73
     4
 74
     0
 42
0.0000000001
 43
0.0000000001
 40
0.0
 40
0.0
 40
0.0
 40
0.0
 40
1.0
 40
1.0
 40
1.0
 40
1.0
 10
-26.4383
 20
-12.6557
 30
0.0
 10
-26.4383
 20
-12.6557
 30
0.0
 10
-26.4383
 20
-24.8115
 30
0.0
 10
-26.4383
 20
-24.8115
 30
0.0
  0
SPLINE
  5
6E
330
1F
100
AcDbEntity
  8
ROUND
 62
   250
370
    15
100
AcDbSpline
210
0.0
220
0.0
230
1.0
 70
    24
 71
     3
 72
     8
 73
     4
 74
     0
 42
0.0000000001
 43
0.0000000001
 40
0.0
 40
0.0
 40
0.0
 40
0.0
 40
1.0
 40
1.0
 40
1.0
 40
1.0
 10
-26.4382
 20
-23.5245
 30
0.0
 10
-26.4382
 20
-23.5245
 30
0.0
 10
21.7777
 20
-23.5245
 30
0.0
 10
21.7777
 20
-23.5245
 30
0.0
  0
SPLINE
  5
6F
330
1F
100
AcDbEntity
  8
ROUND
 62
   250
370
    15
100
AcDbSpline
210
0.0
220
0.0
230
1.0
 70
    24
 71
     3
 72
     8
 73
     4
 74
     0
 42
0.0000000001
 43
0.0000000001
 40
0.0
 40
0.0
 40
0.0
 40
0.0
 40
1.0
 40
1.0
 40
1.0
 40
1.0
 10
-26.4383
 20
2.9336
 30
0.0
 10
-26.4383
 20
2.9336
 30
0.0
 10
-26.4383
 20
22.2732
 30
0.0
 10
-26.4383
 20
22.2732
 30
0.0
  0
SPLINE
  5
70
330
1F
100
AcDbEntity
  8
ROUND
 62
   250
370
    15
100
AcDbSpline
210
0.0
220
0.0
230
1.0
 70
    24
 71
     3
 72
     8
 73
     4
 74
     0
 42
0.0000000001
 43
0.0000000001
 40
0.0
 40
0.0
 40
0.0
 40
0.0
 40
1.0
 40
1.0
 40
1.0
 40
1.0
 10
-7.2991
 20
20.8595
 30
0.0
 10
-7.2991
 20
20.8595
 30
0.0
 10
-7.2991
 20
22.5443
 30
0.0
 10
-7.2991
 20
22.5443
 30
0.0
  0
SPLINE
  5
71
330
1F
100
AcDbEntity
  8
ROUND
 62
   250
370
    15
100
AcDbSpline
210
0.0
220
0.0
230
1.0
 70
    24
 71
     3
 72
     8
 73
     4
 74
     0
 42
0.0000000001
 43
0.0000000001
 40
0.0
 40
0.0
 40
0.0
 40
0.0
 40
1.0
 40
1.0
 40
1.0
 40
1.0
 10
-7.299
 20
21.7751
 30
0.0
 10
-7.299
 20
21.7751
 30
0.0
 10
-26.3361
 20
21.7751
 30
0.0
 10
-26.3361
 20
21.7751
 30
0.0
  0
SPLINE
  5
72
330
1F
100
AcDbEntity
  8
ROUND
 62
   250
370
    15
100
AcDbSpline
210
0.0
220
0.0
230
1.0
 70
    24
 71
     3
 72
     8
 73
     4
 74
     0
 42
0.0000000001
 43
0.0000000001
 40
0.0
 40
0.0
 40
0.0
 40
0.0
 40
1.0
 40
1.0
 40
1.0
 40
1.0
 10
-27.3111
 20
-11.3463
 30
0.0
 10
-27.3111
 20
-11.3463
 30
0.0
 10
-31.5405
 20
-11.3463
 30
0.0
 10
-31.5405
 20
-11.3463
 30
0.0
  0
SPLINE
  5
73
330
1F
100
AcDbEntity
  8
ROUND
 62
   250
370
    15
100
AcDbSpline
210
0.0
220
0.0
230
1.0
 70
    24
 71
     3
 72
     8
 73
     4
 74
     0
 42
0.0000000001
 43
0.0000000001
 40
0.0
 40
0.0
 40
0.0
 40
0.0
 40
1.0
 40
1.0
 40
1.0
 40
1.0
 10
-27.1111
 20
2.0511
 30
0.0
 10
-27.1111
 20
2.0511
 30
0.0
 10
-31.5405
 20
2.0511
 30
0.0
 10
-31.5405
 20
2.0511
 30
0.0
  0
SPLINE
  5
74
330
1F
100
AcDbEntity
  8
ROUND
 62
   250
370
    15
100
AcDbSpline
210
0.0
220
0.0
230
1.0
 70
    24
 71
     3
 72
     8
 73
     4
 74
     0
 42
0.0000000001
 43
0.0000000001
 40
0.0
 40
0.0
 40
0.0
 40
0.0
 40
1.0
 40
1.0
 40
1.0
 40
1.0
 10
-30.6217
 20
1.0522
 30
0.0
 10
-30.6217
 20
1.0522
 30
0.0
 10
-30.6217
 20
-10.3461
 30
0.0
 10
-30.6217
 20
-10.3461
 30
0.0
  0
SPLINE
  5
75
330
1F
100
AcDbEntity
  8
ROUND
  6
New Line1
 62
   250
370
    15
100
AcDbSpline
210
0.0
220
0.0
230
1.0
 70
    24
 71
     3
 72
     8
 73
     4
 74
     0
 42
0.0000000001
 43
0.0000000001
 40
0.0
 40
0.0
 40
0.0
 40
0.0
 40
1.0
 40
1.0
 40
1.0
 40
1.0
 10
-27.3952
 20
-4.6474
 30
0.0
 10
-27.3952
 20
-4.6474
 30
0.0
 10
22.8453
 20
-4.6474
 30
0.0
 10
22.8453
 20
-4.6474
 30
0.0
  0
SPLINE
  5
77
330
1F
100
AcDbEntity
  8
ROUND
 62
   250
100
AcDbSpline
210
0.0
220
0.0
230
1.0
 70
    11
 71
     3
 72
   124
 73
   120
 74
     0
 42
0.0000000001
 43
0.0000000001
 40
0.0
 40
0.0
 40
0.0
 40
0.0
 40
0.032258064516129
 40
0.032258064516129
 40
0.032258064516129
 40
0.032258064516129
 40
0.0645161290322581
 40
0.0645161290322581
 40
0.0645161290322581
 40
0.0645161290322581
 40
0.0967741935483871
 40
0.0967741935483871
 40
0.0967741935483871
 40
0.0967741935483871
 40
0.1290322580645161
 40
0.1290322580645161
 40
0.1290322580645161
 40
0.1290322580645161
 40
0.1612903225806452
 40
0.1612903225806452
 40
0.1612903225806452
 40
0.1612903225806452
 40
0.1935483870967742
 40
0.1935483870967742
 40
0.1935483870967742
 40
0.1935483870967742
 40
0.2258064516129032
 40
0.2258064516129032
 40
0.2258064516129032
 40
0.2258064516129032
 40
0.2580645161290323
 40
0.2580645161290323
 40
0.2580645161290323
 40
0.2580645161290323
 40
0.2903225806451613
 40
0.2903225806451613
 40
0.2903225806451613
 40
0.2903225806451613
 40
0.3225806451612903
 40
0.3225806451612903
 40
0.3225806451612903
 40
0.3225806451612903
 40
0.3548387096774194
 40
0.3548387096774194
 40
0.3548387096774194
 40
0.3548387096774194
 40
0.3870967741935484
 40
0.3870967741935484
 40
0.3870967741935484
 40
0.3870967741935484
 40
0.4193548387096774
 40
0.4193548387096774
 40
0.4193548387096774
 40
0.4193548387096774
 40
0.4516129032258064
 40
0.4516129032258064
 40
0.4516129032258064
 40
0.4516129032258064
 40
0.4838709677419355
 40
0.4838709677419355
 40
0.4838709677419355
 40
0.4838709677419355
 40
0.5161290322580645
 40
0.5161290322580645
 40
0.5161290322580645
 40
0.5161290322580645
 40
0.5483870967741935
 40
0.5483870967741935
 40
0.5483870967741935
 40
0.5483870967741935
 40
0.5806451612903226
 40
0.5806451612903226
 40
0.5806451612903226
 40
0.5806451612903226
 40
0.6129032258064516
 40
0.6129032258064516
 40
0.6129032258064516
 40
0.6129032258064516
 40
0.6451612903225806
 40
0.6451612903225806
 40
0.6451612903225806
 40
0.6451612903225806
 40
0.6774193548387096
 40
0.6774193548387096
 40
0.6774193548387096
 40
0.6774193548387096
 40
0.7096774193548387
 40
0.7096774193548387
 40
0.7096774193548387
 40
0.7096774193548387
 40
0.7419354838709677
 40
0.7419354838709677
 40
0.7419354838709677
 40
0.7419354838709677
 40
0.7741935483870968
 40
0.7741935483870968
 40
0.7741935483870968
 40
0.7741935483870968
 40
0.8064516129032258
 40
0.8064516129032258
 40
0.8064516129032258
 40
0.8064516129032258
 40
0.8387096774193549
 40
0.8387096774193549
 40
0.8387096774193549
 40
0.8387096774193549
 40
0.8709677419354839
 40
0.8709677419354839
 40
0.8709677419354839
 40
0.8709677419354839
 40
0.9032258064516129
 40
0.9032258064516129
 40
0.9032258064516129
 40
0.9032258064516129
 40
0.9354838709677419
 40
0.9354838709677419
 40
0.9354838709677419
 40
0.9354838709677419
 40
1.0
 40
1.0
 40
1.0
 40
1.0
 10
16.8274
 20
12.2975
 30
0.0
 10
16.8274
 20
12.2975
 30
0.0
 10
16.8274
 20
12.5808
 30
0.0
 10
16.8274
 20
12.5808
 30
0.0
 10
16.8274
 20
12.5808
 30
0.0
 10
16.8274
 20
12.5808
 30
0.0
 10
15.6982
 20
12.5808
 30
0.0
 10
15.6982
 20
12.5808
 30
0.0
 10
15.6982
 20
12.5808
 30
0.0
 10
15.6982
 20
12.5808
 30
0.0
 10
15.6982
 20
12.5885
 30
0.0
 10
15.6982
 20
12.5885
 30
0.0
 10
15.6982
 20
12.5885
 30
0.0
 10
15.6982
 20
12.5885
 30
0.0
 10
15.8961
 20
12.7748
 30
0.0
 10
15.8961
 20
12.7748
 30
0.0
 10
15.8961
 20
12.7748
 30
0.0
 10
16.0293
 20
12.9022
 30
0.0
 10
16.1496
 20
13.0232
 30
0.0
 10
16.2563
 20
13.137
 30
0.0
 10
16.2563
 20
13.137
 30
0.0
 10
16.3631
 20
13.2508
 30
0.0
 10
16.4543
 20
13.3621
 30
0.0
 10
16.5299
 20
13.4694
 30
0.0
 10
16.5299
 20
13.4694
 30
0.0
 10
16.6062
 20
13.5768
 30
0.0
 10
16.6638
 20
13.6848
 30
0.0
 10
16.7045
 20
13.7934
 30
0.0
 10
16.7045
 20
13.7934
 30
0.0
 10
16.7446
 20
13.9014
 30
0.0
 10
16.7647
 20
14.0133
 30
0.0
 10
16.7653
 20
14.1291
 30
0.0
 10
16.7653
 20
14.1291
 30
0.0
 10
16.7653
 20
14.2203
 30
0.0
 10
16.7511
 20
14.3095
 30
0.0
 10
16.7214
 20
14.3962
 30
0.0
 10
16.7214
 20
14.3962
 30
0.0
 10
16.6916
 20
14.4829
 30
0.0
 10
16.645
 20
14.5611
 30
0.0
 10
16.583
 20
14.631
 30
0.0
 10
16.583
 20
14.631
 30
0.0
 10
16.5209
 20
14.7015
 30
0.0
 10
16.4407
 20
14.7571
 30
0.0
 10
16.343
 20
14.7985
 30
0.0
 10
16.343
 20
14.7985
 30
0.0
 10
16.2454
 20
14.8405
 30
0.0
 10
16.1289
 20
14.8619
 30
0.0
 10
15.9931
 20
14.8625
 30
0.0
 10
15.9931
 20
14.8625
 30
0.0
 10
15.8974
 20
14.8619
 30
0.0
 10
15.8062
 20
14.8509
 30
0.0
 10
15.7195
 20
14.8282
 30
0.0
 10
15.7195
 20
14.8282
 30
0.0
 10
15.6329
 20
14.8056
 30
0.0
 10
15.5527
 20
14.7752
 30
0.0
 10
15.479
 20
14.7364
 30
0.0
 10
15.479
 20
14.7364
 30
0.0
 10
15.4059
 20
14.6982
 30
0.0
 10
15.3406
 20
14.6549
 30
0.0
 10
15.283
 20
14.6064
 30
0.0
 10
15.283
 20
14.6064
 30
0.0
 10
15.283
 20
14.6064
 30
0.0
 10
15.3916
 20
14.3658
 30
0.0
 10
15.3916
 20
14.3658
 30
0.0
 10
15.3916
 20
14.3658
 30
0.0
 10
15.4305
 20
14.3988
 30
0.0
 10
15.477
 20
14.4318
 30
0.0
 10
15.5313
 20
14.4641
 30
0.0
 10
15.5313
 20
14.4641
 30
0.0
 10
15.5857
 20
14.4971
 30
0.0
 10
15.6458
 20
14.5236
 30
0.0
 10
15.7124
 20
14.5456
 30
0.0
 10
15.7124
 20
14.5456
 30
0.0
 10
15.779
 20
14.5669
 30
0.0
 10
15.8508
 20
14.5786
 30
0.0
 10
15.9272
 20
14.5792
 30
0.0
 10
15.9272
 20
14.5792
 30
0.0
 10
16.0209
 20
14.5786
 30
0.0
 10
16.0998
 20
14.565
 30
0.0
 10
16.1639
 20
14.5385
 30
0.0
 10
16.1639
 20
14.5385
 30
0.0
 10
16.2272
 20
14.5113
 30
0.0
 10
16.2783
 20
14.4751
 30
0.0
 10
16.3165
 20
14.4292
 30
0.0
 10
16.3165
 20
14.4292
 30
0.0
 10
16.3547
 20
14.3826
 30
0.0
 10
16.3825
 20
14.3302
 30
0.0
 10
16.3993
 20
14.2714
 30
0.0
 10
16.3993
 20
14.2714
 30
0.0
 10
16.4161
 20
14.2125
 30
0.0
 10
16.4245
 20
14.1511
 30
0.0
 10
16.4239
 20
14.0864
 30
0.0
 10
16.4239
 20
14.0864
 30
0.0
 10
16.4239
 20
13.992
 30
0.0
 10
16.4051
 20
13.8989
 30
0.0
 10
16.3676
 20
13.8064
 30
0.0
 10
16.3676
 20
13.8064
 30
0.0
 10
16.3301
 20
13.7132
 30
0.0
 10
16.2732
 20
13.6162
 30
0.0
 10
16.1962
 20
13.514
 30
0.0
 10
16.1962
 20
13.514
 30
0.0
 10
16.1192
 20
13.4119
 30
0.0
 10
16.0216
 20
13.3
 30
0.0
 10
15.9032
 20
13.1784
 30
0.0
 10
15.9032
 20
13.1784
 30
0.0
 10
15.7855
 20
13.0568
 30
0.0
 10
15.6458
 20
12.9197
 30
0.0
 10
15.4848
 20
12.767
 30
0.0
 10
15.4848
 20
12.767
 30
0.0
 10
15.4848
 20
12.767
 30
0.0
 10
15.217
 20
12.507
 30
0.0
 10
15.217
 20
12.507
 30
0.0
 10
15.217
 20
12.507
 30
0.0
 10
15.217
 20
12.507
 30
0.0
 10
15.217
 20
12.2975
 30
0.0
 10
15.217
 20
12.2975
 30
0.0
 10
15.217
 20
12.2975
 30
0.0
 10
15.217
 20
12.2975
 30
0.0
 10
16.8274
 20
12.2975
 30
0.0
 10
16.8274
 20
12.2975
 30
0.0
  0
SPLINE
  5
78
330
1F
100
AcDbEntity
  8
ROUND
 62
   250
100
AcDbSpline
210
0.0
220
0.0
230
1.0
 70
    11
 71
     3
 72
   124
 73
   120
 74
     0
 42
0.0000000001
 43
0.0000000001
 40
0.0
 40
0.0
 40
0.0
 40
0.0
 40
0.032258064516129
 40
0.032258064516129
 40
0.032258064516129
 40
0.032258064516129
 40
0.0645161290322581
 40
0.0645161290322581
 40
0.0645161290322581
 40
0.0645161290322581
 40
0.0967741935483871
 40
0.0967741935483871
 40
0.0967741935483871
 40
0.0967741935483871
 40
0.1290322580645161
 40
0.1290322580645161
 40
0.1290322580645161
 40
0.1290322580645161
 40
0.1612903225806452
 40
0.1612903225806452
 40
0.1612903225806452
 40
0.1612903225806452
 40
0.1935483870967742
 40
0.1935483870967742
 40
0.1935483870967742
 40
0.1935483870967742
 40
0.2258064516129032
 40
0.2258064516129032
 40
0.2258064516129032
 40
0.2258064516129032
 40
0.2580645161290323
 40
0.2580645161290323
 40
0.2580645161290323
 40
0.2580645161290323
 40
0.2903225806451613
 40
0.2903225806451613
 40
0.2903225806451613
 40
0.2903225806451613
 40
0.3225806451612903
 40
0.3225806451612903
 40
0.3225806451612903
 40
0.3225806451612903
 40
0.3548387096774194
 40
0.3548387096774194
 40
0.3548387096774194
 40
0.3548387096774194
 40
0.3870967741935484
 40
0.3870967741935484
 40
0.3870967741935484
 40
0.3870967741935484
 40
0.4193548387096774
 40
0.4193548387096774
 40
0.4193548387096774
 40
0.4193548387096774
 40
0.4516129032258064
 40
0.4516129032258064
 40
0.4516129032258064
 40
0.4516129032258064
 40
0.4838709677419355
 40
0.4838709677419355
 40
0.4838709677419355
 40
0.4838709677419355
 40
0.5161290322580645
 40
0.5161290322580645
 40
0.5161290322580645
 40
0.5161290322580645
 40
0.5483870967741935
 40
0.5483870967741935
 40
0.5483870967741935
 40
0.5483870967741935
 40
0.5806451612903226
 40
0.5806451612903226
 40
0.5806451612903226
 40
0.5806451612903226
 40
0.6129032258064516
 40
0.6129032258064516
 40
0.6129032258064516
 40
0.6129032258064516
 40
0.6451612903225806
 40
0.6451612903225806
 40
0.6451612903225806
 40
0.6451612903225806
 40
0.6774193548387096
 40
0.6774193548387096
 40
0.6774193548387096
 40
0.6774193548387096
 40
0.7096774193548387
 40
0.7096774193548387
 40
0.7096774193548387
 40
0.7096774193548387
 40
0.7419354838709677
 40
0.7419354838709677
 40
0.7419354838709677
 40
0.7419354838709677
 40
0.7741935483870968
 40
0.7741935483870968
 40
0.7741935483870968
 40
0.7741935483870968
 40
0.8064516129032258
 40
0.8064516129032258
 40
0.8064516129032258
 40
0.8064516129032258
 40
0.8387096774193549
 40
0.8387096774193549
 40
0.8387096774193549
 40
0.8387096774193549
 40
0.8709677419354839
 40
0.8709677419354839
 40
0.8709677419354839
 40
0.8709677419354839
 40
0.9032258064516129
 40
0.9032258064516129
 40
0.9032258064516129
 40
0.9032258064516129
 40
0.9354838709677419
 40
0.9354838709677419
 40
0.9354838709677419
 40
0.9354838709677419
 40
1.0
 40
1.0
 40
1.0
 40
1.0
 10
18.8181
 20
12.2975
 30
0.0
 10
18.8181
 20
12.2975
 30
0.0
 10
18.8181
 20
12.5808
 30
0.0
 10
18.8181
 20
12.5808
 30
0.0
 10
18.8181
 20
12.5808
 30
0.0
 10
18.8181
 20
12.5808
 30
0.0
 10
17.6889
 20
12.5808
 30
0.0
 10
17.6889
 20
12.5808
 30
0.0
 10
17.6889
 20
12.5808
 30
0.0
 10
17.6889
 20
12.5808
 30
0.0
 10
17.6889
 20
12.5885
 30
0.0
 10
17.6889
 20
12.5885
 30
0.0
 10
17.6889
 20
12.5885
 30
0.0
 10
17.6889
 20
12.5885
 30
0.0
 10
17.8868
 20
12.7748
 30
0.0
 10
17.8868
 20
12.7748
 30
0.0
 10
17.8868
 20
12.7748
 30
0.0
 10
18.02
 20
12.9022
 30
0.0
 10
18.1403
 20
13.0232
 30
0.0
 10
18.247
 20
13.137
 30
0.0
 10
18.247
 20
13.137
 30
0.0
 10
18.3538
 20
13.2508
 30
0.0
 10
18.445
 20
13.3621
 30
0.0
 10
18.5206
 20
13.4694
 30
0.0
 10
18.5206
 20
13.4694
 30
0.0
 10
18.5969
 20
13.5768
 30
0.0
 10
18.6545
 20
13.6848
 30
0.0
 10
18.6952
 20
13.7934
 30
0.0
 10
18.6952
 20
13.7934
 30
0.0
 10
18.7353
 20
13.9014
 30
0.0
 10
18.7554
 20
14.0133
 30
0.0
 10
18.756
 20
14.1291
 30
0.0
 10
18.756
 20
14.1291
 30
0.0
 10
18.756
 20
14.2203
 30
0.0
 10
18.7418
 20
14.3095
 30
0.0
 10
18.7121
 20
14.3962
 30
0.0
 10
18.7121
 20
14.3962
 30
0.0
 10
18.6823
 20
14.4829
 30
0.0
 10
18.6357
 20
14.5611
 30
0.0
 10
18.5737
 20
14.631
 30
0.0
 10
18.5737
 20
14.631
 30
0.0
 10
18.5116
 20
14.7015
 30
0.0
 10
18.4314
 20
14.7571
 30
0.0
 10
18.3337
 20
14.7985
 30
0.0
 10
18.3337
 20
14.7985
 30
0.0
 10
18.2361
 20
14.8405
 30
0.0
 10
18.1196
 20
14.8619
 30
0.0
 10
17.9838
 20
14.8625
 30
0.0
 10
17.9838
 20
14.8625
 30
0.0
 10
17.8881
 20
14.8619
 30
0.0
 10
17.7969
 20
14.8509
 30
0.0
 10
17.7102
 20
14.8282
 30
0.0
 10
17.7102
 20
14.8282
 30
0.0
 10
17.6236
 20
14.8056
 30
0.0
 10
17.5434
 20
14.7752
 30
0.0
 10
17.4697
 20
14.7364
 30
0.0
 10
17.4697
 20
14.7364
 30
0.0
 10
17.3966
 20
14.6982
 30
0.0
 10
17.3313
 20
14.6549
 30
0.0
 10
17.2737
 20
14.6064
 30
0.0
 10
17.2737
 20
14.6064
 30
0.0
 10
17.2737
 20
14.6064
 30
0.0
 10
17.3823
 20
14.3658
 30
0.0
 10
17.3823
 20
14.3658
 30
0.0
 10
17.3823
 20
14.3658
 30
0.0
 10
17.4212
 20
14.3988
 30
0.0
 10
17.4677
 20
14.4318
 30
0.0
 10
17.522
 20
14.4641
 30
0.0
 10
17.522
 20
14.4641
 30
0.0
 10
17.5764
 20
14.4971
 30
0.0
 10
17.6365
 20
14.5236
 30
0.0
 10
17.7031
 20
14.5456
 30
0.0
 10
17.7031
 20
14.5456
 30
0.0
 10
17.7697
 20
14.5669
 30
0.0
 10
17.8415
 20
14.5786
 30
0.0
 10
17.9179
 20
14.5792
 30
0.0
 10
17.9179
 20
14.5792
 30
0.0
 10
18.0116
 20
14.5786
 30
0.0
 10
18.0905
 20
14.565
 30
0.0
 10
18.1546
 20
14.5385
 30
0.0
 10
18.1546
 20
14.5385
 30
0.0
 10
18.2179
 20
14.5113
 30
0.0
 10
18.269
 20
14.4751
 30
0.0
 10
18.3072
 20
14.4292
 30
0.0
 10
18.3072
 20
14.4292
 30
0.0
 10
18.3454
 20
14.3826
 30
0.0
 10
18.3732
 20
14.3302
 30
0.0
 10
18.39
 20
14.2714
 30
0.0
 10
18.39
 20
14.2714
 30
0.0
 10
18.4068
 20
14.2125
 30
0.0
 10
18.4152
 20
14.1511
 30
0.0
 10
18.4146
 20
14.0864
 30
0.0
 10
18.4146
 20
14.0864
 30
0.0
 10
18.4146
 20
13.992
 30
0.0
 10
18.3958
 20
13.8989
 30
0.0
 10
18.3583
 20
13.8064
 30
0.0
 10
18.3583
 20
13.8064
 30
0.0
 10
18.3208
 20
13.7132
 30
0.0
 10
18.2639
 20
13.6162
 30
0.0
 10
18.1869
 20
13.514
 30
0.0
 10
18.1869
 20
13.514
 30
0.0
 10
18.1099
 20
13.4119
 30
0.0
 10
18.0123
 20
13.3
 30
0.0
 10
17.8939
 20
13.1784
 30
0.0
 10
17.8939
 20
13.1784
 30
0.0
 10
17.7762
 20
13.0568
 30
0.0
 10
17.6365
 20
12.9197
 30
0.0
 10
17.4755
 20
12.767
 30
0.0
 10
17.4755
 20
12.767
 30
0.0
 10
17.4755
 20
12.767
 30
0.0
 10
17.2077
 20
12.507
 30
0.0
 10
17.2077
 20
12.507
 30
0.0
 10
17.2077
 20
12.507
 30
0.0
 10
17.2077
 20
12.507
 30
0.0
 10
17.2077
 20
12.2975
 30
0.0
 10
17.2077
 20
12.2975
 30
0.0
 10
17.2077
 20
12.2975
 30
0.0
 10
17.2077
 20
12.2975
 30
0.0
 10
18.8181
 20
12.2975
 30
0.0
 10
18.8181
 20
12.2975
 30
0.0
  0
SPLINE
  5
79
330
1F
100
AcDbEntity
  8
ROUND
 62
   250
100
AcDbSpline
210
0.0
220
0.0
230
1.0
 70
    11
 71
     3
 72
    36
 73
    32
 74
     0
 42
0.0000000001
 43
0.0000000001
 40
0.0
 40
0.0
 40
0.0
 40
0.0
 40
0.1111111111111111
 40
0.1111111111111111
 40
0.1111111111111111
 40
0.1111111111111111
 40
0.2222222222222222
 40
0.2222222222222222
 40
0.2222222222222222
 40
0.2222222222222222
 40
0.3333333333333333
 40
0.3333333333333333
 40
0.3333333333333333
 40
0.3333333333333333
 40
0.4444444444444444
 40
0.4444444444444444
 40
0.4444444444444444
 40
0.4444444444444444
 40
0.5555555555555556
 40
0.5555555555555556
 40
0.5555555555555556
 40
0.5555555555555556
 40
0.6666666666666666
 40
0.6666666666666666
 40
0.6666666666666666
 40
0.6666666666666666
 40
0.7777777777777778
 40
0.7777777777777778
 40
0.7777777777777778
 40
0.7777777777777778
 40
1.0
 40
1.0
 40
1.0
 40
1.0
 10
-3.2807
 20
-22.7313
 30
0.0
 10
-3.2807
 20
-22.7313
 30
0.0
 10
-2.9509
 20
-22.7313
 30
0.0
 10
-2.9509
 20
-22.7313
 30
0.0
 10
-2.9509
 20
-22.7313
 30
0.0
 10
-2.9509
 20
-22.7313
 30
0.0
 10
-2.9509
 20
-20.209
 30
0.0
 10
-2.9509
 20
-20.209
 30
0.0
 10
-2.9509
 20
-20.209
 30
0.0
 10
-2.9509
 20
-20.209
 30
0.0
 10
-3.2419
 20
-20.209
 30
0.0
 10
-3.2419
 20
-20.209
 30
0.0
 10
-3.2419
 20
-20.209
 30
0.0
 10
-3.2419
 20
-20.209
 30
0.0
 10
-3.7929
 20
-20.5039
 30
0.0
 10
-3.7929
 20
-20.5039
 30
0.0
 10
-3.7929
 20
-20.5039
 30
0.0
 10
-3.7929
 20
-20.5039
 30
0.0
 10
-3.727
 20
-20.7639
 30
0.0
 10
-3.727
 20
-20.7639
 30
0.0
 10
-3.727
 20
-20.7639
 30
0.0
 10
-3.727
 20
-20.7639
 30
0.0
 10
-3.2885
 20
-20.5272
 30
0.0
 10
-3.2885
 20
-20.5272
 30
0.0
 10
-3.2885
 20
-20.5272
 30
0.0
 10
-3.2885
 20
-20.5272
 30
0.0
 10
-3.2807
 20
-20.5272
 30
0.0
 10
-3.2807
 20
-20.5272
 30
0.0
 10
-3.2807
 20
-20.5272
 30
0.0
 10
-3.2807
 20
-20.5272
 30
0.0
 10
-3.2807
 20
-22.7313
 30
0.0
 10
-3.2807
 20
-22.7313
 30
0.0
  0
SPLINE
  5
7A
330
1F
100
AcDbEntity
  8
ROUND
 62
   250
100
AcDbSpline
210
0.0
220
0.0
230
1.0
 70
    11
 71
     3
 72
    56
 73
    52
 74
     0
 42
0.0000000001
 43
0.0000000001
 40
0.0
 40
0.0
 40
0.0
 40
0.0
 40
0.0714285714285714
 40
0.0714285714285714
 40
0.0714285714285714
 40
0.0714285714285714
 40
0.1428571428571428
 40
0.1428571428571428
 40
0.1428571428571428
 40
0.1428571428571428
 40
0.2142857142857143
 40
0.2142857142857143
 40
0.2142857142857143
 40
0.2142857142857143
 40
0.2857142857142857
 40
0.2857142857142857
 40
0.2857142857142857
 40
0.2857142857142857
 40
0.3571428571428572
 40
0.3571428571428572
 40
0.3571428571428572
 40
0.3571428571428572
 40
0.4285714285714285
 40
0.4285714285714285
 40
0.4285714285714285
 40
0.4285714285714285
 40
0.5
 40
0.5
 40
0.5
 40
0.5
 40
0.5714285714285714
 40
0.5714285714285714
 40
0.5714285714285714
 40
0.5714285714285714
 40
0.6428571428571429
 40
0.6428571428571429
 40
0.6428571428571429
 40
0.6428571428571429
 40
0.7142857142857143
 40
0.7142857142857143
 40
0.7142857142857143
 40
0.7142857142857143
 40
0.7857142857142857
 40
0.7857142857142857
 40
0.7857142857142857
 40
0.7857142857142857
 40
0.8571428571428571
 40
0.8571428571428571
 40
0.8571428571428571
 40
0.8571428571428571
 40
1.0
 40
1.0
 40
1.0
 40
1.0
 10
-1.1852
 20
-20.1663
 30
0.0
 10
-1.3139
 20
-20.1663
 30
0.0
 10
-1.4316
 20
-20.1947
 30
0.0
 10
-1.539
 20
-20.2517
 30
0.0
 10
-1.539
 20
-20.2517
 30
0.0
 10
-1.6464
 20
-20.3086
 30
0.0
 10
-1.7388
 20
-20.392
 30
0.0
 10
-1.8177
 20
-20.5032
 30
0.0
 10
-1.8177
 20
-20.5032
 30
0.0
 10
-1.8967
 20
-20.6145
 30
0.0
 10
-1.9574
 20
-20.7516
 30
0.0
 10
-2.0008
 20
-20.9146
 30
0.0
 10
-2.0008
 20
-20.9146
 30
0.0
 10
-2.0435
 20
-21.0776
 30
0.0
 10
-2.0655
 20
-21.2651
 30
0.0
 10
-2.0661
 20
-21.4779
 30
0.0
 10
-2.0661
 20
-21.4779
 30
0.0
 10
-2.0622
 20
-21.7566
 30
0.0
 10
-2.0254
 20
-21.9921
 30
0.0
 10
-1.9549
 20
-22.1848
 30
0.0
 10
-1.9549
 20
-22.1848
 30
0.0
 10
-1.8844
 20
-22.3775
 30
0.0
 10
-1.7867
 20
-22.5237
 30
0.0
 10
-1.6625
 20
-22.6233
 30
0.0
 10
-1.6625
 20
-22.6233
 30
0.0
 10
-1.5384
 20
-22.7229
 30
0.0
 10
-1.3935
 20
-22.7733
 30
0.0
 10
-1.2279
 20
-22.774
 30
0.0
 10
-1.2279
 20
-22.774
 30
0.0
 10
-1.0423
 20
-22.7733
 30
0.0
 10
-0.8845
 20
-22.7216
 30
0.0
 10
-0.7538
 20
-22.6194
 30
0.0
 10
-0.7538
 20
-22.6194
 30
0.0
 10
-0.6232
 20
-22.5172
 30
0.0
 10
-0.5236
 20
-22.3672
 30
0.0
 10
-0.455
 20
-22.1693
 30
0.0
 10
-0.455
 20
-22.1693
 30
0.0
 10
-0.3858
 20
-21.9714
 30
0.0
 10
-0.3516
 20
-21.7295
 30
0.0
 10
-0.3509
 20
-21.443
 30
0.0
 10
-0.3509
 20
-21.443
 30
0.0
 10
-0.3516
 20
-21.1746
 30
0.0
 10
-0.3846
 20
-20.945
 30
0.0
 10
-0.4499
 20
-20.7548
 30
0.0
 10
-0.4499
 20
-20.7548
 30
0.0
 10
-0.5152
 20
-20.5647
 30
0.0
 10
-0.6103
 20
-20.4192
 30
0.0
 10
-0.7344
 20
-20.3189
 30
0.0
 10
-0.7344
 20
-20.3189
 30
0.0
 10
-0.8586
 20
-20.218
 30
0.0
 10
-1.0087
 20
-20.1669
 30
0.0
 10
-1.1852
 20
-20.1663
 30
0.0
  0
SPLINE
  5
7B
330
1F
100
AcDbEntity
  8
ROUND
 62
   250
100
AcDbSpline
210
0.0
220
0.0
230
1.0
 70
    11
 71
     3
 72
    56
 73
    52
 74
     0
 42
0.0000000001
 43
0.0000000001
 40
0.0
 40
0.0
 40
0.0
 40
0.0
 40
0.0714285714285714
 40
0.0714285714285714
 40
0.0714285714285714
 40
0.0714285714285714
 40
0.1428571428571428
 40
0.1428571428571428
 40
0.1428571428571428
 40
0.1428571428571428
 40
0.2142857142857143
 40
0.2142857142857143
 40
0.2142857142857143
 40
0.2142857142857143
 40
0.2857142857142857
 40
0.2857142857142857
 40
0.2857142857142857
 40
0.2857142857142857
 40
0.3571428571428572
 40
0.3571428571428572
 40
0.3571428571428572
 40
0.3571428571428572
 40
0.4285714285714285
 40
0.4285714285714285
 40
0.4285714285714285
 40
0.4285714285714285
 40
0.5
 40
0.5
 40
0.5
 40
0.5
 40
0.5714285714285714
 40
0.5714285714285714
 40
0.5714285714285714
 40
0.5714285714285714
 40
0.6428571428571429
 40
0.6428571428571429
 40
0.6428571428571429
 40
0.6428571428571429
 40
0.7142857142857143
 40
0.7142857142857143
 40
0.7142857142857143
 40
0.7142857142857143
 40
0.7857142857142857
 40
0.7857142857142857
 40
0.7857142857142857
 40
0.7857142857142857
 40
0.8571428571428571
 40
0.8571428571428571
 40
0.8571428571428571
 40
0.8571428571428571
 40
1.0
 40
1.0
 40
1.0
 40
1.0
 10
-1.2085
 20
-20.4302
 30
0.0
 10
-1.1193
 20
-20.4308
 30
0.0
 10
-1.0423
 20
-20.4547
 30
0.0
 10
-0.9776
 20
-20.5032
 30
0.0
 10
-0.9776
 20
-20.5032
 30
0.0
 10
-0.9129
 20
-20.5518
 30
0.0
 10
-0.8599
 20
-20.621
 30
0.0
 10
-0.8185
 20
-20.7115
 30
0.0
 10
-0.8185
 20
-20.7115
 30
0.0
 10
-0.7771
 20
-20.8014
 30
0.0
 10
-0.7461
 20
-20.9101
 30
0.0
 10
-0.726
 20
-21.0355
 30
0.0
 10
-0.726
 20
-21.0355
 30
0.0
 10
-0.706
 20
-21.1616
 30
0.0
 10
-0.6963
 20
-21.3026
 30
0.0
 10
-0.6963
 20
-21.4585
 30
0.0
 10
-0.6963
 20
-21.4585
 30
0.0
 10
-0.6963
 20
-21.6745
 30
0.0
 10
-0.715
 20
-21.8608
 30
0.0
 10
-0.7526
 20
-22.0173
 30
0.0
 10
-0.7526
 20
-22.0173
 30
0.0
 10
-0.7894
 20
-22.1744
 30
0.0
 10
-0.8463
 20
-22.2954
 30
0.0
 10
-0.922
 20
-22.3808
 30
0.0
 10
-0.922
 20
-22.3808
 30
0.0
 10
-0.9977
 20
-22.4661
 30
0.0
 10
-1.0934
 20
-22.5088
 30
0.0
 10
-1.2085
 20
-22.5101
 30
0.0
 10
-1.2085
 20
-22.5101
 30
0.0
 10
-1.3126
 20
-22.5095
 30
0.0
 10
-1.4025
 20
-22.4694
 30
0.0
 10
-1.4795
 20
-22.3892
 30
0.0
 10
-1.4795
 20
-22.3892
 30
0.0
 10
-1.5558
 20
-22.309
 30
0.0
 10
-1.6147
 20
-22.1926
 30
0.0
 10
-1.6567
 20
-22.0399
 30
0.0
 10
-1.6567
 20
-22.0399
 30
0.0
 10
-1.6987
 20
-21.8866
 30
0.0
 10
-1.7201
 20
-21.701
 30
0.0
 10
-1.7207
 20
-21.4818
 30
0.0
 10
-1.7207
 20
-21.4818
 30
0.0
 10
-1.7201
 20
-21.2522
 30
0.0
 10
-1.6975
 20
-21.0601
 30
0.0
 10
-1.6535
 20
-20.9036
 30
0.0
 10
-1.6535
 20
-20.9036
 30
0.0
 10
-1.6095
 20
-20.7477
 30
0.0
 10
-1.5493
 20
-20.63
 30
0.0
 10
-1.4724
 20
-20.5498
 30
0.0
 10
-1.4724
 20
-20.5498
 30
0.0
 10
-1.3954
 20
-20.4703
 30
0.0
 10
-1.3075
 20
-20.4302
 30
0.0
 10
-1.2085
 20
-20.4302
 30
0.0
  0
SPLINE
  5
7C
330
1F
100
AcDbEntity
  8
ROUND
 62
   250
100
AcDbSpline
210
0.0
220
0.0
230
1.0
 70
    11
 71
     3
 72
    36
 73
    32
 74
     0
 42
0.0000000001
 43
0.0000000001
 40
0.0
 40
0.0
 40
0.0
 40
0.0
 40
0.1111111111111111
 40
0.1111111111111111
 40
0.1111111111111111
 40
0.1111111111111111
 40
0.2222222222222222
 40
0.2222222222222222
 40
0.2222222222222222
 40
0.2222222222222222
 40
0.3333333333333333
 40
0.3333333333333333
 40
0.3333333333333333
 40
0.3333333333333333
 40
0.4444444444444444
 40
0.4444444444444444
 40
0.4444444444444444
 40
0.4444444444444444
 40
0.5555555555555556
 40
0.5555555555555556
 40
0.5555555555555556
 40
0.5555555555555556
 40
0.6666666666666666
 40
0.6666666666666666
 40
0.6666666666666666
 40
0.6666666666666666
 40
0.7777777777777778
 40
0.7777777777777778
 40
0.7777777777777778
 40
0.7777777777777778
 40
1.0
 40
1.0
 40
1.0
 40
1.0
 10
0.7007
 20
-22.7313
 30
0.0
 10
0.7007
 20
-22.7313
 30
0.0
 10
1.0305
 20
-22.7313
 30
0.0
 10
1.0305
 20
-22.7313
 30
0.0
 10
1.0305
 20
-22.7313
 30
0.0
 10
1.0305
 20
-22.7313
 30
0.0
 10
1.0305
 20
-20.209
 30
0.0
 10
1.0305
 20
-20.209
 30
0.0
 10
1.0305
 20
-20.209
 30
0.0
 10
1.0305
 20
-20.209
 30
0.0
 10
0.7395
 20
-20.209
 30
0.0
 10
0.7395
 20
-20.209
 30
0.0
 10
0.7395
 20
-20.209
 30
0.0
 10
0.7395
 20
-20.209
 30
0.0
 10
0.1885
 20
-20.5039
 30
0.0
 10
0.1885
 20
-20.5039
 30
0.0
 10
0.1885
 20
-20.5039
 30
0.0
 10
0.1885
 20
-20.5039
 30
0.0
 10
0.2544
 20
-20.7639
 30
0.0
 10
0.2544
 20
-20.7639
 30
0.0
 10
0.2544
 20
-20.7639
 30
0.0
 10
0.2544
 20
-20.7639
 30
0.0
 10
0.6929
 20
-20.5272
 30
0.0
 10
0.6929
 20
-20.5272
 30
0.0
 10
0.6929
 20
-20.5272
 30
0.0
 10
0.6929
 20
-20.5272
 30
0.0
 10
0.7007
 20
-20.5272
 30
0.0
 10
0.7007
 20
-20.5272
 30
0.0
 10
0.7007
 20
-20.5272
 30
0.0
 10
0.7007
 20
-20.5272
 30
0.0
 10
0.7007
 20
-22.7313
 30
0.0
 10
0.7007
 20
-22.7313
 30
0.0
  0
SPLINE
  5
7D
330
1F
100
AcDbEntity
  8
ROUND
 62
   250
100
AcDbSpline
210
0.0
220
0.0
230
1.0
 70
    11
 71
     3
 72
   104
 73
   100
 74
     0
 42
0.0000000001
 43
0.0000000001
 40
0.0
 40
0.0
 40
0.0
 40
0.0
 40
0.0384615384615385
 40
0.0384615384615385
 40
0.0384615384615385
 40
0.0384615384615385
 40
0.0769230769230769
 40
0.0769230769230769
 40
0.0769230769230769
 40
0.0769230769230769
 40
0.1153846153846154
 40
0.1153846153846154
 40
0.1153846153846154
 40
0.1153846153846154
 40
0.1538461538461539
 40
0.1538461538461539
 40
0.1538461538461539
 40
0.1538461538461539
 40
0.1923076923076923
 40
0.1923076923076923
 40
0.1923076923076923
 40
0.1923076923076923
 40
0.2307692307692308
 40
0.2307692307692308
 40
0.2307692307692308
 40
0.2307692307692308
 40
0.2692307692307692
 40
0.2692307692307692
 40
0.2692307692307692
 40
0.2692307692307692
 40
0.3076923076923077
 40
0.3076923076923077
 40
0.3076923076923077
 40
0.3076923076923077
 40
0.3461538461538461
 40
0.3461538461538461
 40
0.3461538461538461
 40
0.3461538461538461
 40
0.3846153846153846
 40
0.3846153846153846
 40
0.3846153846153846
 40
0.3846153846153846
 40
0.4230769230769231
 40
0.4230769230769231
 40
0.4230769230769231
 40
0.4230769230769231
 40
0.4615384615384616
 40
0.4615384615384616
 40
0.4615384615384616
 40
0.4615384615384616
 40
0.5
 40
0.5
 40
0.5
 40
0.5
 40
0.5384615384615384
 40
0.5384615384615384
 40
0.5384615384615384
 40
0.5384615384615384
 40
0.5769230769230769
 40
0.5769230769230769
 40
0.5769230769230769
 40
0.5769230769230769
 40
0.6153846153846154
 40
0.6153846153846154
 40
0.6153846153846154
 40
0.6153846153846154
 40
0.6538461538461539
 40
0.6538461538461539
 40
0.6538461538461539
 40
0.6538461538461539
 40
0.6923076923076923
 40
0.6923076923076923
 40
0.6923076923076923
 40
0.6923076923076923
 40
0.7307692307692307
 40
0.7307692307692307
 40
0.7307692307692307
 40
0.7307692307692307
 40
0.7692307692307693
 40
0.7692307692307693
 40
0.7692307692307693
 40
0.7692307692307693
 40
0.8076923076923077
 40
0.8076923076923077
 40
0.8076923076923077
 40
0.8076923076923077
 40
0.8461538461538461
 40
0.8461538461538461
 40
0.8461538461538461
 40
0.8461538461538461
 40
0.8846153846153846
 40
0.8846153846153846
 40
0.8846153846153846
 40
0.8846153846153846
 40
0.9230769230769231
 40
0.9230769230769231
 40
0.9230769230769231
 40
0.9230769230769231
 40
1.0
 40
1.0
 40
1.0
 40
1.0
 10
-31.1359
 20
-6.3824
 30
0.0
 10
-31.1359
 20
-6.3824
 30
0.0
 10
-31.4697
 20
-6.1379
 30
0.0
 10
-31.4697
 20
-6.1379
 30
0.0
 10
-31.4697
 20
-6.1379
 30
0.0
 10
-31.4018
 20
-6.0441
 30
0.0
 10
-31.3494
 20
-5.9413
 30
0.0
 10
-31.3138
 20
-5.8301
 30
0.0
 10
-31.3138
 20
-5.8301
 30
0.0
 10
-31.2782
 20
-5.7182
 30
0.0
 10
-31.2601
 20
-5.6011
 30
0.0
 10
-31.2601
 20
-5.4782
 30
0.0
 10
-31.2601
 20
-5.4782
 30
0.0
 10
-31.2601
 20
-5.3521
 30
0.0
 10
-31.2789
 20
-5.2299
 30
0.0
 10
-31.3157
 20
-5.1128
 30
0.0
 10
-31.3157
 20
-5.1128
 30
0.0
 10
-31.3526
 20
-4.9958
 30
0.0
 10
-31.4076
 20
-4.8871
 30
0.0
 10
-31.4813
 20
-4.7875
 30
0.0
 10
-31.4813
 20
-4.7875
 30
0.0
 10
-31.5544
 20
-4.6873
 30
0.0
 10
-31.6462
 20
-4.5999
 30
0.0
 10
-31.7562
 20
-4.5249
 30
0.0
 10
-31.7562
 20
-4.5249
 30
0.0
 10
-31.8661
 20
-4.4505
 30
0.0
 10
-31.9942
 20
-4.3923
 30
0.0
 10
-32.141
 20
-4.3503
 30
0.0
 10
-32.141
 20
-4.3503
 30
0.0
 10
-32.2872
 20
-4.3089
 30
0.0
 10
-32.4514
 20
-4.2876
 30
0.0
 10
-32.6338
 20
-4.2869
 30
0.0
 10
-32.6338
 20
-4.2869
 30
0.0
 10
-32.7625
 20
-4.2869
 30
0.0
 10
-32.8848
 20
-4.2998
 30
0.0
 10
-33.0012
 20
-4.3264
 30
0.0
 10
-33.0012
 20
-4.3264
 30
0.0
 10
-33.1182
 20
-4.3522
 30
0.0
 10
-33.2269
 20
-4.3904
 30
0.0
 10
-33.3271
 20
-4.4402
 30
0.0
 10
-33.3271
 20
-4.4402
 30
0.0
 10
-33.4274
 20
-4.4906
 30
0.0
 10
-33.5166
 20
-4.5521
 30
0.0
 10
-33.5962
 20
-4.6245
 30
0.0
 10
-33.5962
 20
-4.6245
 30
0.0
 10
-33.5962
 20
-4.6245
 30
0.0
 10
-33.9299
 20
-4.3839
 30
0.0
 10
-33.9299
 20
-4.3839
 30
0.0
 10
-33.9299
 20
-4.3839
 30
0.0
 10
-33.9299
 20
-4.3839
 30
0.0
 10
-34.0696
 20
-4.5896
 30
0.0
 10
-34.0696
 20
-4.5896
 30
0.0
 10
-34.0696
 20
-4.5896
 30
0.0
 10
-34.0696
 20
-4.5896
 30
0.0
 10
-33.7553
 20
-4.8185
 30
0.0
 10
-33.7553
 20
-4.8185
 30
0.0
 10
-33.7553
 20
-4.8185
 30
0.0
 10
-33.8251
 20
-4.9123
 30
0.0
 10
-33.8775
 20
-5.0139
 30
0.0
 10
-33.9124
 20
-5.1238
 30
0.0
 10
-33.9124
 20
-5.1238
 30
0.0
 10
-33.9474
 20
-5.2344
 30
0.0
 10
-33.9648
 20
-5.3495
 30
0.0
 10
-33.9648
 20
-5.4705
 30
0.0
 10
-33.9648
 20
-5.4705
 30
0.0
 10
-33.9642
 20
-5.6431
 30
0.0
 10
-33.9318
 20
-5.8022
 30
0.0
 10
-33.8678
 20
-5.9491
 30
0.0
 10
-33.8678
 20
-5.9491
 30
0.0
 10
-33.8038
 20
-6.0952
 30
0.0
 10
-33.7113
 20
-6.2226
 30
0.0
 10
-33.5916
 20
-6.3313
 30
0.0
 10
-33.5916
 20
-6.3313
 30
0.0
 10
-33.472
 20
-6.4406
 30
0.0
 10
-33.3284
 20
-6.5247
 30
0.0
 10
-33.1609
 20
-6.5855
 30
0.0
 10
-33.1609
 20
-6.5855
 30
0.0
 10
-32.9934
 20
-6.6456
 30
0.0
 10
-32.8065
 20
-6.6767
 30
0.0
 10
-32.5989
 20
-6.6773
 30
0.0
 10
-32.5989
 20
-6.6773
 30
0.0
 10
-32.4682
 20
-6.6773
 30
0.0
 10
-32.3434
 20
-6.6631
 30
0.0
 10
-32.2257
 20
-6.6359
 30
0.0
 10
-32.2257
 20
-6.6359
 30
0.0
 10
-32.108
 20
-6.6087
 30
0.0
 10
-31.9987
 20
-6.5693
 30
0.0
 10
-31.8985
 20
-6.5182
 30
0.0
 10
-31.8985
 20
-6.5182
 30
0.0
 10
-31.7982
 20
-6.4665
 30
0.0
 10
-31.7083
 20
-6.4044
 30
0.0
 10
-31.6288
 20
-6.3319
 30
0.0
 10
-31.6288
 20
-6.3319
 30
0.0
 10
-31.6288
 20
-6.3319
 30
0.0
 10
-31.2912
 20
-6.5725
 30
0.0
 10
-31.2912
 20
-6.5725
 30
0.0
 10
-31.2912
 20
-6.5725
 30
0.0
 10
-31.2912
 20
-6.5725
 30
0.0
 10
-31.1359
 20
-6.3824
 30
0.0
 10
-31.1359
 20
-6.3824
 30
0.0
  0
SPLINE
  5
7E
330
1F
100
AcDbEntity
  8
ROUND
 62
   250
100
AcDbSpline
210
0.0
220
0.0
230
1.0
 70
    11
 71
     3
 72
    52
 73
    48
 74
     0
 42
0.0000000001
 43
0.0000000001
 40
0.0
 40
0.0
 40
0.0
 40
0.0
 40
0.0769230769230769
 40
0.0769230769230769
 40
0.0769230769230769
 40
0.0769230769230769
 40
0.1538461538461539
 40
0.1538461538461539
 40
0.1538461538461539
 40
0.1538461538461539
 40
0.2307692307692308
 40
0.2307692307692308
 40
0.2307692307692308
 40
0.2307692307692308
 40
0.3076923076923077
 40
0.3076923076923077
 40
0.3076923076923077
 40
0.3076923076923077
 40
0.3846153846153846
 40
0.3846153846153846
 40
0.3846153846153846
 40
0.3846153846153846
 40
0.4615384615384616
 40
0.4615384615384616
 40
0.4615384615384616
 40
0.4615384615384616
 40
0.5384615384615384
 40
0.5384615384615384
 40
0.5384615384615384
 40
0.5384615384615384
 40
0.6153846153846154
 40
0.6153846153846154
 40
0.6153846153846154
 40
0.6153846153846154
 40
0.6923076923076923
 40
0.6923076923076923
 40
0.6923076923076923
 40
0.6923076923076923
 40
0.7692307692307693
 40
0.7692307692307693
 40
0.7692307692307693
 40
0.7692307692307693
 40
0.8461538461538461
 40
0.8461538461538461
 40
0.8461538461538461
 40
0.8461538461538461
 40
1.0
 40
1.0
 40
1.0
 40
1.0
 10
-31.9159
 20
-6.134
 30
0.0
 10
-31.9159
 20
-6.134
 30
0.0
 10
-31.912
 20
-6.1418
 30
0.0
 10
-31.912
 20
-6.1418
 30
0.0
 10
-31.912
 20
-6.1418
 30
0.0
 10
-31.9787
 20
-6.1806
 30
0.0
 10
-32.0479
 20
-6.2142
 30
0.0
 10
-32.119
 20
-6.2427
 30
0.0
 10
-32.119
 20
-6.2427
 30
0.0
 10
-32.1908
 20
-6.2711
 30
0.0
 10
-32.2665
 20
-6.2931
 30
0.0
 10
-32.3479
 20
-6.3087
 30
0.0
 10
-32.3479
 20
-6.3087
 30
0.0
 10
-32.4288
 20
-6.3242
 30
0.0
 10
-32.518
 20
-6.3319
 30
0.0
 10
-32.6144
 20
-6.3319
 30
0.0
 10
-32.6144
 20
-6.3319
 30
0.0
 10
-32.7257
 20
-6.3319
 30
0.0
 10
-32.833
 20
-6.3203
 30
0.0
 10
-32.9384
 20
-6.2977
 30
0.0
 10
-32.9384
 20
-6.2977
 30
0.0
 10
-33.0432
 20
-6.2744
 30
0.0
 10
-33.1415
 20
-6.2401
 30
0.0
 10
-33.2321
 20
-6.1948
 30
0.0
 10
-33.2321
 20
-6.1948
 30
0.0
 10
-33.3232
 20
-6.1489
 30
0.0
 10
-33.4034
 20
-6.092
 30
0.0
 10
-33.472
 20
-6.0234
 30
0.0
 10
-33.472
 20
-6.0234
 30
0.0
 10
-33.5412
 20
-5.9549
 30
0.0
 10
-33.5949
 20
-5.8753
 30
0.0
 10
-33.6337
 20
-5.7848
 30
0.0
 10
-33.6337
 20
-5.7848
 30
0.0
 10
-33.6731
 20
-5.6936
 30
0.0
 10
-33.6925
 20
-5.5914
 30
0.0
 10
-33.6932
 20
-5.4782
 30
0.0
 10
-33.6932
 20
-5.4782
 30
0.0
 10
-33.6925
 20
-5.3793
 30
0.0
 10
-33.6764
 20
-5.2887
 30
0.0
 10
-33.644
 20
-5.2072
 30
0.0
 10
-33.644
 20
-5.2072
 30
0.0
 10
-33.6123
 20
-5.1251
 30
0.0
 10
-33.5677
 20
-5.0514
 30
0.0
 10
-33.5108
 20
-4.9854
 30
0.0
 10
-33.5108
 20
-4.9854
 30
0.0
 10
-33.5108
 20
-4.9854
 30
0.0
 10
-31.9159
 20
-6.134
 30
0.0
 10
-31.9159
 20
-6.134
 30
0.0
  0
SPLINE
  5
7F
330
1F
100
AcDbEntity
  8
ROUND
 62
   250
100
AcDbSpline
210
0.0
220
0.0
230
1.0
 70
    11
 71
     3
 72
    48
 73
    44
 74
     0
 42
0.0000000001
 43
0.0000000001
 40
0.0
 40
0.0
 40
0.0
 40
0.0
 40
0.0833333333333333
 40
0.0833333333333333
 40
0.0833333333333333
 40
0.0833333333333333
 40
0.1666666666666667
 40
0.1666666666666667
 40
0.1666666666666667
 40
0.1666666666666667
 40
0.25
 40
0.25
 40
0.25
 40
0.25
 40
0.3333333333333333
 40
0.3333333333333333
 40
0.3333333333333333
 40
0.3333333333333333
 40
0.4166666666666667
 40
0.4166666666666667
 40
0.4166666666666667
 40
0.4166666666666667
 40
0.5
 40
0.5
 40
0.5
 40
0.5
 40
0.5833333333333334
 40
0.5833333333333334
 40
0.5833333333333334
 40
0.5833333333333334
 40
0.6666666666666666
 40
0.6666666666666666
 40
0.6666666666666666
 40
0.6666666666666666
 40
0.75
 40
0.75
 40
0.75
 40
0.75
 40
0.8333333333333334
 40
0.8333333333333334
 40
0.8333333333333334
 40
0.8333333333333334
 40
1.0
 40
1.0
 40
1.0
 40
1.0
 10
-33.3051
 20
-4.8263
 30
0.0
 10
-33.3051
 20
-4.8263
 30
0.0
 10
-33.3051
 20
-4.8147
 30
0.0
 10
-33.3051
 20
-4.8147
 30
0.0
 10
-33.3051
 20
-4.8147
 30
0.0
 10
-33.1926
 20
-4.7474
 30
0.0
 10
-33.0788
 20
-4.7002
 30
0.0
 10
-32.9637
 20
-4.6724
 30
0.0
 10
-32.9637
 20
-4.6724
 30
0.0
 10
-32.8492
 20
-4.6446
 30
0.0
 10
-32.7354
 20
-4.631
 30
0.0
 10
-32.6222
 20
-4.6323
 30
0.0
 10
-32.6222
 20
-4.6323
 30
0.0
 10
-32.5045
 20
-4.6323
 30
0.0
 10
-32.3919
 20
-4.6446
 30
0.0
 10
-32.2839
 20
-4.6685
 30
0.0
 10
-32.2839
 20
-4.6685
 30
0.0
 10
-32.1759
 20
-4.6924
 30
0.0
 10
-32.0763
 20
-4.728
 30
0.0
 10
-31.9851
 20
-4.7746
 30
0.0
 10
-31.9851
 20
-4.7746
 30
0.0
 10
-31.8939
 20
-4.8218
 30
0.0
 10
-31.8144
 20
-4.8793
 30
0.0
 10
-31.7471
 20
-4.9479
 30
0.0
 10
-31.7471
 20
-4.9479
 30
0.0
 10
-31.6792
 20
-5.0171
 30
0.0
 10
-31.6262
 20
-5.096
 30
0.0
 10
-31.5887
 20
-5.1852
 30
0.0
 10
-31.5887
 20
-5.1852
 30
0.0
 10
-31.5512
 20
-5.2745
 30
0.0
 10
-31.5324
 20
-5.3735
 30
0.0
 10
-31.5317
 20
-5.4821
 30
0.0
 10
-31.5317
 20
-5.4821
 30
0.0
 10
-31.5317
 20
-5.5875
 30
0.0
 10
-31.5479
 20
-5.68
 30
0.0
 10
-31.5796
 20
-5.7583
 30
0.0
 10
-31.5796
 20
-5.7583
 30
0.0
 10
-31.6113
 20
-5.8372
 30
0.0
 10
-31.6579
 20
-5.9077
 30
0.0
 10
-31.718
 20
-5.9711
 30
0.0
 10
-31.718
 20
-5.9711
 30
0.0
 10
-31.718
 20
-5.9711
 30
0.0
 10
-33.3051
 20
-4.8263
 30
0.0
 10
-33.3051
 20
-4.8263
 30
0.0
  0
SPLINE
  5
80
330
1F
100
AcDbEntity
  8
ROUND
 62
   250
100
AcDbSpline
210
0.0
220
0.0
230
1.0
 70
    11
 71
     3
 72
   124
 73
   120
 74
     0
 42
0.0000000001
 43
0.0000000001
 40
0.0
 40
0.0
 40
0.0
 40
0.0
 40
0.032258064516129
 40
0.032258064516129
 40
0.032258064516129
 40
0.032258064516129
 40
0.0645161290322581
 40
0.0645161290322581
 40
0.0645161290322581
 40
0.0645161290322581
 40
0.0967741935483871
 40
0.0967741935483871
 40
0.0967741935483871
 40
0.0967741935483871
 40
0.1290322580645161
 40
0.1290322580645161
 40
0.1290322580645161
 40
0.1290322580645161
 40
0.1612903225806452
 40
0.1612903225806452
 40
0.1612903225806452
 40
0.1612903225806452
 40
0.1935483870967742
 40
0.1935483870967742
 40
0.1935483870967742
 40
0.1935483870967742
 40
0.2258064516129032
 40
0.2258064516129032
 40
0.2258064516129032
 40
0.2258064516129032
 40
0.2580645161290323
 40
0.2580645161290323
 40
0.2580645161290323
 40
0.2580645161290323
 40
0.2903225806451613
 40
0.2903225806451613
 40
0.2903225806451613
 40
0.2903225806451613
 40
0.3225806451612903
 40
0.3225806451612903
 40
0.3225806451612903
 40
0.3225806451612903
 40
0.3548387096774194
 40
0.3548387096774194
 40
0.3548387096774194
 40
0.3548387096774194
 40
0.3870967741935484
 40
0.3870967741935484
 40
0.3870967741935484
 40
0.3870967741935484
 40
0.4193548387096774
 40
0.4193548387096774
 40
0.4193548387096774
 40
0.4193548387096774
 40
0.4516129032258064
 40
0.4516129032258064
 40
0.4516129032258064
 40
0.4516129032258064
 40
0.4838709677419355
 40
0.4838709677419355
 40
0.4838709677419355
 40
0.4838709677419355
 40
0.5161290322580645
 40
0.5161290322580645
 40
0.5161290322580645
 40
0.5161290322580645
 40
0.5483870967741935
 40
0.5483870967741935
 40
0.5483870967741935
 40
0.5483870967741935
 40
0.5806451612903226
 40
0.5806451612903226
 40
0.5806451612903226
 40
0.5806451612903226
 40
0.6129032258064516
 40
0.6129032258064516
 40
0.6129032258064516
 40
0.6129032258064516
 40
0.6451612903225806
 40
0.6451612903225806
 40
0.6451612903225806
 40
0.6451612903225806
 40
0.6774193548387096
 40
0.6774193548387096
 40
0.6774193548387096
 40
0.6774193548387096
 40
0.7096774193548387
 40
0.7096774193548387
 40
0.7096774193548387
 40
0.7096774193548387
 40
0.7419354838709677
 40
0.7419354838709677
 40
0.7419354838709677
 40
0.7419354838709677
 40
0.7741935483870968
 40
0.7741935483870968
 40
0.7741935483870968
 40
0.7741935483870968
 40
0.8064516129032258
 40
0.8064516129032258
 40
0.8064516129032258
 40
0.8064516129032258
 40
0.8387096774193549
 40
0.8387096774193549
 40
0.8387096774193549
 40
0.8387096774193549
 40
0.8709677419354839
 40
0.8709677419354839
 40
0.8709677419354839
 40
0.8709677419354839
 40
0.9032258064516129
 40
0.9032258064516129
 40
0.9032258064516129
 40
0.9032258064516129
 40
0.9354838709677419
 40
0.9354838709677419
 40
0.9354838709677419
 40
0.9354838709677419
 40
1.0
 40
1.0
 40
1.0
 40
1.0
 10
-31.3028
 20
-2.3583
 30
0.0
 10
-31.3028
 20
-2.3583
 30
0.0
 10
-31.5861
 20
-2.3583
 30
0.0
 10
-31.5861
 20
-2.3583
 30
0.0
 10
-31.5861
 20
-2.3583
 30
0.0
 10
-31.5861
 20
-2.3583
 30
0.0
 10
-31.5861
 20
-3.4875
 30
0.0
 10
-31.5861
 20
-3.4875
 30
0.0
 10
-31.5861
 20
-3.4875
 30
0.0
 10
-31.5861
 20
-3.4875
 30
0.0
 10
-31.5938
 20
-3.4875
 30
0.0
 10
-31.5938
 20
-3.4875
 30
0.0
 10
-31.5938
 20
-3.4875
 30
0.0
 10
-31.5938
 20
-3.4875
 30
0.0
 10
-31.7801
 20
-3.2896
 30
0.0
 10
-31.7801
 20
-3.2896
 30
0.0
 10
-31.7801
 20
-3.2896
 30
0.0
 10
-31.9075
 20
-3.1564
 30
0.0
 10
-32.0285
 20
-3.0361
 30
0.0
 10
-32.1423
 20
-2.9294
 30
0.0
 10
-32.1423
 20
-2.9294
 30
0.0
 10
-32.2561
 20
-2.8226
 30
0.0
 10
-32.3674
 20
-2.7314
 30
0.0
 10
-32.4747
 20
-2.6558
 30
0.0
 10
-32.4747
 20
-2.6558
 30
0.0
 10
-32.5821
 20
-2.5795
 30
0.0
 10
-32.6901
 20
-2.5219
 30
0.0
 10
-32.7987
 20
-2.4812
 30
0.0
 10
-32.7987
 20
-2.4812
 30
0.0
 10
-32.9067
 20
-2.4411
 30
0.0
 10
-33.0186
 20
-2.421
 30
0.0
 10
-33.1344
 20
-2.4204
 30
0.0
 10
-33.1344
 20
-2.4204
 30
0.0
 10
-33.2256
 20
-2.4204
 30
0.0
 10
-33.3148
 20
-2.4346
 30
0.0
 10
-33.4015
 20
-2.4643
 30
0.0
 10
-33.4015
 20
-2.4643
 30
0.0
 10
-33.4882
 20
-2.4941
 30
0.0
 10
-33.5664
 20
-2.5407
 30
0.0
 10
-33.6363
 20
-2.6027
 30
0.0
 10
-33.6363
 20
-2.6027
 30
0.0
 10
-33.7068
 20
-2.6648
 30
0.0
 10
-33.7624
 20
-2.745
 30
0.0
 10
-33.8038
 20
-2.8427
 30
0.0
 10
-33.8038
 20
-2.8427
 30
0.0
 10
-33.8458
 20
-2.9403
 30
0.0
 10
-33.8672
 20
-3.0568
 30
0.0
 10
-33.8678
 20
-3.1926
 30
0.0
 10
-33.8678
 20
-3.1926
 30
0.0
 10
-33.8672
 20
-3.2883
 30
0.0
 10
-33.8562
 20
-3.3795
 30
0.0
 10
-33.8335
 20
-3.4662
 30
0.0
 10
-33.8335
 20
-3.4662
 30
0.0
 10
-33.8109
 20
-3.5528
 30
0.0
 10
-33.7805
 20
-3.633
 30
0.0
 10
-33.7417
 20
-3.7067
 30
0.0
 10
-33.7417
 20
-3.7067
 30
0.0
 10
-33.7035
 20
-3.7798
 30
0.0
 10
-33.6602
 20
-3.8451
 30
0.0
 10
-33.6117
 20
-3.9027
 30
0.0
 10
-33.6117
 20
-3.9027
 30
0.0
 10
-33.6117
 20
-3.9027
 30
0.0
 10
-33.3711
 20
-3.7941
 30
0.0
 10
-33.3711
 20
-3.7941
 30
0.0
 10
-33.3711
 20
-3.7941
 30
0.0
 10
-33.4041
 20
-3.7552
 30
0.0
 10
-33.4371
 20
-3.7087
 30
0.0
 10
-33.4694
 20
-3.6544
 30
0.0
 10
-33.4694
 20
-3.6544
 30
0.0
 10
-33.5024
 20
-3.6
 30
0.0
 10
-33.5289
 20
-3.5399
 30
0.0
 10
-33.5509
 20
-3.4733
 30
0.0
 10
-33.5509
 20
-3.4733
 30
0.0
 10
-33.5722
 20
-3.4067
 30
0.0
 10
-33.5839
 20
-3.3349
 30
0.0
 10
-33.5845
 20
-3.2585
 30
0.0
 10
-33.5845
 20
-3.2585
 30
0.0
 10
-33.5839
 20
-3.1648
 30
0.0
 10
-33.5703
 20
-3.0859
 30
0.0
 10
-33.5438
 20
-3.0218
 30
0.0
 10
-33.5438
 20
-3.0218
 30
0.0
 10
-33.5166
 20
-2.9585
 30
0.0
 10
-33.4804
 20
-2.9074
 30
0.0
 10
-33.4345
 20
-2.8692
 30
0.0
 10
-33.4345
 20
-2.8692
 30
0.0
 10
-33.3879
 20
-2.831
 30
0.0
 10
-33.3355
 20
-2.8032
 30
0.0
 10
-33.2767
 20
-2.7864
 30
0.0
 10
-33.2767
 20
-2.7864
 30
0.0
 10
-33.2178
 20
-2.7696
 30
0.0
 10
-33.1564
 20
-2.7612
 30
0.0
 10
-33.0917
 20
-2.7618
 30
0.0
 10
-33.0917
 20
-2.7618
 30
0.0
 10
-32.9973
 20
-2.7618
 30
0.0
 10
-32.9042
 20
-2.7806
 30
0.0
 10
-32.8117
 20
-2.8181
 30
0.0
 10
-32.8117
 20
-2.8181
 30
0.0
 10
-32.7185
 20
-2.8556
 30
0.0
 10
-32.6215
 20
-2.9125
 30
0.0
 10
-32.5193
 20
-2.9895
 30
0.0
 10
-32.5193
 20
-2.9895
 30
0.0
 10
-32.4172
 20
-3.0665
 30
0.0
 10
-32.3053
 20
-3.1641
 30
0.0
 10
-32.1837
 20
-3.2825
 30
0.0
 10
-32.1837
 20
-3.2825
 30
0.0
 10
-32.0621
 20
-3.4002
 30
0.0
 10
-31.925
 20
-3.5399
 30
0.0
 10
-31.7723
 20
-3.7009
 30
0.0
 10
-31.7723
 20
-3.7009
 30
0.0
 10
-31.7723
 20
-3.7009
 30
0.0
 10
-31.5123
 20
-3.9687
 30
0.0
 10
-31.5123
 20
-3.9687
 30
0.0
 10
-31.5123
 20
-3.9687
 30
0.0
 10
-31.5123
 20
-3.9687
 30
0.0
 10
-31.3028
 20
-3.9687
 30
0.0
 10
-31.3028
 20
-3.9687
 30
0.0
 10
-31.3028
 20
-3.9687
 30
0.0
 10
-31.3028
 20
-3.9687
 30
0.0
 10
-31.3028
 20
-2.3583
 30
0.0
 10
-31.3028
 20
-2.3583
 30
0.0
  0
SPLINE
  5
81
330
1F
100
AcDbEntity
  8
ROUND
 62
   250
100
AcDbSpline
210
0.0
220
0.0
230
1.0
 70
    11
 71
     3
 72
   124
 73
   120
 74
     0
 42
0.0000000001
 43
0.0000000001
 40
0.0
 40
0.0
 40
0.0
 40
0.0
 40
0.032258064516129
 40
0.032258064516129
 40
0.032258064516129
 40
0.032258064516129
 40
0.0645161290322581
 40
0.0645161290322581
 40
0.0645161290322581
 40
0.0645161290322581
 40
0.0967741935483871
 40
0.0967741935483871
 40
0.0967741935483871
 40
0.0967741935483871
 40
0.1290322580645161
 40
0.1290322580645161
 40
0.1290322580645161
 40
0.1290322580645161
 40
0.1612903225806452
 40
0.1612903225806452
 40
0.1612903225806452
 40
0.1612903225806452
 40
0.1935483870967742
 40
0.1935483870967742
 40
0.1935483870967742
 40
0.1935483870967742
 40
0.2258064516129032
 40
0.2258064516129032
 40
0.2258064516129032
 40
0.2258064516129032
 40
0.2580645161290323
 40
0.2580645161290323
 40
0.2580645161290323
 40
0.2580645161290323
 40
0.2903225806451613
 40
0.2903225806451613
 40
0.2903225806451613
 40
0.2903225806451613
 40
0.3225806451612903
 40
0.3225806451612903
 40
0.3225806451612903
 40
0.3225806451612903
 40
0.3548387096774194
 40
0.3548387096774194
 40
0.3548387096774194
 40
0.3548387096774194
 40
0.3870967741935484
 40
0.3870967741935484
 40
0.3870967741935484
 40
0.3870967741935484
 40
0.4193548387096774
 40
0.4193548387096774
 40
0.4193548387096774
 40
0.4193548387096774
 40
0.4516129032258064
 40
0.4516129032258064
 40
0.4516129032258064
 40
0.4516129032258064
 40
0.4838709677419355
 40
0.4838709677419355
 40
0.4838709677419355
 40
0.4838709677419355
 40
0.5161290322580645
 40
0.5161290322580645
 40
0.5161290322580645
 40
0.5161290322580645
 40
0.5483870967741935
 40
0.5483870967741935
 40
0.5483870967741935
 40
0.5483870967741935
 40
0.5806451612903226
 40
0.5806451612903226
 40
0.5806451612903226
 40
0.5806451612903226
 40
0.6129032258064516
 40
0.6129032258064516
 40
0.6129032258064516
 40
0.6129032258064516
 40
0.6451612903225806
 40
0.6451612903225806
 40
0.6451612903225806
 40
0.6451612903225806
 40
0.6774193548387096
 40
0.6774193548387096
 40
0.6774193548387096
 40
0.6774193548387096
 40
0.7096774193548387
 40
0.7096774193548387
 40
0.7096774193548387
 40
0.7096774193548387
 40
0.7419354838709677
 40
0.7419354838709677
 40
0.7419354838709677
 40
0.7419354838709677
 40
0.7741935483870968
 40
0.7741935483870968
 40
0.7741935483870968
 40
0.7741935483870968
 40
0.8064516129032258
 40
0.8064516129032258
 40
0.8064516129032258
 40
0.8064516129032258
 40
0.8387096774193549
 40
0.8387096774193549
 40
0.8387096774193549
 40
0.8387096774193549
 40
0.8709677419354839
 40
0.8709677419354839
 40
0.8709677419354839
 40
0.8709677419354839
 40
0.9032258064516129
 40
0.9032258064516129
 40
0.9032258064516129
 40
0.9032258064516129
 40
0.9354838709677419
 40
0.9354838709677419
 40
0.9354838709677419
 40
0.9354838709677419
 40
1.0
 40
1.0
 40
1.0
 40
1.0
 10
-32.6183
 20
-1.5084
 30
0.0
 10
-32.5743
 20
-1.6126
 30
0.0
 10
-32.5193
 20
-1.7018
 30
0.0
 10
-32.4547
 20
-1.7762
 30
0.0
 10
-32.4547
 20
-1.7762
 30
0.0
 10
-32.3893
 20
-1.8506
 30
0.0
 10
-32.3137
 20
-1.9081
 30
0.0
 10
-32.2277
 20
-1.9482
 30
0.0
 10
-32.2277
 20
-1.9482
 30
0.0
 10
-32.1416
 20
-1.9883
 30
0.0
 10
-32.0453
 20
-2.0084
 30
0.0
 10
-31.9392
 20
-2.009
 30
0.0
 10
-31.9392
 20
-2.009
 30
0.0
 10
-31.8461
 20
-2.0084
 30
0.0
 10
-31.7594
 20
-1.9896
 30
0.0
 10
-31.6773
 20
-1.9508
 30
0.0
 10
-31.6773
 20
-1.9508
 30
0.0
 10
-31.5958
 20
-1.9127
 30
0.0
 10
-31.524
 20
-1.857
 30
0.0
 10
-31.4613
 20
-1.784
 30
0.0
 10
-31.4613
 20
-1.784
 30
0.0
 10
-31.3992
 20
-1.7109
 30
0.0
 10
-31.35
 20
-1.6223
 30
0.0
 10
-31.3144
 20
-1.5181
 30
0.0
 10
-31.3144
 20
-1.5181
 30
0.0
 10
-31.2789
 20
-1.4134
 30
0.0
 10
-31.2608
 20
-1.295
 30
0.0
 10
-31.2601
 20
-1.1631
 30
0.0
 10
-31.2601
 20
-1.1631
 30
0.0
 10
-31.2608
 20
-1.0421
 30
0.0
 10
-31.2782
 20
-0.9296
 30
0.0
 10
-31.3125
 20
-0.8261
 30
0.0
 10
-31.3125
 20
-0.8261
 30
0.0
 10
-31.3468
 20
-0.7226
 30
0.0
 10
-31.3966
 20
-0.6314
 30
0.0
 10
-31.4613
 20
-0.5538
 30
0.0
 10
-31.4613
 20
-0.5538
 30
0.0
 10
-31.5253
 20
-0.4762
 30
0.0
 10
-31.6022
 20
-0.4154
 30
0.0
 10
-31.6921
 20
-0.3721
 30
0.0
 10
-31.6921
 20
-0.3721
 30
0.0
 10
-31.782
 20
-0.3281
 30
0.0
 10
-31.8823
 20
-0.3061
 30
0.0
 10
-31.9935
 20
-0.3055
 30
0.0
 10
-31.9935
 20
-0.3055
 30
0.0
 10
-32.0944
 20
-0.3061
 30
0.0
 10
-32.1863
 20
-0.3268
 30
0.0
 10
-32.2697
 20
-0.3676
 30
0.0
 10
-32.2697
 20
-0.3676
 30
0.0
 10
-32.3525
 20
-0.4083
 30
0.0
 10
-32.4256
 20
-0.4665
 30
0.0
 10
-32.4883
 20
-0.5422
 30
0.0
 10
-32.4883
 20
-0.5422
 30
0.0
 10
-32.5517
 20
-0.6179
 30
0.0
 10
-32.6041
 20
-0.7084
 30
0.0
 10
-32.6455
 20
-0.8138
 30
0.0
 10
-32.6455
 20
-0.8138
 30
0.0
 10
-32.6455
 20
-0.8138
 30
0.0
 10
-32.6571
 20
-0.8138
 30
0.0
 10
-32.6571
 20
-0.8138
 30
0.0
 10
-32.6571
 20
-0.8138
 30
0.0
 10
-32.7056
 20
-0.711
 30
0.0
 10
-32.7619
 20
-0.6289
 30
0.0
 10
-32.8265
 20
-0.5674
 30
0.0
 10
-32.8265
 20
-0.5674
 30
0.0
 10
-32.8906
 20
-0.506
 30
0.0
 10
-32.9591
 20
-0.4613
 30
0.0
 10
-33.0309
 20
-0.4342
 30
0.0
 10
-33.0309
 20
-0.4342
 30
0.0
 10
-33.1034
 20
-0.4077
 30
0.0
 10
-33.1751
 20
-0.3941
 30
0.0
 10
-33.2469
 20
-0.3947
 30
0.0
 10
-33.2469
 20
-0.3947
 30
0.0
 10
-33.3271
 20
-0.3947
 30
0.0
 10
-33.4047
 20
-0.4103
 30
0.0
 10
-33.4785
 20
-0.4413
 30
0.0
 10
-33.4785
 20
-0.4413
 30
0.0
 10
-33.5522
 20
-0.4723
 30
0.0
 10
-33.6182
 20
-0.5183
 30
0.0
 10
-33.677
 20
-0.5797
 30
0.0
 10
-33.677
 20
-0.5797
 30
0.0
 10
-33.7352
 20
-0.6418
 30
0.0
 10
-33.7818
 20
-0.7188
 30
0.0
 10
-33.8154
 20
-0.8106
 30
0.0
 10
-33.8154
 20
-0.8106
 30
0.0
 10
-33.8497
 20
-0.9024
 30
0.0
 10
-33.8672
 20
-1.0098
 30
0.0
 10
-33.8678
 20
-1.132
 30
0.0
 10
-33.8678
 20
-1.132
 30
0.0
 10
-33.8672
 20
-1.2439
 30
0.0
 10
-33.851
 20
-1.348
 30
0.0
 10
-33.8193
 20
-1.4425
 30
0.0
 10
-33.8193
 20
-1.4425
 30
0.0
 10
-33.787
 20
-1.5375
 30
0.0
 10
-33.7417
 20
-1.6203
 30
0.0
 10
-33.6822
 20
-1.6915
 30
0.0
 10
-33.6822
 20
-1.6915
 30
0.0
 10
-33.6227
 20
-1.762
 30
0.0
 10
-33.5522
 20
-1.8169
 30
0.0
 10
-33.4701
 20
-1.8564
 30
0.0
 10
-33.4701
 20
-1.8564
 30
0.0
 10
-33.3879
 20
-1.8952
 30
0.0
 10
-33.2967
 20
-1.9152
 30
0.0
 10
-33.1965
 20
-1.9159
 30
0.0
 10
-33.1965
 20
-1.9159
 30
0.0
 10
-33.1234
 20
-1.9159
 30
0.0
 10
-33.0523
 20
-1.9023
 30
0.0
 10
-32.9824
 20
-1.8739
 30
0.0
 10
-32.9824
 20
-1.8739
 30
0.0
 10
-32.9126
 20
-1.846
 30
0.0
 10
-32.8472
 20
-1.8021
 30
0.0
 10
-32.7871
 20
-1.7426
 30
0.0
 10
-32.7871
 20
-1.7426
 30
0.0
 10
-32.7269
 20
-1.6831
 30
0.0
 10
-32.6746
 20
-1.6067
 30
0.0
 10
-32.6299
 20
-1.5123
 30
0.0
 10
-32.6299
 20
-1.5123
 30
0.0
 10
-32.6299
 20
-1.5123
 30
0.0
 10
-32.6183
 20
-1.5084
 30
0.0
 10
-32.6183
 20
-1.5084
 30
0.0
  0
SPLINE
  5
82
330
1F
100
AcDbEntity
  8
ROUND
 62
   250
100
AcDbSpline
210
0.0
220
0.0
230
1.0
 70
    11
 71
     3
 72
    56
 73
    52
 74
     0
 42
0.0000000001
 43
0.0000000001
 40
0.0
 40
0.0
 40
0.0
 40
0.0
 40
0.0714285714285714
 40
0.0714285714285714
 40
0.0714285714285714
 40
0.0714285714285714
 40
0.1428571428571428
 40
0.1428571428571428
 40
0.1428571428571428
 40
0.1428571428571428
 40
0.2142857142857143
 40
0.2142857142857143
 40
0.2142857142857143
 40
0.2142857142857143
 40
0.2857142857142857
 40
0.2857142857142857
 40
0.2857142857142857
 40
0.2857142857142857
 40
0.3571428571428572
 40
0.3571428571428572
 40
0.3571428571428572
 40
0.3571428571428572
 40
0.4285714285714285
 40
0.4285714285714285
 40
0.4285714285714285
 40
0.4285714285714285
 40
0.5
 40
0.5
 40
0.5
 40
0.5
 40
0.5714285714285714
 40
0.5714285714285714
 40
0.5714285714285714
 40
0.5714285714285714
 40
0.6428571428571429
 40
0.6428571428571429
 40
0.6428571428571429
 40
0.6428571428571429
 40
0.7142857142857143
 40
0.7142857142857143
 40
0.7142857142857143
 40
0.7142857142857143
 40
0.7857142857142857
 40
0.7857142857142857
 40
0.7857142857142857
 40
0.7857142857142857
 40
0.8571428571428571
 40
0.8571428571428571
 40
0.8571428571428571
 40
0.8571428571428571
 40
1.0
 40
1.0
 40
1.0
 40
1.0
 10
-31.5085
 20
-1.1553
 30
0.0
 10
-31.5091
 20
-1.2362
 30
0.0
 10
-31.522
 20
-1.3079
 30
0.0
 10
-31.5473
 20
-1.3713
 30
0.0
 10
-31.5473
 20
-1.3713
 30
0.0
 10
-31.5731
 20
-1.4354
 30
0.0
 10
-31.6081
 20
-1.489
 30
0.0
 10
-31.6527
 20
-1.533
 30
0.0
 10
-31.6527
 20
-1.533
 30
0.0
 10
-31.6967
 20
-1.5763
 30
0.0
 10
-31.7478
 20
-1.6093
 30
0.0
 10
-31.8047
 20
-1.6313
 30
0.0
 10
-31.8047
 20
-1.6313
 30
0.0
 10
-31.8616
 20
-1.6527
 30
0.0
 10
-31.9224
 20
-1.6624
 30
0.0
 10
-31.9858
 20
-1.6598
 30
0.0
 10
-31.9858
 20
-1.6598
 30
0.0
 10
-32.0666
 20
-1.6598
 30
0.0
 10
-32.141
 20
-1.6423
 30
0.0
 10
-32.2095
 20
-1.6074
 30
0.0
 10
-32.2095
 20
-1.6074
 30
0.0
 10
-32.2781
 20
-1.5731
 30
0.0
 10
-32.3382
 20
-1.522
 30
0.0
 10
-32.3893
 20
-1.4548
 30
0.0
 10
-32.3893
 20
-1.4548
 30
0.0
 10
-32.4404
 20
-1.3868
 30
0.0
 10
-32.4805
 20
-1.3041
 30
0.0
 10
-32.5096
 20
-1.2058
 30
0.0
 10
-32.5096
 20
-1.2058
 30
0.0
 10
-32.4779
 20
-1.0913
 30
0.0
 10
-32.4385
 20
-0.993
 30
0.0
 10
-32.3906
 20
-0.9102
 30
0.0
 10
-32.3906
 20
-0.9102
 30
0.0
 10
-32.3434
 20
-0.8274
 30
0.0
 10
-32.2846
 20
-0.7634
 30
0.0
 10
-32.2147
 20
-0.7188
 30
0.0
 10
-32.2147
 20
-0.7188
 30
0.0
 10
-32.1442
 20
-0.6741
 30
0.0
 10
-32.0589
 20
-0.6515
 30
0.0
 10
-31.9586
 20
-0.6508
 30
0.0
 10
-31.9586
 20
-0.6508
 30
0.0
 10
-31.8713
 20
-0.6515
 30
0.0
 10
-31.7937
 20
-0.6722
 30
0.0
 10
-31.7264
 20
-0.7136
 30
0.0
 10
-31.7264
 20
-0.7136
 30
0.0
 10
-31.6592
 20
-0.755
 30
0.0
 10
-31.6061
 20
-0.8132
 30
0.0
 10
-31.5673
 20
-0.8882
 30
0.0
 10
-31.5673
 20
-0.8882
 30
0.0
 10
-31.5285
 20
-0.9632
 30
0.0
 10
-31.5091
 20
-1.0525
 30
0.0
 10
-31.5085
 20
-1.1553
 30
0.0
  0
SPLINE
  5
83
330
1F
100
AcDbEntity
  8
ROUND
 62
   250
100
AcDbSpline
210
0.0
220
0.0
230
1.0
 70
    11
 71
     3
 72
    56
 73
    52
 74
     0
 42
0.0000000001
 43
0.0000000001
 40
0.0
 40
0.0
 40
0.0
 40
0.0
 40
0.0714285714285714
 40
0.0714285714285714
 40
0.0714285714285714
 40
0.0714285714285714
 40
0.1428571428571428
 40
0.1428571428571428
 40
0.1428571428571428
 40
0.1428571428571428
 40
0.2142857142857143
 40
0.2142857142857143
 40
0.2142857142857143
 40
0.2142857142857143
 40
0.2857142857142857
 40
0.2857142857142857
 40
0.2857142857142857
 40
0.2857142857142857
 40
0.3571428571428572
 40
0.3571428571428572
 40
0.3571428571428572
 40
0.3571428571428572
 40
0.4285714285714285
 40
0.4285714285714285
 40
0.4285714285714285
 40
0.4285714285714285
 40
0.5
 40
0.5
 40
0.5
 40
0.5
 40
0.5714285714285714
 40
0.5714285714285714
 40
0.5714285714285714
 40
0.5714285714285714
 40
0.6428571428571429
 40
0.6428571428571429
 40
0.6428571428571429
 40
0.6428571428571429
 40
0.7142857142857143
 40
0.7142857142857143
 40
0.7142857142857143
 40
0.7142857142857143
 40
0.7857142857142857
 40
0.7857142857142857
 40
0.7857142857142857
 40
0.7857142857142857
 40
0.8571428571428571
 40
0.8571428571428571
 40
0.8571428571428571
 40
0.8571428571428571
 40
1.0
 40
1.0
 40
1.0
 40
1.0
 10
-33.6233
 20
-1.1514
 30
0.0
 10
-33.6227
 20
-1.0751
 30
0.0
 10
-33.6111
 20
-1.0098
 30
0.0
 10
-33.5878
 20
-0.9555
 30
0.0
 10
-33.5878
 20
-0.9555
 30
0.0
 10
-33.5645
 20
-0.9011
 30
0.0
 10
-33.5328
 20
-0.8572
 30
0.0
 10
-33.4933
 20
-0.8229
 30
0.0
 10
-33.4933
 20
-0.8229
 30
0.0
 10
-33.4539
 20
-0.7893
 30
0.0
 10
-33.4099
 20
-0.764
 30
0.0
 10
-33.3614
 20
-0.7479
 30
0.0
 10
-33.3614
 20
-0.7479
 30
0.0
 10
-33.3129
 20
-0.7323
 30
0.0
 10
-33.2631
 20
-0.7246
 30
0.0
 10
-33.212
 20
-0.7246
 30
0.0
 10
-33.212
 20
-0.7246
 30
0.0
 10
-33.1357
 20
-0.7252
 30
0.0
 10
-33.0678
 20
-0.742
 30
0.0
 10
-33.0083
 20
-0.7757
 30
0.0
 10
-33.0083
 20
-0.7757
 30
0.0
 10
-32.9481
 20
-0.8093
 30
0.0
 10
-32.897
 20
-0.8546
 30
0.0
 10
-32.855
 20
-0.9128
 30
0.0
 10
-32.855
 20
-0.9128
 30
0.0
 10
-32.8123
 20
-0.9703
 30
0.0
 10
-32.7787
 20
-1.0357
 30
0.0
 10
-32.7541
 20
-1.1087
 30
0.0
 10
-32.7541
 20
-1.1087
 30
0.0
 10
-32.78
 20
-1.2064
 30
0.0
 10
-32.813
 20
-1.2911
 30
0.0
 10
-32.8531
 20
-1.3636
 30
0.0
 10
-32.8531
 20
-1.3636
 30
0.0
 10
-32.8938
 20
-1.436
 30
0.0
 10
-32.9443
 20
-1.4923
 30
0.0
 10
-33.0044
 20
-1.5317
 30
0.0
 10
-33.0044
 20
-1.5317
 30
0.0
 10
-33.0645
 20
-1.5712
 30
0.0
 10
-33.1363
 20
-1.5906
 30
0.0
 10
-33.2198
 20
-1.5899
 30
0.0
 10
-33.2198
 20
-1.5899
 30
0.0
 10
-33.2935
 20
-1.5899
 30
0.0
 10
-33.3601
 20
-1.5731
 30
0.0
 10
-33.4209
 20
-1.5395
 30
0.0
 10
-33.4209
 20
-1.5395
 30
0.0
 10
-33.4817
 20
-1.5058
 30
0.0
 10
-33.5302
 20
-1.4561
 30
0.0
 10
-33.5671
 20
-1.3907
 30
0.0
 10
-33.5671
 20
-1.3907
 30
0.0
 10
-33.6039
 20
-1.3261
 30
0.0
 10
-33.6227
 20
-1.2459
 30
0.0
 10
-33.6233
 20
-1.1514
 30
0.0
  0
SPLINE
  5
84
330
1F
100
AcDbEntity
  8
ROUND
 62
   250
100
AcDbSpline
210
0.0
220
0.0
230
1.0
 70
    11
 71
     3
 72
   140
 73
   136
 74
     0
 42
0.0000000001
 43
0.0000000001
 40
0.0
 40
0.0
 40
0.0
 40
0.0
 40
0.0285714285714286
 40
0.0285714285714286
 40
0.0285714285714286
 40
0.0285714285714286
 40
0.0571428571428571
 40
0.0571428571428571
 40
0.0571428571428571
 40
0.0571428571428571
 40
0.0857142857142857
 40
0.0857142857142857
 40
0.0857142857142857
 40
0.0857142857142857
 40
0.1142857142857143
 40
0.1142857142857143
 40
0.1142857142857143
 40
0.1142857142857143
 40
0.1428571428571428
 40
0.1428571428571428
 40
0.1428571428571428
 40
0.1428571428571428
 40
0.1714285714285714
 40
0.1714285714285714
 40
0.1714285714285714
 40
0.1714285714285714
 40
0.2
 40
0.2
 40
0.2
 40
0.2
 40
0.2285714285714286
 40
0.2285714285714286
 40
0.2285714285714286
 40
0.2285714285714286
 40
0.2571428571428571
 40
0.2571428571428571
 40
0.2571428571428571
 40
0.2571428571428571
 40
0.2857142857142857
 40
0.2857142857142857
 40
0.2857142857142857
 40
0.2857142857142857
 40
0.3142857142857143
 40
0.3142857142857143
 40
0.3142857142857143
 40
0.3142857142857143
 40
0.3428571428571429
 40
0.3428571428571429
 40
0.3428571428571429
 40
0.3428571428571429
 40
0.3714285714285714
 40
0.3714285714285714
 40
0.3714285714285714
 40
0.3714285714285714
 40
0.4
 40
0.4
 40
0.4
 40
0.4
 40
0.4285714285714285
 40
0.4285714285714285
 40
0.4285714285714285
 40
0.4285714285714285
 40
0.4571428571428571
 40
0.4571428571428571
 40
0.4571428571428571
 40
0.4571428571428571
 40
0.4857142857142857
 40
0.4857142857142857
 40
0.4857142857142857
 40
0.4857142857142857
 40
0.5142857142857142
 40
0.5142857142857142
 40
0.5142857142857142
 40
0.5142857142857142
 40
0.5428571428571428
 40
0.5428571428571428
 40
0.5428571428571428
 40
0.5428571428571428
 40
0.5714285714285714
 40
0.5714285714285714
 40
0.5714285714285714
 40
0.5714285714285714
 40
0.6
 40
0.6
 40
0.6
 40
0.6
 40
0.6285714285714286
 40
0.6285714285714286
 40
0.6285714285714286
 40
0.6285714285714286
 40
0.6571428571428571
 40
0.6571428571428571
 40
0.6571428571428571
 40
0.6571428571428571
 40
0.6857142857142857
 40
0.6857142857142857
 40
0.6857142857142857
 40
0.6857142857142857
 40
0.7142857142857143
 40
0.7142857142857143
 40
0.7142857142857143
 40
0.7142857142857143
 40
0.7428571428571429
 40
0.7428571428571429
 40
0.7428571428571429
 40
0.7428571428571429
 40
0.7714285714285715
 40
0.7714285714285715
 40
0.7714285714285715
 40
0.7714285714285715
 40
0.8
 40
0.8
 40
0.8
 40
0.8
 40
0.8285714285714286
 40
0.8285714285714286
 40
0.8285714285714286
 40
0.8285714285714286
 40
0.8571428571428571
 40
0.8571428571428571
 40
0.8571428571428571
 40
0.8571428571428571
 40
0.8857142857142857
 40
0.8857142857142857
 40
0.8857142857142857
 40
0.8857142857142857
 40
0.9142857142857143
 40
0.9142857142857143
 40
0.9142857142857143
 40
0.9142857142857143
 40
0.9428571428571428
 40
0.9428571428571428
 40
0.9428571428571428
 40
0.9428571428571428
 40
1.0
 40
1.0
 40
1.0
 40
1.0
 10
25.1213
 20
-7.1176
 30
0.0
 10
25.1213
 20
-7.1176
 30
0.0
 10
25.1213
 20
-7.9049
 30
0.0
 10
25.1213
 20
-7.9049
 30
0.0
 10
25.1213
 20
-7.9049
 30
0.0
 10
25.1213
 20
-7.9049
 30
0.0
 10
25.393
 20
-7.9049
 30
0.0
 10
25.393
 20
-7.9049
 30
0.0
 10
25.393
 20
-7.9049
 30
0.0
 10
25.393
 20
-7.9049
 30
0.0
 10
25.393
 20
-7.4226
 30
0.0
 10
25.393
 20
-7.4226
 30
0.0
 10
25.393
 20
-7.4226
 30
0.0
 10
25.393
 20
-7.4226
 30
0.0
 10
26.173
 20
-7.4226
 30
0.0
 10
26.173
 20
-7.4226
 30
0.0
 10
26.173
 20
-7.4226
 30
0.0
 10
26.193
 20
-7.458
 30
0.0
 10
26.2092
 20
-7.51
 30
0.0
 10
26.2228
 20
-7.5792
 30
0.0
 10
26.2228
 20
-7.5792
 30
0.0
 10
26.2357
 20
-7.6478
 30
0.0
 10
26.2421
 20
-7.7329
 30
0.0
 10
26.2428
 20
-7.8339
 30
0.0
 10
26.2428
 20
-7.8339
 30
0.0
 10
26.2428
 20
-7.9746
 30
0.0
 10
26.2188
 20
-8.1011
 30
0.0
 10
26.171
 20
-8.2146
 30
0.0
 10
26.171
 20
-8.2146
 30
0.0
 10
26.1237
 20
-8.3275
 30
0.0
 10
26.0546
 20
-8.4244
 30
0.0
 10
25.964
 20
-8.5054
 30
0.0
 10
25.964
 20
-8.5054
 30
0.0
 10
25.8728
 20
-8.5858
 30
0.0
 10
25.7622
 20
-8.6478
 30
0.0
 10
25.6322
 20
-8.691
 30
0.0
 10
25.6322
 20
-8.691
 30
0.0
 10
25.5016
 20
-8.7341
 30
0.0
 10
25.3535
 20
-8.7554
 30
0.0
 10
25.1873
 20
-8.756
 30
0.0
 10
25.1873
 20
-8.756
 30
0.0
 10
25.0231
 20
-8.7554
 30
0.0
 10
24.8762
 20
-8.7329
 30
0.0
 10
24.7462
 20
-8.6874
 30
0.0
 10
24.7462
 20
-8.6874
 30
0.0
 10
24.6169
 20
-8.6425
 30
0.0
 10
24.5063
 20
-8.5781
 30
0.0
 10
24.4158
 20
-8.4935
 30
0.0
 10
24.4158
 20
-8.4935
 30
0.0
 10
24.3245
 20
-8.409
 30
0.0
 10
24.2554
 20
-8.3085
 30
0.0
 10
24.2075
 20
-8.1903
 30
0.0
 10
24.2075
 20
-8.1903
 30
0.0
 10
24.1603
 20
-8.0727
 30
0.0
 10
24.1356
 20
-7.9409
 30
0.0
 10
24.1356
 20
-7.7949
 30
0.0
 10
24.1356
 20
-7.7949
 30
0.0
 10
24.1356
 20
-7.7145
 30
0.0
 10
24.1409
 20
-7.643
 30
0.0
 10
24.15
 20
-7.5792
 30
0.0
 10
24.15
 20
-7.5792
 30
0.0
 10
24.1596
 20
-7.5154
 30
0.0
 10
24.1725
 20
-7.458
 30
0.0
 10
24.1894
 20
-7.4066
 30
0.0
 10
24.1894
 20
-7.4066
 30
0.0
 10
24.2062
 20
-7.3552
 30
0.0
 10
24.2263
 20
-7.3085
 30
0.0
 10
24.2482
 20
-7.2665
 30
0.0
 10
24.2482
 20
-7.2665
 30
0.0
 10
24.2482
 20
-7.2665
 30
0.0
 10
23.9727
 20
-7.1885
 30
0.0
 10
23.9727
 20
-7.1885
 30
0.0
 10
23.9727
 20
-7.1885
 30
0.0
 10
23.954
 20
-7.2234
 30
0.0
 10
23.9358
 20
-7.2695
 30
0.0
 10
23.9171
 20
-7.328
 30
0.0
 10
23.9171
 20
-7.328
 30
0.0
 10
23.899
 20
-7.3865
 30
0.0
 10
23.8834
 20
-7.4545
 30
0.0
 10
23.8712
 20
-7.5325
 30
0.0
 10
23.8712
 20
-7.5325
 30
0.0
 10
23.8596
 20
-7.6099
 30
0.0
 10
23.8531
 20
-7.695
 30
0.0
 10
23.8525
 20
-7.7878
 30
0.0
 10
23.8525
 20
-7.7878
 30
0.0
 10
23.8531
 20
-7.9888
 30
0.0
 10
23.8874
 20
-8.1691
 30
0.0
 10
23.954
 20
-8.3281
 30
0.0
 10
23.954
 20
-8.3281
 30
0.0
 10
24.0205
 20
-8.4876
 30
0.0
 10
24.1143
 20
-8.6236
 30
0.0
 10
24.2353
 20
-8.7353
 30
0.0
 10
24.2353
 20
-8.7353
 30
0.0
 10
24.3562
 20
-8.8476
 30
0.0
 10
24.4985
 20
-8.9333
 30
0.0
 10
24.6628
 20
-8.9924
 30
0.0
 10
24.6628
 20
-8.9924
 30
0.0
 10
24.8271
 20
-9.0521
 30
0.0
 10
25.0069
 20
-9.0816
 30
0.0
 10
25.2028
 20
-9.0822
 30
0.0
 10
25.2028
 20
-9.0822
 30
0.0
 10
25.3393
 20
-9.0816
 30
0.0
 10
25.4673
 20
-9.068
 30
0.0
 10
25.5882
 20
-9.0415
 30
0.0
 10
25.5882
 20
-9.0415
 30
0.0
 10
25.7086
 20
-9.0149
 30
0.0
 10
25.8186
 20
-8.9764
 30
0.0
 10
25.9181
 20
-8.9268
 30
0.0
 10
25.9181
 20
-8.9268
 30
0.0
 10
26.0177
 20
-8.8771
 30
0.0
 10
26.1037
 20
-8.818
 30
0.0
 10
26.1768
 20
-8.7489
 30
0.0
 10
26.1768
 20
-8.7489
 30
0.0
 10
26.2984
 20
-8.6319
 30
0.0
 10
26.3863
 20
-8.4989
 30
0.0
 10
26.4413
 20
-8.3499
 30
0.0
 10
26.4413
 20
-8.3499
 30
0.0
 10
26.4963
 20
-8.201
 30
0.0
 10
26.5228
 20
-8.0361
 30
0.0
 10
26.5221
 20
-7.8552
 30
0.0
 10
26.5221
 20
-7.8552
 30
0.0
 10
26.5215
 20
-7.7471
 30
0.0
 10
26.5131
 20
-7.646
 30
0.0
 10
26.4976
 20
-7.5514
 30
0.0
 10
26.4976
 20
-7.5514
 30
0.0
 10
26.4821
 20
-7.4568
 30
0.0
 10
26.4633
 20
-7.3723
 30
0.0
 10
26.4419
 20
-7.2984
 30
0.0
 10
26.4419
 20
-7.2984
 30
0.0
 10
26.4199
 20
-7.2246
 30
0.0
 10
26.3986
 20
-7.1643
 30
0.0
 10
26.3786
 20
-7.1176
 30
0.0
 10
26.3786
 20
-7.1176
 30
0.0
 10
26.3786
 20
-7.1176
 30
0.0
 10
25.1213
 20
-7.1176
 30
0.0
 10
25.1213
 20
-7.1176
 30
0.0
  0
SPLINE
  5
85
330
1F
100
AcDbEntity
  8
ROUND
 62
   250
100
AcDbSpline
210
0.0
220
0.0
230
1.0
 70
    11
 71
     3
 72
    36
 73
    32
 74
     0
 42
0.0000000001
 43
0.0000000001
 40
0.0
 40
0.0
 40
0.0
 40
0.0
 40
0.1111111111111111
 40
0.1111111111111111
 40
0.1111111111111111
 40
0.1111111111111111
 40
0.2222222222222222
 40
0.2222222222222222
 40
0.2222222222222222
 40
0.2222222222222222
 40
0.3333333333333333
 40
0.3333333333333333
 40
0.3333333333333333
 40
0.3333333333333333
 40
0.4444444444444444
 40
0.4444444444444444
 40
0.4444444444444444
 40
0.4444444444444444
 40
0.5555555555555556
 40
0.5555555555555556
 40
0.5555555555555556
 40
0.5555555555555556
 40
0.6666666666666666
 40
0.6666666666666666
 40
0.6666666666666666
 40
0.6666666666666666
 40
0.7777777777777778
 40
0.7777777777777778
 40
0.7777777777777778
 40
0.7777777777777778
 40
1.0
 40
1.0
 40
1.0
 40
1.0
 10
26.495
 20
-5.3303
 30
0.0
 10
26.495
 20
-5.3303
 30
0.0
 10
26.495
 20
-5.0288
 30
0.0
 10
26.495
 20
-5.0288
 30
0.0
 10
26.495
 20
-5.0288
 30
0.0
 10
26.495
 20
-5.0288
 30
0.0
 10
23.9727
 20
-5.0288
 30
0.0
 10
23.9727
 20
-5.0288
 30
0.0
 10
23.9727
 20
-5.0288
 30
0.0
 10
23.9727
 20
-5.0288
 30
0.0
 10
23.9727
 20
-5.2948
 30
0.0
 10
23.9727
 20
-5.2948
 30
0.0
 10
23.9727
 20
-5.2948
 30
0.0
 10
23.9727
 20
-5.2948
 30
0.0
 10
24.2676
 20
-5.7984
 30
0.0
 10
24.2676
 20
-5.7984
 30
0.0
 10
24.2676
 20
-5.7984
 30
0.0
 10
24.2676
 20
-5.7984
 30
0.0
 10
24.5276
 20
-5.7381
 30
0.0
 10
24.5276
 20
-5.7381
 30
0.0
 10
24.5276
 20
-5.7381
 30
0.0
 10
24.5276
 20
-5.7381
 30
0.0
 10
24.2909
 20
-5.3374
 30
0.0
 10
24.2909
 20
-5.3374
 30
0.0
 10
24.2909
 20
-5.3374
 30
0.0
 10
24.2909
 20
-5.3374
 30
0.0
 10
24.2909
 20
-5.3303
 30
0.0
 10
24.2909
 20
-5.3303
 30
0.0
 10
24.2909
 20
-5.3303
 30
0.0
 10
24.2909
 20
-5.3303
 30
0.0
 10
26.495
 20
-5.3303
 30
0.0
 10
26.495
 20
-5.3303
 30
0.0
  0
SPLINE
  5
86
330
1F
100
AcDbEntity
  8
ROUND
 62
   250
100
AcDbSpline
210
0.0
220
0.0
230
1.0
 70
    11
 71
     3
 72
    20
 73
    16
 74
     0
 42
0.0000000001
 43
0.0000000001
 40
0.0
 40
0.0
 40
0.0
 40
0.0
 40
0.2
 40
0.2
 40
0.2
 40
0.2
 40
0.4
 40
0.4
 40
0.4
 40
0.4
 40
0.6
 40
0.6
 40
0.6
 40
0.6
 40
1.0
 40
1.0
 40
1.0
 40
1.0
 10
26.6463
 20
-4.1138
 30
0.0
 10
26.6463
 20
-4.1138
 30
0.0
 10
23.833
 20
-3.1209
 30
0.0
 10
23.833
 20
-3.1209
 30
0.0
 10
23.833
 20
-3.1209
 30
0.0
 10
23.833
 20
-3.1209
 30
0.0
 10
23.833
 20
-3.3656
 30
0.0
 10
23.833
 20
-3.3656
 30
0.0
 10
23.833
 20
-3.3656
 30
0.0
 10
23.833
 20
-3.3656
 30
0.0
 10
26.6463
 20
-4.3514
 30
0.0
 10
26.6463
 20
-4.3514
 30
0.0
 10
26.6463
 20
-4.3514
 30
0.0
 10
26.6463
 20
-4.3514
 30
0.0
 10
26.6463
 20
-4.1138
 30
0.0
 10
26.6463
 20
-4.1138
 30
0.0
  0
SPLINE
  5
87
330
1F
100
AcDbEntity
  8
ROUND
 62
   250
100
AcDbSpline
210
0.0
220
0.0
230
1.0
 70
    11
 71
     3
 72
   124
 73
   120
 74
     0
 42
0.0000000001
 43
0.0000000001
 40
0.0
 40
0.0
 40
0.0
 40
0.0
 40
0.032258064516129
 40
0.032258064516129
 40
0.032258064516129
 40
0.032258064516129
 40
0.0645161290322581
 40
0.0645161290322581
 40
0.0645161290322581
 40
0.0645161290322581
 40
0.0967741935483871
 40
0.0967741935483871
 40
0.0967741935483871
 40
0.0967741935483871
 40
0.1290322580645161
 40
0.1290322580645161
 40
0.1290322580645161
 40
0.1290322580645161
 40
0.1612903225806452
 40
0.1612903225806452
 40
0.1612903225806452
 40
0.1612903225806452
 40
0.1935483870967742
 40
0.1935483870967742
 40
0.1935483870967742
 40
0.1935483870967742
 40
0.2258064516129032
 40
0.2258064516129032
 40
0.2258064516129032
 40
0.2258064516129032
 40
0.2580645161290323
 40
0.2580645161290323
 40
0.2580645161290323
 40
0.2580645161290323
 40
0.2903225806451613
 40
0.2903225806451613
 40
0.2903225806451613
 40
0.2903225806451613
 40
0.3225806451612903
 40
0.3225806451612903
 40
0.3225806451612903
 40
0.3225806451612903
 40
0.3548387096774194
 40
0.3548387096774194
 40
0.3548387096774194
 40
0.3548387096774194
 40
0.3870967741935484
 40
0.3870967741935484
 40
0.3870967741935484
 40
0.3870967741935484
 40
0.4193548387096774
 40
0.4193548387096774
 40
0.4193548387096774
 40
0.4193548387096774
 40
0.4516129032258064
 40
0.4516129032258064
 40
0.4516129032258064
 40
0.4516129032258064
 40
0.4838709677419355
 40
0.4838709677419355
 40
0.4838709677419355
 40
0.4838709677419355
 40
0.5161290322580645
 40
0.5161290322580645
 40
0.5161290322580645
 40
0.5161290322580645
 40
0.5483870967741935
 40
0.5483870967741935
 40
0.5483870967741935
 40
0.5483870967741935
 40
0.5806451612903226
 40
0.5806451612903226
 40
0.5806451612903226
 40
0.5806451612903226
 40
0.6129032258064516
 40
0.6129032258064516
 40
0.6129032258064516
 40
0.6129032258064516
 40
0.6451612903225806
 40
0.6451612903225806
 40
0.6451612903225806
 40
0.6451612903225806
 40
0.6774193548387096
 40
0.6774193548387096
 40
0.6774193548387096
 40
0.6774193548387096
 40
0.7096774193548387
 40
0.7096774193548387
 40
0.7096774193548387
 40
0.7096774193548387
 40
0.7419354838709677
 40
0.7419354838709677
 40
0.7419354838709677
 40
0.7419354838709677
 40
0.7741935483870968
 40
0.7741935483870968
 40
0.7741935483870968
 40
0.7741935483870968
 40
0.8064516129032258
 40
0.8064516129032258
 40
0.8064516129032258
 40
0.8064516129032258
 40
0.8387096774193549
 40
0.8387096774193549
 40
0.8387096774193549
 40
0.8387096774193549
 40
0.8709677419354839
 40
0.8709677419354839
 40
0.8709677419354839
 40
0.8709677419354839
 40
0.9032258064516129
 40
0.9032258064516129
 40
0.9032258064516129
 40
0.9032258064516129
 40
0.9354838709677419
 40
0.9354838709677419
 40
0.9354838709677419
 40
0.9354838709677419
 40
1.0
 40
1.0
 40
1.0
 40
1.0
 10
26.495
 20
-1.5002
 30
0.0
 10
26.495
 20
-1.5002
 30
0.0
 10
26.2117
 20
-1.5002
 30
0.0
 10
26.2117
 20
-1.5002
 30
0.0
 10
26.2117
 20
-1.5002
 30
0.0
 10
26.2117
 20
-1.5002
 30
0.0
 10
26.2117
 20
-2.5322
 30
0.0
 10
26.2117
 20
-2.5322
 30
0.0
 10
26.2117
 20
-2.5322
 30
0.0
 10
26.2117
 20
-2.5322
 30
0.0
 10
26.2039
 20
-2.5322
 30
0.0
 10
26.2039
 20
-2.5322
 30
0.0
 10
26.2039
 20
-2.5322
 30
0.0
 10
26.2039
 20
-2.5322
 30
0.0
 10
26.0177
 20
-2.3513
 30
0.0
 10
26.0177
 20
-2.3513
 30
0.0
 10
26.0177
 20
-2.3513
 30
0.0
 10
25.8903
 20
-2.2296
 30
0.0
 10
25.7693
 20
-2.1196
 30
0.0
 10
25.6555
 20
-2.0221
 30
0.0
 10
25.6555
 20
-2.0221
 30
0.0
 10
25.5417
 20
-1.9246
 30
0.0
 10
25.4304
 20
-1.8412
 30
0.0
 10
25.3231
 20
-1.7721
 30
0.0
 10
25.3231
 20
-1.7721
 30
0.0
 10
25.2158
 20
-1.7023
 30
0.0
 10
25.1078
 20
-1.6497
 30
0.0
 10
24.9991
 20
-1.6125
 30
0.0
 10
24.9991
 20
-1.6125
 30
0.0
 10
24.8911
 20
-1.5759
 30
0.0
 10
24.7792
 20
-1.5575
 30
0.0
 10
24.6634
 20
-1.5569
 30
0.0
 10
24.6634
 20
-1.5569
 30
0.0
 10
24.5722
 20
-1.5569
 30
0.0
 10
24.483
 20
-1.5699
 30
0.0
 10
24.3963
 20
-1.5971
 30
0.0
 10
24.3963
 20
-1.5971
 30
0.0
 10
24.3096
 20
-1.6243
 30
0.0
 10
24.2314
 20
-1.6669
 30
0.0
 10
24.1616
 20
-1.7236
 30
0.0
 10
24.1616
 20
-1.7236
 30
0.0
 10
24.0911
 20
-1.7804
 30
0.0
 10
24.0354
 20
-1.8536
 30
0.0
 10
23.9941
 20
-1.9429
 30
0.0
 10
23.9941
 20
-1.9429
 30
0.0
 10
23.952
 20
-2.0321
 30
0.0
 10
23.9307
 20
-2.1385
 30
0.0
 10
23.93
 20
-2.2627
 30
0.0
 10
23.93
 20
-2.2627
 30
0.0
 10
23.9307
 20
-2.3501
 30
0.0
 10
23.9416
 20
-2.4335
 30
0.0
 10
23.9643
 20
-2.5127
 30
0.0
 10
23.9643
 20
-2.5127
 30
0.0
 10
23.9869
 20
-2.5919
 30
0.0
 10
24.0174
 20
-2.6652
 30
0.0
 10
24.0562
 20
-2.7325
 30
0.0
 10
24.0562
 20
-2.7325
 30
0.0
 10
24.0943
 20
-2.7993
 30
0.0
 10
24.1376
 20
-2.859
 30
0.0
 10
24.1862
 20
-2.9116
 30
0.0
 10
24.1862
 20
-2.9116
 30
0.0
 10
24.1862
 20
-2.9116
 30
0.0
 10
24.4267
 20
-2.8123
 30
0.0
 10
24.4267
 20
-2.8123
 30
0.0
 10
24.4267
 20
-2.8123
 30
0.0
 10
24.3938
 20
-2.7769
 30
0.0
 10
24.3607
 20
-2.7343
 30
0.0
 10
24.3285
 20
-2.6847
 30
0.0
 10
24.3285
 20
-2.6847
 30
0.0
 10
24.2954
 20
-2.635
 30
0.0
 10
24.2689
 20
-2.5801
 30
0.0
 10
24.2469
 20
-2.5192
 30
0.0
 10
24.2469
 20
-2.5192
 30
0.0
 10
24.2256
 20
-2.4583
 30
0.0
 10
24.214
 20
-2.3927
 30
0.0
 10
24.2133
 20
-2.3229
 30
0.0
 10
24.2133
 20
-2.3229
 30
0.0
 10
24.214
 20
-2.2372
 30
0.0
 10
24.2276
 20
-2.1651
 30
0.0
 10
24.254
 20
-2.1066
 30
0.0
 10
24.254
 20
-2.1066
 30
0.0
 10
24.2812
 20
-2.0487
 30
0.0
 10
24.3174
 20
-2.002
 30
0.0
 10
24.3634
 20
-1.9671
 30
0.0
 10
24.3634
 20
-1.9671
 30
0.0
 10
24.41
 20
-1.9323
 30
0.0
 10
24.4623
 20
-1.9068
 30
0.0
 10
24.5211
 20
-1.8915
 30
0.0
 10
24.5211
 20
-1.8915
 30
0.0
 10
24.58
 20
-1.8761
 30
0.0
 10
24.6415
 20
-1.8684
 30
0.0
 10
24.7062
 20
-1.869
 30
0.0
 10
24.7062
 20
-1.869
 30
0.0
 10
24.8005
 20
-1.869
 30
0.0
 10
24.8937
 20
-1.8862
 30
0.0
 10
24.9862
 20
-1.9204
 30
0.0
 10
24.9862
 20
-1.9204
 30
0.0
 10
25.0793
 20
-1.9547
 30
0.0
 10
25.1762
 20
-2.0067
 30
0.0
 10
25.2784
 20
-2.0771
 30
0.0
 10
25.2784
 20
-2.0771
 30
0.0
 10
25.3806
 20
-2.1474
 30
0.0
 10
25.4926
 20
-2.2367
 30
0.0
 10
25.6142
 20
-2.3448
 30
0.0
 10
25.6142
 20
-2.3448
 30
0.0
 10
25.7357
 20
-2.4524
 30
0.0
 10
25.8728
 20
-2.5801
 30
0.0
 10
26.0255
 20
-2.7272
 30
0.0
 10
26.0255
 20
-2.7272
 30
0.0
 10
26.0255
 20
-2.7272
 30
0.0
 10
26.2855
 20
-2.9719
 30
0.0
 10
26.2855
 20
-2.9719
 30
0.0
 10
26.2855
 20
-2.9719
 30
0.0
 10
26.2855
 20
-2.9719
 30
0.0
 10
26.495
 20
-2.9719
 30
0.0
 10
26.495
 20
-2.9719
 30
0.0
 10
26.495
 20
-2.9719
 30
0.0
 10
26.495
 20
-2.9719
 30
0.0
 10
26.495
 20
-1.5002
 30
0.0
 10
26.495
 20
-1.5002
 30
0.0
  0
SPLINE
  5
88
330
1F
100
AcDbEntity
  8
ROUND
 62
   250
100
AcDbSpline
210
0.0
220
0.0
230
1.0
 70
    11
 71
     3
 72
    20
 73
    16
 74
     0
 42
0.0000000001
 43
0.0000000001
 40
0.0
 40
0.0
 40
0.0
 40
0.0
 40
0.2
 40
0.2
 40
0.2
 40
0.2
 40
0.4
 40
0.4
 40
0.4
 40
0.4
 40
0.6
 40
0.6
 40
0.6
 40
0.6
 40
1.0
 40
1.0
 40
1.0
 40
1.0
 10
23.8098
 20
-1.1313
 30
0.0
 10
23.8098
 20
-1.1313
 30
0.0
 10
24.7411
 20
-1.0746
 30
0.0
 10
24.7411
 20
-1.0746
 30
0.0
 10
24.7411
 20
-1.0746
 30
0.0
 10
24.7411
 20
-1.0746
 30
0.0
 10
24.7411
 20
-0.8831
 30
0.0
 10
24.7411
 20
-0.8831
 30
0.0
 10
24.7411
 20
-0.8831
 30
0.0
 10
24.7411
 20
-0.8831
 30
0.0
 10
23.8098
 20
-0.8228
 30
0.0
 10
23.8098
 20
-0.8228
 30
0.0
 10
23.8098
 20
-0.8228
 30
0.0
 10
23.8098
 20
-0.8228
 30
0.0
 10
23.8098
 20
-1.1313
 30
0.0
 10
23.8098
 20
-1.1313
 30
0.0
  0
SPLINE
  5
89
330
1F
100
AcDbEntity
  8
ROUND
 62
   250
100
AcDbSpline
210
0.0
220
0.0
230
1.0
 70
    11
 71
     3
 72
    20
 73
    16
 74
     0
 42
0.0000000001
 43
0.0000000001
 40
0.0
 40
0.0
 40
0.0
 40
0.0
 40
0.2
 40
0.2
 40
0.2
 40
0.2
 40
0.4
 40
0.4
 40
0.4
 40
0.4
 40
0.6
 40
0.6
 40
0.6
 40
0.6
 40
1.0
 40
1.0
 40
1.0
 40
1.0
 10
23.8098
 20
-0.6029
 30
0.0
 10
23.8098
 20
-0.6029
 30
0.0
 10
24.7411
 20
-0.5427
 30
0.0
 10
24.7411
 20
-0.5427
 30
0.0
 10
24.7411
 20
-0.5427
 30
0.0
 10
24.7411
 20
-0.5427
 30
0.0
 10
24.7411
 20
-0.3547
 30
0.0
 10
24.7411
 20
-0.3547
 30
0.0
 10
24.7411
 20
-0.3547
 30
0.0
 10
24.7411
 20
-0.3547
 30
0.0
 10
23.8098
 20
-0.2944
 30
0.0
 10
23.8098
 20
-0.2944
 30
0.0
 10
23.8098
 20
-0.2944
 30
0.0
 10
23.8098
 20
-0.2944
 30
0.0
 10
23.8098
 20
-0.6029
 30
0.0
 10
23.8098
 20
-0.6029
 30
0.0
  0
SPLINE
  5
8A
330
1F
100
AcDbEntity
  8
ROUND
 62
   250
100
AcDbSpline
210
0.0
220
0.0
230
1.0
 70
    11
 71
     3
 72
   104
 73
   100
 74
     0
 42
0.0000000001
 43
0.0000000001
 40
0.0
 40
0.0
 40
0.0
 40
0.0
 40
0.0384615384615385
 40
0.0384615384615385
 40
0.0384615384615385
 40
0.0384615384615385
 40
0.0769230769230769
 40
0.0769230769230769
 40
0.0769230769230769
 40
0.0769230769230769
 40
0.1153846153846154
 40
0.1153846153846154
 40
0.1153846153846154
 40
0.1153846153846154
 40
0.1538461538461539
 40
0.1538461538461539
 40
0.1538461538461539
 40
0.1538461538461539
 40
0.1923076923076923
 40
0.1923076923076923
 40
0.1923076923076923
 40
0.1923076923076923
 40
0.2307692307692308
 40
0.2307692307692308
 40
0.2307692307692308
 40
0.2307692307692308
 40
0.2692307692307692
 40
0.2692307692307692
 40
0.2692307692307692
 40
0.2692307692307692
 40
0.3076923076923077
 40
0.3076923076923077
 40
0.3076923076923077
 40
0.3076923076923077
 40
0.3461538461538461
 40
0.3461538461538461
 40
0.3461538461538461
 40
0.3461538461538461
 40
0.3846153846153846
 40
0.3846153846153846
 40
0.3846153846153846
 40
0.3846153846153846
 40
0.4230769230769231
 40
0.4230769230769231
 40
0.4230769230769231
 40
0.4230769230769231
 40
0.4615384615384616
 40
0.4615384615384616
 40
0.4615384615384616
 40
0.4615384615384616
 40
0.5
 40
0.5
 40
0.5
 40
0.5
 40
0.5384615384615384
 40
0.5384615384615384
 40
0.5384615384615384
 40
0.5384615384615384
 40
0.5769230769230769
 40
0.5769230769230769
 40
0.5769230769230769
 40
0.5769230769230769
 40
0.6153846153846154
 40
0.6153846153846154
 40
0.6153846153846154
 40
0.6153846153846154
 40
0.6538461538461539
 40
0.6538461538461539
 40
0.6538461538461539
 40
0.6538461538461539
 40
0.6923076923076923
 40
0.6923076923076923
 40
0.6923076923076923
 40
0.6923076923076923
 40
0.7307692307692307
 40
0.7307692307692307
 40
0.7307692307692307
 40
0.7307692307692307
 40
0.7692307692307693
 40
0.7692307692307693
 40
0.7692307692307693
 40
0.7692307692307693
 40
0.8076923076923077
 40
0.8076923076923077
 40
0.8076923076923077
 40
0.8076923076923077
 40
0.8461538461538461
 40
0.8461538461538461
 40
0.8461538461538461
 40
0.8461538461538461
 40
0.8846153846153846
 40
0.8846153846153846
 40
0.8846153846153846
 40
0.8846153846153846
 40
0.9230769230769231
 40
0.9230769230769231
 40
0.9230769230769231
 40
0.9230769230769231
 40
1.0
 40
1.0
 40
1.0
 40
1.0
 10
32.859
 20
-7.0443
 30
0.0
 10
32.859
 20
-7.0443
 30
0.0
 10
32.5252
 20
-6.7998
 30
0.0
 10
32.5252
 20
-6.7998
 30
0.0
 10
32.5252
 20
-6.7998
 30
0.0
 10
32.5931
 20
-6.706
 30
0.0
 10
32.6455
 20
-6.6032
 30
0.0
 10
32.6811
 20
-6.492
 30
0.0
 10
32.6811
 20
-6.492
 30
0.0
 10
32.7167
 20
-6.3801
 30
0.0
 10
32.7348
 20
-6.263
 30
0.0
 10
32.7348
 20
-6.1401
 30
0.0
 10
32.7348
 20
-6.1401
 30
0.0
 10
32.7348
 20
-6.014
 30
0.0
 10
32.716
 20
-5.8918
 30
0.0
 10
32.6792
 20
-5.7747
 30
0.0
 10
32.6792
 20
-5.7747
 30
0.0
 10
32.6423
 20
-5.6577
 30
0.0
 10
32.5873
 20
-5.549
 30
0.0
 10
32.5136
 20
-5.4494
 30
0.0
 10
32.5136
 20
-5.4494
 30
0.0
 10
32.4405
 20
-5.3492
 30
0.0
 10
32.3487
 20
-5.2618
 30
0.0
 10
32.2387
 20
-5.1868
 30
0.0
 10
32.2387
 20
-5.1868
 30
0.0
 10
32.1288
 20
-5.1124
 30
0.0
 10
32.0007
 20
-5.0542
 30
0.0
 10
31.8539
 20
-5.0122
 30
0.0
 10
31.8539
 20
-5.0122
 30
0.0
 10
31.7077
 20
-4.9708
 30
0.0
 10
31.5435
 20
-4.9495
 30
0.0
 10
31.3611
 20
-4.9488
 30
0.0
 10
31.3611
 20
-4.9488
 30
0.0
 10
31.2324
 20
-4.9488
 30
0.0
 10
31.1101
 20
-4.9617
 30
0.0
 10
30.9937
 20
-4.9883
 30
0.0
 10
30.9937
 20
-4.9883
 30
0.0
 10
30.8767
 20
-5.0141
 30
0.0
 10
30.768
 20
-5.0523
 30
0.0
 10
30.6678
 20
-5.1021
 30
0.0
 10
30.6678
 20
-5.1021
 30
0.0
 10
30.5675
 20
-5.1525
 30
0.0
 10
30.4783
 20
-5.214
 30
0.0
 10
30.3987
 20
-5.2864
 30
0.0
 10
30.3987
 20
-5.2864
 30
0.0
 10
30.3987
 20
-5.2864
 30
0.0
 10
30.065
 20
-5.0458
 30
0.0
 10
30.065
 20
-5.0458
 30
0.0
 10
30.065
 20
-5.0458
 30
0.0
 10
30.065
 20
-5.0458
 30
0.0
 10
29.9253
 20
-5.2515
 30
0.0
 10
29.9253
 20
-5.2515
 30
0.0
 10
29.9253
 20
-5.2515
 30
0.0
 10
29.9253
 20
-5.2515
 30
0.0
 10
30.2396
 20
-5.4804
 30
0.0
 10
30.2396
 20
-5.4804
 30
0.0
 10
30.2396
 20
-5.4804
 30
0.0
 10
30.1698
 20
-5.5742
 30
0.0
 10
30.1174
 20
-5.6758
 30
0.0
 10
30.0825
 20
-5.7857
 30
0.0
 10
30.0825
 20
-5.7857
 30
0.0
 10
30.0475
 20
-5.8963
 30
0.0
 10
30.0301
 20
-6.0114
 30
0.0
 10
30.0301
 20
-6.1324
 30
0.0
 10
30.0301
 20
-6.1324
 30
0.0
 10
30.0307
 20
-6.305
 30
0.0
 10
30.0631
 20
-6.4641
 30
0.0
 10
30.1271
 20
-6.611
 30
0.0
 10
30.1271
 20
-6.611
 30
0.0
 10
30.1911
 20
-6.7571
 30
0.0
 10
30.2836
 20
-6.8845
 30
0.0
 10
30.4033
 20
-6.9932
 30
0.0
 10
30.4033
 20
-6.9932
 30
0.0
 10
30.5229
 20
-7.1025
 30
0.0
 10
30.6665
 20
-7.1866
 30
0.0
 10
30.834
 20
-7.2474
 30
0.0
 10
30.834
 20
-7.2474
 30
0.0
 10
31.0015
 20
-7.3075
 30
0.0
 10
31.1884
 20
-7.3386
 30
0.0
 10
31.396
 20
-7.3392
 30
0.0
 10
31.396
 20
-7.3392
 30
0.0
 10
31.5267
 20
-7.3392
 30
0.0
 10
31.6515
 20
-7.325
 30
0.0
 10
31.7692
 20
-7.2978
 30
0.0
 10
31.7692
 20
-7.2978
 30
0.0
 10
31.8869
 20
-7.2706
 30
0.0
 10
31.9962
 20
-7.2312
 30
0.0
 10
32.0964
 20
-7.1801
 30
0.0
 10
32.0964
 20
-7.1801
 30
0.0
 10
32.1967
 20
-7.1284
 30
0.0
 10
32.2866
 20
-7.0663
 30
0.0
 10
32.3661
 20
-6.9938
 30
0.0
 10
32.3661
 20
-6.9938
 30
0.0
 10
32.3661
 20
-6.9938
 30
0.0
 10
32.7037
 20
-7.2344
 30
0.0
 10
32.7037
 20
-7.2344
 30
0.0
 10
32.7037
 20
-7.2344
 30
0.0
 10
32.7037
 20
-7.2344
 30
0.0
 10
32.859
 20
-7.0443
 30
0.0
 10
32.859
 20
-7.0443
 30
0.0
  0
SPLINE
  5
8B
330
1F
100
AcDbEntity
  8
ROUND
 62
   250
100
AcDbSpline
210
0.0
220
0.0
230
1.0
 70
    11
 71
     3
 72
    52
 73
    48
 74
     0
 42
0.0000000001
 43
0.0000000001
 40
0.0
 40
0.0
 40
0.0
 40
0.0
 40
0.0769230769230769
 40
0.0769230769230769
 40
0.0769230769230769
 40
0.0769230769230769
 40
0.1538461538461539
 40
0.1538461538461539
 40
0.1538461538461539
 40
0.1538461538461539
 40
0.2307692307692308
 40
0.2307692307692308
 40
0.2307692307692308
 40
0.2307692307692308
 40
0.3076923076923077
 40
0.3076923076923077
 40
0.3076923076923077
 40
0.3076923076923077
 40
0.3846153846153846
 40
0.3846153846153846
 40
0.3846153846153846
 40
0.3846153846153846
 40
0.4615384615384616
 40
0.4615384615384616
 40
0.4615384615384616
 40
0.4615384615384616
 40
0.5384615384615384
 40
0.5384615384615384
 40
0.5384615384615384
 40
0.5384615384615384
 40
0.6153846153846154
 40
0.6153846153846154
 40
0.6153846153846154
 40
0.6153846153846154
 40
0.6923076923076923
 40
0.6923076923076923
 40
0.6923076923076923
 40
0.6923076923076923
 40
0.7692307692307693
 40
0.7692307692307693
 40
0.7692307692307693
 40
0.7692307692307693
 40
0.8461538461538461
 40
0.8461538461538461
 40
0.8461538461538461
 40
0.8461538461538461
 40
1.0
 40
1.0
 40
1.0
 40
1.0
 10
32.079
 20
-6.7959
 30
0.0
 10
32.079
 20
-6.7959
 30
0.0
 10
32.0829
 20
-6.8037
 30
0.0
 10
32.0829
 20
-6.8037
 30
0.0
 10
32.0829
 20
-6.8037
 30
0.0
 10
32.0162
 20
-6.8425
 30
0.0
 10
31.947
 20
-6.8761
 30
0.0
 10
31.8759
 20
-6.9046
 30
0.0
 10
31.8759
 20
-6.9046
 30
0.0
 10
31.8041
 20
-6.933
 30
0.0
 10
31.7284
 20
-6.955
 30
0.0
 10
31.647
 20
-6.9706
 30
0.0
 10
31.647
 20
-6.9706
 30
0.0
 10
31.5661
 20
-6.9861
 30
0.0
 10
31.4769
 20
-6.9938
 30
0.0
 10
31.3805
 20
-6.9938
 30
0.0
 10
31.3805
 20
-6.9938
 30
0.0
 10
31.2692
 20
-6.9938
 30
0.0
 10
31.1619
 20
-6.9822
 30
0.0
 10
31.0565
 20
-6.9596
 30
0.0
 10
31.0565
 20
-6.9596
 30
0.0
 10
30.9517
 20
-6.9363
 30
0.0
 10
30.8534
 20
-6.902
 30
0.0
 10
30.7628
 20
-6.8567
 30
0.0
 10
30.7628
 20
-6.8567
 30
0.0
 10
30.6717
 20
-6.8108
 30
0.0
 10
30.5915
 20
-6.7539
 30
0.0
 10
30.5229
 20
-6.6853
 30
0.0
 10
30.5229
 20
-6.6853
 30
0.0
 10
30.4537
 20
-6.6168
 30
0.0
 10
30.4
 20
-6.5372
 30
0.0
 10
30.3612
 20
-6.4467
 30
0.0
 10
30.3612
 20
-6.4467
 30
0.0
 10
30.3218
 20
-6.3555
 30
0.0
 10
30.3024
 20
-6.2533
 30
0.0
 10
30.3017
 20
-6.1401
 30
0.0
 10
30.3017
 20
-6.1401
 30
0.0
 10
30.3024
 20
-6.0412
 30
0.0
 10
30.3185
 20
-5.9506
 30
0.0
 10
30.3509
 20
-5.8691
 30
0.0
 10
30.3509
 20
-5.8691
 30
0.0
 10
30.3826
 20
-5.787
 30
0.0
 10
30.4272
 20
-5.7133
 30
0.0
 10
30.4841
 20
-5.6473
 30
0.0
 10
30.4841
 20
-5.6473
 30
0.0
 10
30.4841
 20
-5.6473
 30
0.0
 10
32.079
 20
-6.7959
 30
0.0
 10
32.079
 20
-6.7959
 30
0.0
  0
SPLINE
  5
8C
330
1F
100
AcDbEntity
  8
ROUND
 62
   250
100
AcDbSpline
210
0.0
220
0.0
230
1.0
 70
    11
 71
     3
 72
    48
 73
    44
 74
     0
 42
0.0000000001
 43
0.0000000001
 40
0.0
 40
0.0
 40
0.0
 40
0.0
 40
0.0833333333333333
 40
0.0833333333333333
 40
0.0833333333333333
 40
0.0833333333333333
 40
0.1666666666666667
 40
0.1666666666666667
 40
0.1666666666666667
 40
0.1666666666666667
 40
0.25
 40
0.25
 40
0.25
 40
0.25
 40
0.3333333333333333
 40
0.3333333333333333
 40
0.3333333333333333
 40
0.3333333333333333
 40
0.4166666666666667
 40
0.4166666666666667
 40
0.4166666666666667
 40
0.4166666666666667
 40
0.5
 40
0.5
 40
0.5
 40
0.5
 40
0.5833333333333334
 40
0.5833333333333334
 40
0.5833333333333334
 40
0.5833333333333334
 40
0.6666666666666666
 40
0.6666666666666666
 40
0.6666666666666666
 40
0.6666666666666666
 40
0.75
 40
0.75
 40
0.75
 40
0.75
 40
0.8333333333333334
 40
0.8333333333333334
 40
0.8333333333333334
 40
0.8333333333333334
 40
1.0
 40
1.0
 40
1.0
 40
1.0
 10
30.6898
 20
-5.4882
 30
0.0
 10
30.6898
 20
-5.4882
 30
0.0
 10
30.6898
 20
-5.4766
 30
0.0
 10
30.6898
 20
-5.4766
 30
0.0
 10
30.6898
 20
-5.4766
 30
0.0
 10
30.8023
 20
-5.4093
 30
0.0
 10
30.9161
 20
-5.3621
 30
0.0
 10
31.0312
 20
-5.3343
 30
0.0
 10
31.0312
 20
-5.3343
 30
0.0
 10
31.1457
 20
-5.3065
 30
0.0
 10
31.2595
 20
-5.2929
 30
0.0
 10
31.3727
 20
-5.2942
 30
0.0
 10
31.3727
 20
-5.2942
 30
0.0
 10
31.4904
 20
-5.2942
 30
0.0
 10
31.603
 20
-5.3065
 30
0.0
 10
31.711
 20
-5.3304
 30
0.0
 10
31.711
 20
-5.3304
 30
0.0
 10
31.819
 20
-5.3543
 30
0.0
 10
31.9186
 20
-5.3899
 30
0.0
 10
32.0098
 20
-5.4365
 30
0.0
 10
32.0098
 20
-5.4365
 30
0.0
 10
32.101
 20
-5.4837
 30
0.0
 10
32.1805
 20
-5.5412
 30
0.0
 10
32.2478
 20
-5.6098
 30
0.0
 10
32.2478
 20
-5.6098
 30
0.0
 10
32.3157
 20
-5.679
 30
0.0
 10
32.3687
 20
-5.7579
 30
0.0
 10
32.4062
 20
-5.8471
 30
0.0
 10
32.4062
 20
-5.8471
 30
0.0
 10
32.4437
 20
-5.9364
 30
0.0
 10
32.4625
 20
-6.0354
 30
0.0
 10
32.4632
 20
-6.144
 30
0.0
 10
32.4632
 20
-6.144
 30
0.0
 10
32.4632
 20
-6.2494
 30
0.0
 10
32.447
 20
-6.3419
 30
0.0
 10
32.4153
 20
-6.4202
 30
0.0
 10
32.4153
 20
-6.4202
 30
0.0
 10
32.3836
 20
-6.4991
 30
0.0
 10
32.337
 20
-6.5696
 30
0.0
 10
32.2769
 20
-6.633
 30
0.0
 10
32.2769
 20
-6.633
 30
0.0
 10
32.2769
 20
-6.633
 30
0.0
 10
30.6898
 20
-5.4882
 30
0.0
 10
30.6898
 20
-5.4882
 30
0.0
  0
SPLINE
  5
8D
330
1F
100
AcDbEntity
  8
ROUND
 62
   250
100
AcDbSpline
210
0.0
220
0.0
230
1.0
 70
    11
 71
     3
 72
   132
 73
   128
 74
     0
 42
0.0000000001
 43
0.0000000001
 40
0.0
 40
0.0
 40
0.0
 40
0.0
 40
0.0303030303030303
 40
0.0303030303030303
 40
0.0303030303030303
 40
0.0303030303030303
 40
0.0606060606060606
 40
0.0606060606060606
 40
0.0606060606060606
 40
0.0606060606060606
 40
0.0909090909090909
 40
0.0909090909090909
 40
0.0909090909090909
 40
0.0909090909090909
 40
0.1212121212121212
 40
0.1212121212121212
 40
0.1212121212121212
 40
0.1212121212121212
 40
0.1515151515151515
 40
0.1515151515151515
 40
0.1515151515151515
 40
0.1515151515151515
 40
0.1818181818181818
 40
0.1818181818181818
 40
0.1818181818181818
 40
0.1818181818181818
 40
0.2121212121212121
 40
0.2121212121212121
 40
0.2121212121212121
 40
0.2121212121212121
 40
0.2424242424242424
 40
0.2424242424242424
 40
0.2424242424242424
 40
0.2424242424242424
 40
0.2727272727272727
 40
0.2727272727272727
 40
0.2727272727272727
 40
0.2727272727272727
 40
0.303030303030303
 40
0.303030303030303
 40
0.303030303030303
 40
0.303030303030303
 40
0.3333333333333333
 40
0.3333333333333333
 40
0.3333333333333333
 40
0.3333333333333333
 40
0.3636363636363636
 40
0.3636363636363636
 40
0.3636363636363636
 40
0.3636363636363636
 40
0.3939393939393939
 40
0.3939393939393939
 40
0.3939393939393939
 40
0.3939393939393939
 40
0.4242424242424243
 40
0.4242424242424243
 40
0.4242424242424243
 40
0.4242424242424243
 40
0.4545454545454545
 40
0.4545454545454545
 40
0.4545454545454545
 40
0.4545454545454545
 40
0.4848484848484849
 40
0.4848484848484849
 40
0.4848484848484849
 40
0.4848484848484849
 40
0.5151515151515151
 40
0.5151515151515151
 40
0.5151515151515151
 40
0.5151515151515151
 40
0.5454545454545454
 40
0.5454545454545454
 40
0.5454545454545454
 40
0.5454545454545454
 40
0.5757575757575758
 40
0.5757575757575758
 40
0.5757575757575758
 40
0.5757575757575758
 40
0.6060606060606061
 40
0.6060606060606061
 40
0.6060606060606061
 40
0.6060606060606061
 40
0.6363636363636364
 40
0.6363636363636364
 40
0.6363636363636364
 40
0.6363636363636364
 40
0.6666666666666666
 40
0.6666666666666666
 40
0.6666666666666666
 40
0.6666666666666666
 40
0.696969696969697
 40
0.696969696969697
 40
0.696969696969697
 40
0.696969696969697
 40
0.7272727272727273
 40
0.7272727272727273
 40
0.7272727272727273
 40
0.7272727272727273
 40
0.7575757575757576
 40
0.7575757575757576
 40
0.7575757575757576
 40
0.7575757575757576
 40
0.7878787878787878
 40
0.7878787878787878
 40
0.7878787878787878
 40
0.7878787878787878
 40
0.8181818181818182
 40
0.8181818181818182
 40
0.8181818181818182
 40
0.8181818181818182
 40
0.8484848484848485
 40
0.8484848484848485
 40
0.8484848484848485
 40
0.8484848484848485
 40
0.8787878787878788
 40
0.8787878787878788
 40
0.8787878787878788
 40
0.8787878787878788
 40
0.9090909090909091
 40
0.9090909090909091
 40
0.9090909090909091
 40
0.9090909090909091
 40
0.9393939393939394
 40
0.9393939393939394
 40
0.9393939393939394
 40
0.9393939393939394
 40
1.0
 40
1.0
 40
1.0
 40
1.0
 10
30.1698
 20
-3.1249
 30
0.0
 10
30.1698
 20
-3.1249
 30
0.0
 10
30.1698
 20
-4.3318
 30
0.0
 10
30.1698
 20
-4.3318
 30
0.0
 10
30.1698
 20
-4.3318
 30
0.0
 10
30.1698
 20
-4.3318
 30
0.0
 10
31.3805
 20
-4.4948
 30
0.0
 10
31.3805
 20
-4.4948
 30
0.0
 10
31.3805
 20
-4.4948
 30
0.0
 10
31.374
 20
-4.4482
 30
0.0
 10
31.3688
 20
-4.3965
 30
0.0
 10
31.3643
 20
-4.3382
 30
0.0
 10
31.3643
 20
-4.3382
 30
0.0
 10
31.3598
 20
-4.2807
 30
0.0
 10
31.3572
 20
-4.2147
 30
0.0
 10
31.3572
 20
-4.1416
 30
0.0
 10
31.3572
 20
-4.1416
 30
0.0
 10
31.3579
 20
-3.9748
 30
0.0
 10
31.3818
 20
-3.8383
 30
0.0
 10
31.4284
 20
-3.7322
 30
0.0
 10
31.4284
 20
-3.7322
 30
0.0
 10
31.4756
 20
-3.6255
 30
0.0
 10
31.5402
 20
-3.5466
 30
0.0
 10
31.623
 20
-3.4955
 30
0.0
 10
31.623
 20
-3.4955
 30
0.0
 10
31.7065
 20
-3.4444
 30
0.0
 10
31.8028
 20
-3.4192
 30
0.0
 10
31.9121
 20
-3.4199
 30
0.0
 10
31.9121
 20
-3.4199
 30
0.0
 10
31.9968
 20
-3.4192
 30
0.0
 10
32.0725
 20
-3.4347
 30
0.0
 10
32.1398
 20
-3.4664
 30
0.0
 10
32.1398
 20
-3.4664
 30
0.0
 10
32.2077
 20
-3.4975
 30
0.0
 10
32.2646
 20
-3.5408
 30
0.0
 10
32.3125
 20
-3.5958
 30
0.0
 10
32.3125
 20
-3.5958
 30
0.0
 10
32.3597
 20
-3.6508
 30
0.0
 10
32.3959
 20
-3.7141
 30
0.0
 10
32.4211
 20
-3.7859
 30
0.0
 10
32.4211
 20
-3.7859
 30
0.0
 10
32.4463
 20
-3.8577
 30
0.0
 10
32.4593
 20
-3.9334
 30
0.0
 10
32.4593
 20
-4.0136
 30
0.0
 10
32.4593
 20
-4.0136
 30
0.0
 10
32.4586
 20
-4.0918
 30
0.0
 10
32.4515
 20
-4.1656
 30
0.0
 10
32.4366
 20
-4.2348
 30
0.0
 10
32.4366
 20
-4.2348
 30
0.0
 10
32.4224
 20
-4.304
 30
0.0
 10
32.4049
 20
-4.3661
 30
0.0
 10
32.3836
 20
-4.421
 30
0.0
 10
32.3836
 20
-4.421
 30
0.0
 10
32.3623
 20
-4.476
 30
0.0
 10
32.3409
 20
-4.5213
 30
0.0
 10
32.3196
 20
-4.5568
 30
0.0
 10
32.3196
 20
-4.5568
 30
0.0
 10
32.3196
 20
-4.5568
 30
0.0
 10
32.5796
 20
-4.6422
 30
0.0
 10
32.5796
 20
-4.6422
 30
0.0
 10
32.5796
 20
-4.6422
 30
0.0
 10
32.6061
 20
-4.6002
 30
0.0
 10
32.6307
 20
-4.5478
 30
0.0
 10
32.6546
 20
-4.4851
 30
0.0
 10
32.6546
 20
-4.4851
 30
0.0
 10
32.6779
 20
-4.4223
 30
0.0
 10
32.6966
 20
-4.3512
 30
0.0
 10
32.7115
 20
-4.2716
 30
0.0
 10
32.7115
 20
-4.2716
 30
0.0
 10
32.7264
 20
-4.1914
 30
0.0
 10
32.7341
 20
-4.1054
 30
0.0
 10
32.7348
 20
-4.0136
 30
0.0
 10
32.7348
 20
-4.0136
 30
0.0
 10
32.7341
 20
-3.8758
 30
0.0
 10
32.7121
 20
-3.7504
 30
0.0
 10
32.6695
 20
-3.6359
 30
0.0
 10
32.6695
 20
-3.6359
 30
0.0
 10
32.6268
 20
-3.5214
 30
0.0
 10
32.5666
 20
-3.4224
 30
0.0
 10
32.489
 20
-3.339
 30
0.0
 10
32.489
 20
-3.339
 30
0.0
 10
32.4114
 20
-3.2549
 30
0.0
 10
32.3202
 20
-3.1903
 30
0.0
 10
32.2161
 20
-3.1443
 30
0.0
 10
32.2161
 20
-3.1443
 30
0.0
 10
32.1113
 20
-3.0984
 30
0.0
 10
31.9968
 20
-3.0751
 30
0.0
 10
31.8733
 20
-3.0745
 30
0.0
 10
31.8733
 20
-3.0745
 30
0.0
 10
31.7685
 20
-3.0751
 30
0.0
 10
31.6741
 20
-3.092
 30
0.0
 10
31.5907
 20
-3.1243
 30
0.0
 10
31.5907
 20
-3.1243
 30
0.0
 10
31.5073
 20
-3.1566
 30
0.0
 10
31.4355
 20
-3.1993
 30
0.0
 10
31.3747
 20
-3.2536
 30
0.0
 10
31.3747
 20
-3.2536
 30
0.0
 10
31.3139
 20
-3.308
 30
0.0
 10
31.2654
 20
-3.3688
 30
0.0
 10
31.2292
 20
-3.4354
 30
0.0
 10
31.2292
 20
-3.4354
 30
0.0
 10
31.1813
 20
-3.5136
 30
0.0
 10
31.1464
 20
-3.5984
 30
0.0
 10
31.125
 20
-3.6908
 30
0.0
 10
31.125
 20
-3.6908
 30
0.0
 10
31.1037
 20
-3.7833
 30
0.0
 10
31.0927
 20
-3.8791
 30
0.0
 10
31.0933
 20
-3.9787
 30
0.0
 10
31.0933
 20
-3.9787
 30
0.0
 10
31.0933
 20
-4.0239
 30
0.0
 10
31.094
 20
-4.0627
 30
0.0
 10
31.0959
 20
-4.0944
 30
0.0
 10
31.0959
 20
-4.0944
 30
0.0
 10
31.0979
 20
-4.1261
 30
0.0
 10
31.1011
 20
-4.1559
 30
0.0
 10
31.105
 20
-4.1843
 30
0.0
 10
31.105
 20
-4.1843
 30
0.0
 10
31.105
 20
-4.1843
 30
0.0
 10
30.4569
 20
-4.0873
 30
0.0
 10
30.4569
 20
-4.0873
 30
0.0
 10
30.4569
 20
-4.0873
 30
0.0
 10
30.4569
 20
-4.0873
 30
0.0
 10
30.4569
 20
-3.1249
 30
0.0
 10
30.4569
 20
-3.1249
 30
0.0
 10
30.4569
 20
-3.1249
 30
0.0
 10
30.4569
 20
-3.1249
 30
0.0
 10
30.1698
 20
-3.1249
 30
0.0
 10
30.1698
 20
-3.1249
 30
0.0
  0
SPLINE
  5
8E
330
1F
100
AcDbEntity
  8
ROUND
 62
   250
100
AcDbSpline
210
0.0
220
0.0
230
1.0
 70
    11
 71
     3
 72
   124
 73
   120
 74
     0
 42
0.0000000001
 43
0.0000000001
 40
0.0
 40
0.0
 40
0.0
 40
0.0
 40
0.032258064516129
 40
0.032258064516129
 40
0.032258064516129
 40
0.032258064516129
 40
0.0645161290322581
 40
0.0645161290322581
 40
0.0645161290322581
 40
0.0645161290322581
 40
0.0967741935483871
 40
0.0967741935483871
 40
0.0967741935483871
 40
0.0967741935483871
 40
0.1290322580645161
 40
0.1290322580645161
 40
0.1290322580645161
 40
0.1290322580645161
 40
0.1612903225806452
 40
0.1612903225806452
 40
0.1612903225806452
 40
0.1612903225806452
 40
0.1935483870967742
 40
0.1935483870967742
 40
0.1935483870967742
 40
0.1935483870967742
 40
0.2258064516129032
 40
0.2258064516129032
 40
0.2258064516129032
 40
0.2258064516129032
 40
0.2580645161290323
 40
0.2580645161290323
 40
0.2580645161290323
 40
0.2580645161290323
 40
0.2903225806451613
 40
0.2903225806451613
 40
0.2903225806451613
 40
0.2903225806451613
 40
0.3225806451612903
 40
0.3225806451612903
 40
0.3225806451612903
 40
0.3225806451612903
 40
0.3548387096774194
 40
0.3548387096774194
 40
0.3548387096774194
 40
0.3548387096774194
 40
0.3870967741935484
 40
0.3870967741935484
 40
0.3870967741935484
 40
0.3870967741935484
 40
0.4193548387096774
 40
0.4193548387096774
 40
0.4193548387096774
 40
0.4193548387096774
 40
0.4516129032258064
 40
0.4516129032258064
 40
0.4516129032258064
 40
0.4516129032258064
 40
0.4838709677419355
 40
0.4838709677419355
 40
0.4838709677419355
 40
0.4838709677419355
 40
0.5161290322580645
 40
0.5161290322580645
 40
0.5161290322580645
 40
0.5161290322580645
 40
0.5483870967741935
 40
0.5483870967741935
 40
0.5483870967741935
 40
0.5483870967741935
 40
0.5806451612903226
 40
0.5806451612903226
 40
0.5806451612903226
 40
0.5806451612903226
 40
0.6129032258064516
 40
0.6129032258064516
 40
0.6129032258064516
 40
0.6129032258064516
 40
0.6451612903225806
 40
0.6451612903225806
 40
0.6451612903225806
 40
0.6451612903225806
 40
0.6774193548387096
 40
0.6774193548387096
 40
0.6774193548387096
 40
0.6774193548387096
 40
0.7096774193548387
 40
0.7096774193548387
 40
0.7096774193548387
 40
0.7096774193548387
 40
0.7419354838709677
 40
0.7419354838709677
 40
0.7419354838709677
 40
0.7419354838709677
 40
0.7741935483870968
 40
0.7741935483870968
 40
0.7741935483870968
 40
0.7741935483870968
 40
0.8064516129032258
 40
0.8064516129032258
 40
0.8064516129032258
 40
0.8064516129032258
 40
0.8387096774193549
 40
0.8387096774193549
 40
0.8387096774193549
 40
0.8387096774193549
 40
0.8709677419354839
 40
0.8709677419354839
 40
0.8709677419354839
 40
0.8709677419354839
 40
0.9032258064516129
 40
0.9032258064516129
 40
0.9032258064516129
 40
0.9032258064516129
 40
0.9354838709677419
 40
0.9354838709677419
 40
0.9354838709677419
 40
0.9354838709677419
 40
1.0
 40
1.0
 40
1.0
 40
1.0
 10
31.3766
 20
-2.1703
 30
0.0
 10
31.4206
 20
-2.2745
 30
0.0
 10
31.4756
 20
-2.3637
 30
0.0
 10
31.5402
 20
-2.4381
 30
0.0
 10
31.5402
 20
-2.4381
 30
0.0
 10
31.6056
 20
-2.5125
 30
0.0
 10
31.6812
 20
-2.57
 30
0.0
 10
31.7672
 20
-2.6101
 30
0.0
 10
31.7672
 20
-2.6101
 30
0.0
 10
31.8533
 20
-2.6502
 30
0.0
 10
31.9496
 20
-2.6703
 30
0.0
 10
32.0557
 20
-2.6709
 30
0.0
 10
32.0557
 20
-2.6709
 30
0.0
 10
32.1488
 20
-2.6703
 30
0.0
 10
32.2355
 20
-2.6515
 30
0.0
 10
32.3176
 20
-2.6127
 30
0.0
 10
32.3176
 20
-2.6127
 30
0.0
 10
32.3991
 20
-2.5746
 30
0.0
 10
32.4709
 20
-2.5189
 30
0.0
 10
32.5336
 20
-2.4459
 30
0.0
 10
32.5336
 20
-2.4459
 30
0.0
 10
32.5957
 20
-2.3728
 30
0.0
 10
32.6449
 20
-2.2842
 30
0.0
 10
32.6805
 20
-2.18
 30
0.0
 10
32.6805
 20
-2.18
 30
0.0
 10
32.716
 20
-2.0753
 30
0.0
 10
32.7341
 20
-1.9569
 30
0.0
 10
32.7348
 20
-1.825
 30
0.0
 10
32.7348
 20
-1.825
 30
0.0
 10
32.7341
 20
-1.704
 30
0.0
 10
32.7167
 20
-1.5915
 30
0.0
 10
32.6824
 20
-1.488
 30
0.0
 10
32.6824
 20
-1.488
 30
0.0
 10
32.6481
 20
-1.3845
 30
0.0
 10
32.5983
 20
-1.2933
 30
0.0
 10
32.5336
 20
-1.2157
 30
0.0
 10
32.5336
 20
-1.2157
 30
0.0
 10
32.4696
 20
-1.1381
 30
0.0
 10
32.3927
 20
-1.0773
 30
0.0
 10
32.3028
 20
-1.034
 30
0.0
 10
32.3028
 20
-1.034
 30
0.0
 10
32.2129
 20
-0.99
 30
0.0
 10
32.1126
 20
-0.968
 30
0.0
 10
32.0014
 20
-0.9674
 30
0.0
 10
32.0014
 20
-0.9674
 30
0.0
 10
31.9005
 20
-0.968
 30
0.0
 10
31.8086
 20
-0.9887
 30
0.0
 10
31.7252
 20
-1.0295
 30
0.0
 10
31.7252
 20
-1.0295
 30
0.0
 10
31.6424
 20
-1.0702
 30
0.0
 10
31.5693
 20
-1.1284
 30
0.0
 10
31.5066
 20
-1.2041
 30
0.0
 10
31.5066
 20
-1.2041
 30
0.0
 10
31.4432
 20
-1.2798
 30
0.0
 10
31.3908
 20
-1.3703
 30
0.0
 10
31.3494
 20
-1.4757
 30
0.0
 10
31.3494
 20
-1.4757
 30
0.0
 10
31.3494
 20
-1.4757
 30
0.0
 10
31.3378
 20
-1.4757
 30
0.0
 10
31.3378
 20
-1.4757
 30
0.0
 10
31.3378
 20
-1.4757
 30
0.0
 10
31.2893
 20
-1.3729
 30
0.0
 10
31.233
 20
-1.2908
 30
0.0
 10
31.1684
 20
-1.2293
 30
0.0
 10
31.1684
 20
-1.2293
 30
0.0
 10
31.1043
 20
-1.1679
 30
0.0
 10
31.0358
 20
-1.1232
 30
0.0
 10
30.964
 20
-1.0961
 30
0.0
 10
30.964
 20
-1.0961
 30
0.0
 10
30.8915
 20
-1.0696
 30
0.0
 10
30.8198
 20
-1.056
 30
0.0
 10
30.748
 20
-1.0566
 30
0.0
 10
30.748
 20
-1.0566
 30
0.0
 10
30.6678
 20
-1.0566
 30
0.0
 10
30.5902
 20
-1.0722
 30
0.0
 10
30.5164
 20
-1.1032
 30
0.0
 10
30.5164
 20
-1.1032
 30
0.0
 10
30.4427
 20
-1.1342
 30
0.0
 10
30.3767
 20
-1.1802
 30
0.0
 10
30.3179
 20
-1.2416
 30
0.0
 10
30.3179
 20
-1.2416
 30
0.0
 10
30.2597
 20
-1.3037
 30
0.0
 10
30.2131
 20
-1.3807
 30
0.0
 10
30.1795
 20
-1.4725
 30
0.0
 10
30.1795
 20
-1.4725
 30
0.0
 10
30.1452
 20
-1.5643
 30
0.0
 10
30.1277
 20
-1.6717
 30
0.0
 10
30.1271
 20
-1.7939
 30
0.0
 10
30.1271
 20
-1.7939
 30
0.0
 10
30.1277
 20
-1.9058
 30
0.0
 10
30.1439
 20
-2.0099
 30
0.0
 10
30.1756
 20
-2.1044
 30
0.0
 10
30.1756
 20
-2.1044
 30
0.0
 10
30.2079
 20
-2.1994
 30
0.0
 10
30.2532
 20
-2.2822
 30
0.0
 10
30.3127
 20
-2.3534
 30
0.0
 10
30.3127
 20
-2.3534
 30
0.0
 10
30.3722
 20
-2.4239
 30
0.0
 10
30.4427
 20
-2.4788
 30
0.0
 10
30.5248
 20
-2.5183
 30
0.0
 10
30.5248
 20
-2.5183
 30
0.0
 10
30.607
 20
-2.5571
 30
0.0
 10
30.6982
 20
-2.5771
 30
0.0
 10
30.7984
 20
-2.5778
 30
0.0
 10
30.7984
 20
-2.5778
 30
0.0
 10
30.8715
 20
-2.5778
 30
0.0
 10
30.9426
 20
-2.5642
 30
0.0
 10
31.0125
 20
-2.5358
 30
0.0
 10
31.0125
 20
-2.5358
 30
0.0
 10
31.0823
 20
-2.5079
 30
0.0
 10
31.1477
 20
-2.464
 30
0.0
 10
31.2078
 20
-2.4045
 30
0.0
 10
31.2078
 20
-2.4045
 30
0.0
 10
31.268
 20
-2.345
 30
0.0
 10
31.3203
 20
-2.2686
 30
0.0
 10
31.365
 20
-2.1742
 30
0.0
 10
31.365
 20
-2.1742
 30
0.0
 10
31.365
 20
-2.1742
 30
0.0
 10
31.3766
 20
-2.1703
 30
0.0
 10
31.3766
 20
-2.1703
 30
0.0
  0
SPLINE
  5
8F
330
1F
100
AcDbEntity
  8
ROUND
 62
   250
100
AcDbSpline
210
0.0
220
0.0
230
1.0
 70
    11
 71
     3
 72
    56
 73
    52
 74
     0
 42
0.0000000001
 43
0.0000000001
 40
0.0
 40
0.0
 40
0.0
 40
0.0
 40
0.0714285714285714
 40
0.0714285714285714
 40
0.0714285714285714
 40
0.0714285714285714
 40
0.1428571428571428
 40
0.1428571428571428
 40
0.1428571428571428
 40
0.1428571428571428
 40
0.2142857142857143
 40
0.2142857142857143
 40
0.2142857142857143
 40
0.2142857142857143
 40
0.2857142857142857
 40
0.2857142857142857
 40
0.2857142857142857
 40
0.2857142857142857
 40
0.3571428571428572
 40
0.3571428571428572
 40
0.3571428571428572
 40
0.3571428571428572
 40
0.4285714285714285
 40
0.4285714285714285
 40
0.4285714285714285
 40
0.4285714285714285
 40
0.5
 40
0.5
 40
0.5
 40
0.5
 40
0.5714285714285714
 40
0.5714285714285714
 40
0.5714285714285714
 40
0.5714285714285714
 40
0.6428571428571429
 40
0.6428571428571429
 40
0.6428571428571429
 40
0.6428571428571429
 40
0.7142857142857143
 40
0.7142857142857143
 40
0.7142857142857143
 40
0.7142857142857143
 40
0.7857142857142857
 40
0.7857142857142857
 40
0.7857142857142857
 40
0.7857142857142857
 40
0.8571428571428571
 40
0.8571428571428571
 40
0.8571428571428571
 40
0.8571428571428571
 40
1.0
 40
1.0
 40
1.0
 40
1.0
 10
32.4864
 20
-1.8172
 30
0.0
 10
32.4858
 20
-1.8981
 30
0.0
 10
32.4729
 20
-1.9698
 30
0.0
 10
32.4476
 20
-2.0332
 30
0.0
 10
32.4476
 20
-2.0332
 30
0.0
 10
32.4218
 20
-2.0973
 30
0.0
 10
32.3868
 20
-2.1509
 30
0.0
 10
32.3422
 20
-2.1949
 30
0.0
 10
32.3422
 20
-2.1949
 30
0.0
 10
32.2982
 20
-2.2382
 30
0.0
 10
32.2471
 20
-2.2712
 30
0.0
 10
32.1902
 20
-2.2932
 30
0.0
 10
32.1902
 20
-2.2932
 30
0.0
 10
32.1333
 20
-2.3146
 30
0.0
 10
32.0725
 20
-2.3243
 30
0.0
 10
32.0091
 20
-2.3217
 30
0.0
 10
32.0091
 20
-2.3217
 30
0.0
 10
31.9283
 20
-2.3217
 30
0.0
 10
31.8539
 20
-2.3042
 30
0.0
 10
31.7854
 20
-2.2693
 30
0.0
 10
31.7854
 20
-2.2693
 30
0.0
 10
31.7168
 20
-2.235
 30
0.0
 10
31.6567
 20
-2.1839
 30
0.0
 10
31.6056
 20
-2.1167
 30
0.0
 10
31.6056
 20
-2.1167
 30
0.0
 10
31.5545
 20
-2.0487
 30
0.0
 10
31.5144
 20
-1.966
 30
0.0
 10
31.4853
 20
-1.8677
 30
0.0
 10
31.4853
 20
-1.8677
 30
0.0
 10
31.517
 20
-1.7532
 30
0.0
 10
31.5564
 20
-1.6549
 30
0.0
 10
31.6043
 20
-1.5721
 30
0.0
 10
31.6043
 20
-1.5721
 30
0.0
 10
31.6515
 20
-1.4893
 30
0.0
 10
31.7103
 20
-1.4253
 30
0.0
 10
31.7802
 20
-1.3807
 30
0.0
 10
31.7802
 20
-1.3807
 30
0.0
 10
31.8507
 20
-1.336
 30
0.0
 10
31.936
 20
-1.3134
 30
0.0
 10
32.0363
 20
-1.3127
 30
0.0
 10
32.0363
 20
-1.3127
 30
0.0
 10
32.1236
 20
-1.3134
 30
0.0
 10
32.2012
 20
-1.3341
 30
0.0
 10
32.2685
 20
-1.3755
 30
0.0
 10
32.2685
 20
-1.3755
 30
0.0
 10
32.3357
 20
-1.4169
 30
0.0
 10
32.3888
 20
-1.4751
 30
0.0
 10
32.4276
 20
-1.5501
 30
0.0
 10
32.4276
 20
-1.5501
 30
0.0
 10
32.4664
 20
-1.6251
 30
0.0
 10
32.4858
 20
-1.7144
 30
0.0
 10
32.4864
 20
-1.8172
 30
0.0
  0
SPLINE
  5
90
330
1F
100
AcDbEntity
  8
ROUND
 62
   250
100
AcDbSpline
210
0.0
220
0.0
230
1.0
 70
    11
 71
     3
 72
    56
 73
    52
 74
     0
 42
0.0000000001
 43
0.0000000001
 40
0.0
 40
0.0
 40
0.0
 40
0.0
 40
0.0714285714285714
 40
0.0714285714285714
 40
0.0714285714285714
 40
0.0714285714285714
 40
0.1428571428571428
 40
0.1428571428571428
 40
0.1428571428571428
 40
0.1428571428571428
 40
0.2142857142857143
 40
0.2142857142857143
 40
0.2142857142857143
 40
0.2142857142857143
 40
0.2857142857142857
 40
0.2857142857142857
 40
0.2857142857142857
 40
0.2857142857142857
 40
0.3571428571428572
 40
0.3571428571428572
 40
0.3571428571428572
 40
0.3571428571428572
 40
0.4285714285714285
 40
0.4285714285714285
 40
0.4285714285714285
 40
0.4285714285714285
 40
0.5
 40
0.5
 40
0.5
 40
0.5
 40
0.5714285714285714
 40
0.5714285714285714
 40
0.5714285714285714
 40
0.5714285714285714
 40
0.6428571428571429
 40
0.6428571428571429
 40
0.6428571428571429
 40
0.6428571428571429
 40
0.7142857142857143
 40
0.7142857142857143
 40
0.7142857142857143
 40
0.7142857142857143
 40
0.7857142857142857
 40
0.7857142857142857
 40
0.7857142857142857
 40
0.7857142857142857
 40
0.8571428571428571
 40
0.8571428571428571
 40
0.8571428571428571
 40
0.8571428571428571
 40
1.0
 40
1.0
 40
1.0
 40
1.0
 10
30.3716
 20
-1.8133
 30
0.0
 10
30.3722
 20
-1.737
 30
0.0
 10
30.3838
 20
-1.6717
 30
0.0
 10
30.4071
 20
-1.6174
 30
0.0
 10
30.4071
 20
-1.6174
 30
0.0
 10
30.4304
 20
-1.563
 30
0.0
 10
30.4621
 20
-1.5191
 30
0.0
 10
30.5016
 20
-1.4848
 30
0.0
 10
30.5016
 20
-1.4848
 30
0.0
 10
30.541
 20
-1.4512
 30
0.0
 10
30.585
 20
-1.4259
 30
0.0
 10
30.6335
 20
-1.4098
 30
0.0
 10
30.6335
 20
-1.4098
 30
0.0
 10
30.682
 20
-1.3942
 30
0.0
 10
30.7318
 20
-1.3865
 30
0.0
 10
30.7829
 20
-1.3865
 30
0.0
 10
30.7829
 20
-1.3865
 30
0.0
 10
30.8592
 20
-1.3871
 30
0.0
 10
30.9271
 20
-1.4039
 30
0.0
 10
30.9866
 20
-1.4376
 30
0.0
 10
30.9866
 20
-1.4376
 30
0.0
 10
31.0468
 20
-1.4712
 30
0.0
 10
31.0979
 20
-1.5165
 30
0.0
 10
31.1399
 20
-1.5747
 30
0.0
 10
31.1399
 20
-1.5747
 30
0.0
 10
31.1826
 20
-1.6322
 30
0.0
 10
31.2162
 20
-1.6976
 30
0.0
 10
31.2408
 20
-1.7706
 30
0.0
 10
31.2408
 20
-1.7706
 30
0.0
 10
31.2149
 20
-1.8683
 30
0.0
 10
31.1819
 20
-1.953
 30
0.0
 10
31.1418
 20
-2.0255
 30
0.0
 10
31.1418
 20
-2.0255
 30
0.0
 10
31.1011
 20
-2.0979
 30
0.0
 10
31.0506
 20
-2.1542
 30
0.0
 10
30.9905
 20
-2.1936
 30
0.0
 10
30.9905
 20
-2.1936
 30
0.0
 10
30.9304
 20
-2.2331
 30
0.0
 10
30.8586
 20
-2.2525
 30
0.0
 10
30.7751
 20
-2.2518
 30
0.0
 10
30.7751
 20
-2.2518
 30
0.0
 10
30.7014
 20
-2.2518
 30
0.0
 10
30.6348
 20
-2.235
 30
0.0
 10
30.574
 20
-2.2014
 30
0.0
 10
30.574
 20
-2.2014
 30
0.0
 10
30.5132
 20
-2.1677
 30
0.0
 10
30.4647
 20
-2.118
 30
0.0
 10
30.4278
 20
-2.0526
 30
0.0
 10
30.4278
 20
-2.0526
 30
0.0
 10
30.391
 20
-1.988
 30
0.0
 10
30.3722
 20
-1.9078
 30
0.0
 10
30.3716
 20
-1.8133
 30
0.0
  0
SPLINE
  5
91
330
1F
100
AcDbEntity
  8
ROUND
 62
   250
100
AcDbSpline
210
0.0
220
0.0
230
1.0
 70
    11
 71
     3
 72
    48
 73
    44
 74
     0
 42
0.0000000001
 43
0.0000000001
 40
0.0
 40
0.0
 40
0.0
 40
0.0
 40
0.0833333333333333
 40
0.0833333333333333
 40
0.0833333333333333
 40
0.0833333333333333
 40
0.1666666666666667
 40
0.1666666666666667
 40
0.1666666666666667
 40
0.1666666666666667
 40
0.25
 40
0.25
 40
0.25
 40
0.25
 40
0.3333333333333333
 40
0.3333333333333333
 40
0.3333333333333333
 40
0.3333333333333333
 40
0.4166666666666667
 40
0.4166666666666667
 40
0.4166666666666667
 40
0.4166666666666667
 40
0.5
 40
0.5
 40
0.5
 40
0.5
 40
0.5833333333333334
 40
0.5833333333333334
 40
0.5833333333333334
 40
0.5833333333333334
 40
0.6666666666666666
 40
0.6666666666666666
 40
0.6666666666666666
 40
0.6666666666666666
 40
0.75
 40
0.75
 40
0.75
 40
0.75
 40
0.8333333333333334
 40
0.8333333333333334
 40
0.8333333333333334
 40
0.8333333333333334
 40
1.0
 40
1.0
 40
1.0
 40
1.0
 10
-16.8832
 20
22.2466
 30
0.0
 10
-16.8832
 20
22.2466
 30
0.0
 10
-16.8832
 20
22.9373
 30
0.0
 10
-16.8832
 20
22.9373
 30
0.0
 10
-16.8832
 20
22.9373
 30
0.0
 10
-16.8832
 20
22.9373
 30
0.0
 10
-16.5301
 20
22.9373
 30
0.0
 10
-16.5301
 20
22.9373
 30
0.0
 10
-16.5301
 20
22.9373
 30
0.0
 10
-16.5301
 20
22.9373
 30
0.0
 10
-16.5301
 20
23.2012
 30
0.0
 10
-16.5301
 20
23.2012
 30
0.0
 10
-16.5301
 20
23.2012
 30
0.0
 10
-16.5301
 20
23.2012
 30
0.0
 10
-16.8832
 20
23.2012
 30
0.0
 10
-16.8832
 20
23.2012
 30
0.0
 10
-16.8832
 20
23.2012
 30
0.0
 10
-16.8832
 20
23.2012
 30
0.0
 10
-16.8832
 20
24.7689
 30
0.0
 10
-16.8832
 20
24.7689
 30
0.0
 10
-16.8832
 20
24.7689
 30
0.0
 10
-16.8832
 20
24.7689
 30
0.0
 10
-17.2518
 20
24.7689
 30
0.0
 10
-17.2518
 20
24.7689
 30
0.0
 10
-17.2518
 20
24.7689
 30
0.0
 10
-17.2518
 20
24.7689
 30
0.0
 10
-18.3772
 20
23.1585
 30
0.0
 10
-18.3772
 20
23.1585
 30
0.0
 10
-18.3772
 20
23.1585
 30
0.0
 10
-18.3772
 20
23.1585
 30
0.0
 10
-18.3772
 20
22.9373
 30
0.0
 10
-18.3772
 20
22.9373
 30
0.0
 10
-18.3772
 20
22.9373
 30
0.0
 10
-18.3772
 20
22.9373
 30
0.0
 10
-17.2053
 20
22.9373
 30
0.0
 10
-17.2053
 20
22.9373
 30
0.0
 10
-17.2053
 20
22.9373
 30
0.0
 10
-17.2053
 20
22.9373
 30
0.0
 10
-17.2053
 20
22.2466
 30
0.0
 10
-17.2053
 20
22.2466
 30
0.0
 10
-17.2053
 20
22.2466
 30
0.0
 10
-17.2053
 20
22.2466
 30
0.0
 10
-16.8832
 20
22.2466
 30
0.0
 10
-16.8832
 20
22.2466
 30
0.0
  0
SPLINE
  5
92
330
1F
100
AcDbEntity
  8
ROUND
 62
   250
100
AcDbSpline
210
0.0
220
0.0
230
1.0
 70
    11
 71
     3
 72
    36
 73
    32
 74
     0
 42
0.0000000001
 43
0.0000000001
 40
0.0
 40
0.0
 40
0.0
 40
0.0
 40
0.1111111111111111
 40
0.1111111111111111
 40
0.1111111111111111
 40
0.1111111111111111
 40
0.2222222222222222
 40
0.2222222222222222
 40
0.2222222222222222
 40
0.2222222222222222
 40
0.3333333333333333
 40
0.3333333333333333
 40
0.3333333333333333
 40
0.3333333333333333
 40
0.4444444444444444
 40
0.4444444444444444
 40
0.4444444444444444
 40
0.4444444444444444
 40
0.5555555555555556
 40
0.5555555555555556
 40
0.5555555555555556
 40
0.5555555555555556
 40
0.6666666666666666
 40
0.6666666666666666
 40
0.6666666666666666
 40
0.6666666666666666
 40
0.7777777777777778
 40
0.7777777777777778
 40
0.7777777777777778
 40
0.7777777777777778
 40
1.0
 40
1.0
 40
1.0
 40
1.0
 10
-18.0318
 20
23.2012
 30
0.0
 10
-18.0318
 20
23.2012
 30
0.0
 10
-18.0318
 20
23.209
 30
0.0
 10
-18.0318
 20
23.209
 30
0.0
 10
-18.0318
 20
23.209
 30
0.0
 10
-18.0318
 20
23.209
 30
0.0
 10
-17.4148
 20
24.0666
 30
0.0
 10
-17.4148
 20
24.0666
 30
0.0
 10
-17.4148
 20
24.0666
 30
0.0
 10
-17.3806
 20
24.1241
 30
0.0
 10
-17.3463
 20
24.1823
 30
0.0
 10
-17.3126
 20
24.2412
 30
0.0
 10
-17.3126
 20
24.2412
 30
0.0
 10
-17.2797
 20
24.3007
 30
0.0
 10
-17.2434
 20
24.3666
 30
0.0
 10
-17.2053
 20
24.4391
 30
0.0
 10
-17.2053
 20
24.4391
 30
0.0
 10
-17.2053
 20
24.4391
 30
0.0
 10
-17.1936
 20
24.4391
 30
0.0
 10
-17.1936
 20
24.4391
 30
0.0
 10
-17.1936
 20
24.4391
 30
0.0
 10
-17.2014
 20
24.3071
 30
0.0
 10
-17.2053
 20
24.1752
 30
0.0
 10
-17.2053
 20
24.0433
 30
0.0
 10
-17.2053
 20
24.0433
 30
0.0
 10
-17.2053
 20
24.0433
 30
0.0
 10
-17.2053
 20
23.2012
 30
0.0
 10
-17.2053
 20
23.2012
 30
0.0
 10
-17.2053
 20
23.2012
 30
0.0
 10
-17.2053
 20
23.2012
 30
0.0
 10
-18.0318
 20
23.2012
 30
0.0
 10
-18.0318
 20
23.2012
 30
0.0
  0
SPLINE
  5
93
330
1F
100
AcDbEntity
  8
ROUND
 62
   250
100
AcDbSpline
210
0.0
220
0.0
230
1.0
 70
    11
 71
     3
 72
    56
 73
    52
 74
     0
 42
0.0000000001
 43
0.0000000001
 40
0.0
 40
0.0
 40
0.0
 40
0.0
 40
0.0714285714285714
 40
0.0714285714285714
 40
0.0714285714285714
 40
0.0714285714285714
 40
0.1428571428571428
 40
0.1428571428571428
 40
0.1428571428571428
 40
0.1428571428571428
 40
0.2142857142857143
 40
0.2142857142857143
 40
0.2142857142857143
 40
0.2142857142857143
 40
0.2857142857142857
 40
0.2857142857142857
 40
0.2857142857142857
 40
0.2857142857142857
 40
0.3571428571428572
 40
0.3571428571428572
 40
0.3571428571428572
 40
0.3571428571428572
 40
0.4285714285714285
 40
0.4285714285714285
 40
0.4285714285714285
 40
0.4285714285714285
 40
0.5
 40
0.5
 40
0.5
 40
0.5
 40
0.5714285714285714
 40
0.5714285714285714
 40
0.5714285714285714
 40
0.5714285714285714
 40
0.6428571428571429
 40
0.6428571428571429
 40
0.6428571428571429
 40
0.6428571428571429
 40
0.7142857142857143
 40
0.7142857142857143
 40
0.7142857142857143
 40
0.7142857142857143
 40
0.7857142857142857
 40
0.7857142857142857
 40
0.7857142857142857
 40
0.7857142857142857
 40
0.8571428571428571
 40
0.8571428571428571
 40
0.8571428571428571
 40
0.8571428571428571
 40
1.0
 40
1.0
 40
1.0
 40
1.0
 10
-15.4241
 20
24.8116
 30
0.0
 10
-15.5528
 20
24.8116
 30
0.0
 10
-15.6705
 20
24.7832
 30
0.0
 10
-15.7779
 20
24.7262
 30
0.0
 10
-15.7779
 20
24.7262
 30
0.0
 10
-15.8853
 20
24.6693
 30
0.0
 10
-15.9777
 20
24.5859
 30
0.0
 10
-16.0566
 20
24.4747
 30
0.0
 10
-16.0566
 20
24.4747
 30
0.0
 10
-16.1356
 20
24.3634
 30
0.0
 10
-16.1963
 20
24.2263
 30
0.0
 10
-16.2397
 20
24.0633
 30
0.0
 10
-16.2397
 20
24.0633
 30
0.0
 10
-16.2824
 20
23.9003
 30
0.0
 10
-16.3044
 20
23.7128
 30
0.0
 10
-16.305
 20
23.5
 30
0.0
 10
-16.305
 20
23.5
 30
0.0
 10
-16.3011
 20
23.2213
 30
0.0
 10
-16.2643
 20
22.9858
 30
0.0
 10
-16.1938
 20
22.7931
 30
0.0
 10
-16.1938
 20
22.7931
 30
0.0
 10
-16.1233
 20
22.6004
 30
0.0
 10
-16.0256
 20
22.4542
 30
0.0
 10
-15.9014
 20
22.3546
 30
0.0
 10
-15.9014
 20
22.3546
 30
0.0
 10
-15.7773
 20
22.255
 30
0.0
 10
-15.6324
 20
22.2046
 30
0.0
 10
-15.4668
 20
22.2039
 30
0.0
 10
-15.4668
 20
22.2039
 30
0.0
 10
-15.2812
 20
22.2046
 30
0.0
 10
-15.1234
 20
22.2563
 30
0.0
 10
-14.9927
 20
22.3585
 30
0.0
 10
-14.9927
 20
22.3585
 30
0.0
 10
-14.8621
 20
22.4607
 30
0.0
 10
-14.7625
 20
22.6107
 30
0.0
 10
-14.6939
 20
22.8086
 30
0.0
 10
-14.6939
 20
22.8086
 30
0.0
 10
-14.6247
 20
23.0065
 30
0.0
 10
-14.5905
 20
23.2484
 30
0.0
 10
-14.5898
 20
23.5349
 30
0.0
 10
-14.5898
 20
23.5349
 30
0.0
 10
-14.5905
 20
23.8033
 30
0.0
 10
-14.6235
 20
24.0329
 30
0.0
 10
-14.6888
 20
24.2231
 30
0.0
 10
-14.6888
 20
24.2231
 30
0.0
 10
-14.7541
 20
24.4132
 30
0.0
 10
-14.8492
 20
24.5587
 30
0.0
 10
-14.9733
 20
24.659
 30
0.0
 10
-14.9733
 20
24.659
 30
0.0
 10
-15.0975
 20
24.7599
 30
0.0
 10
-15.2476
 20
24.811
 30
0.0
 10
-15.4241
 20
24.8116
 30
0.0
  0
SPLINE
  5
94
330
1F
100
AcDbEntity
  8
ROUND
 62
   250
100
AcDbSpline
210
0.0
220
0.0
230
1.0
 70
    11
 71
     3
 72
    56
 73
    52
 74
     0
 42
0.0000000001
 43
0.0000000001
 40
0.0
 40
0.0
 40
0.0
 40
0.0
 40
0.0714285714285714
 40
0.0714285714285714
 40
0.0714285714285714
 40
0.0714285714285714
 40
0.1428571428571428
 40
0.1428571428571428
 40
0.1428571428571428
 40
0.1428571428571428
 40
0.2142857142857143
 40
0.2142857142857143
 40
0.2142857142857143
 40
0.2142857142857143
 40
0.2857142857142857
 40
0.2857142857142857
 40
0.2857142857142857
 40
0.2857142857142857
 40
0.3571428571428572
 40
0.3571428571428572
 40
0.3571428571428572
 40
0.3571428571428572
 40
0.4285714285714285
 40
0.4285714285714285
 40
0.4285714285714285
 40
0.4285714285714285
 40
0.5
 40
0.5
 40
0.5
 40
0.5
 40
0.5714285714285714
 40
0.5714285714285714
 40
0.5714285714285714
 40
0.5714285714285714
 40
0.6428571428571429
 40
0.6428571428571429
 40
0.6428571428571429
 40
0.6428571428571429
 40
0.7142857142857143
 40
0.7142857142857143
 40
0.7142857142857143
 40
0.7142857142857143
 40
0.7857142857142857
 40
0.7857142857142857
 40
0.7857142857142857
 40
0.7857142857142857
 40
0.8571428571428571
 40
0.8571428571428571
 40
0.8571428571428571
 40
0.8571428571428571
 40
1.0
 40
1.0
 40
1.0
 40
1.0
 10
-15.4474
 20
24.5477
 30
0.0
 10
-15.3582
 20
24.5471
 30
0.0
 10
-15.2812
 20
24.5232
 30
0.0
 10
-15.2165
 20
24.4747
 30
0.0
 10
-15.2165
 20
24.4747
 30
0.0
 10
-15.1518
 20
24.4261
 30
0.0
 10
-15.0988
 20
24.3569
 30
0.0
 10
-15.0574
 20
24.2664
 30
0.0
 10
-15.0574
 20
24.2664
 30
0.0
 10
-15.016
 20
24.1765
 30
0.0
 10
-14.985
 20
24.0678
 30
0.0
 10
-14.9649
 20
23.9424
 30
0.0
 10
-14.9649
 20
23.9424
 30
0.0
 10
-14.9449
 20
23.8163
 30
0.0
 10
-14.9352
 20
23.6753
 30
0.0
 10
-14.9352
 20
23.5194
 30
0.0
 10
-14.9352
 20
23.5194
 30
0.0
 10
-14.9352
 20
23.3034
 30
0.0
 10
-14.9539
 20
23.1171
 30
0.0
 10
-14.9915
 20
22.9606
 30
0.0
 10
-14.9915
 20
22.9606
 30
0.0
 10
-15.0283
 20
22.8035
 30
0.0
 10
-15.0852
 20
22.6825
 30
0.0
 10
-15.1609
 20
22.5971
 30
0.0
 10
-15.1609
 20
22.5971
 30
0.0
 10
-15.2366
 20
22.5118
 30
0.0
 10
-15.3323
 20
22.4691
 30
0.0
 10
-15.4474
 20
22.4678
 30
0.0
 10
-15.4474
 20
22.4678
 30
0.0
 10
-15.5515
 20
22.4684
 30
0.0
 10
-15.6414
 20
22.5085
 30
0.0
 10
-15.7184
 20
22.5887
 30
0.0
 10
-15.7184
 20
22.5887
 30
0.0
 10
-15.7947
 20
22.6689
 30
0.0
 10
-15.8536
 20
22.7853
 30
0.0
 10
-15.8956
 20
22.938
 30
0.0
 10
-15.8956
 20
22.938
 30
0.0
 10
-15.9376
 20
23.0913
 30
0.0
 10
-15.959
 20
23.2769
 30
0.0
 10
-15.9596
 20
23.4961
 30
0.0
 10
-15.9596
 20
23.4961
 30
0.0
 10
-15.959
 20
23.7257
 30
0.0
 10
-15.9364
 20
23.9178
 30
0.0
 10
-15.8924
 20
24.0743
 30
0.0
 10
-15.8924
 20
24.0743
 30
0.0
 10
-15.8484
 20
24.2302
 30
0.0
 10
-15.7882
 20
24.3479
 30
0.0
 10
-15.7113
 20
24.4281
 30
0.0
 10
-15.7113
 20
24.4281
 30
0.0
 10
-15.6343
 20
24.5076
 30
0.0
 10
-15.5464
 20
24.5477
 30
0.0
 10
-15.4474
 20
24.5477
 30
0.0
  0
SPLINE
  5
95
330
1F
100
AcDbEntity
  8
ROUND
 62
   250
100
AcDbSpline
210
0.0
220
0.0
230
1.0
 70
    11
 71
     3
 72
   140
 73
   136
 74
     0
 42
0.0000000001
 43
0.0000000001
 40
0.0
 40
0.0
 40
0.0
 40
0.0
 40
0.0285714285714286
 40
0.0285714285714286
 40
0.0285714285714286
 40
0.0285714285714286
 40
0.0571428571428571
 40
0.0571428571428571
 40
0.0571428571428571
 40
0.0571428571428571
 40
0.0857142857142857
 40
0.0857142857142857
 40
0.0857142857142857
 40
0.0857142857142857
 40
0.1142857142857143
 40
0.1142857142857143
 40
0.1142857142857143
 40
0.1142857142857143
 40
0.1428571428571428
 40
0.1428571428571428
 40
0.1428571428571428
 40
0.1428571428571428
 40
0.1714285714285714
 40
0.1714285714285714
 40
0.1714285714285714
 40
0.1714285714285714
 40
0.2
 40
0.2
 40
0.2
 40
0.2
 40
0.2285714285714286
 40
0.2285714285714286
 40
0.2285714285714286
 40
0.2285714285714286
 40
0.2571428571428571
 40
0.2571428571428571
 40
0.2571428571428571
 40
0.2571428571428571
 40
0.2857142857142857
 40
0.2857142857142857
 40
0.2857142857142857
 40
0.2857142857142857
 40
0.3142857142857143
 40
0.3142857142857143
 40
0.3142857142857143
 40
0.3142857142857143
 40
0.3428571428571429
 40
0.3428571428571429
 40
0.3428571428571429
 40
0.3428571428571429
 40
0.3714285714285714
 40
0.3714285714285714
 40
0.3714285714285714
 40
0.3714285714285714
 40
0.4
 40
0.4
 40
0.4
 40
0.4
 40
0.4285714285714285
 40
0.4285714285714285
 40
0.4285714285714285
 40
0.4285714285714285
 40
0.4571428571428571
 40
0.4571428571428571
 40
0.4571428571428571
 40
0.4571428571428571
 40
0.4857142857142857
 40
0.4857142857142857
 40
0.4857142857142857
 40
0.4857142857142857
 40
0.5142857142857142
 40
0.5142857142857142
 40
0.5142857142857142
 40
0.5142857142857142
 40
0.5428571428571428
 40
0.5428571428571428
 40
0.5428571428571428
 40
0.5428571428571428
 40
0.5714285714285714
 40
0.5714285714285714
 40
0.5714285714285714
 40
0.5714285714285714
 40
0.6
 40
0.6
 40
0.6
 40
0.6
 40
0.6285714285714286
 40
0.6285714285714286
 40
0.6285714285714286
 40
0.6285714285714286
 40
0.6571428571428571
 40
0.6571428571428571
 40
0.6571428571428571
 40
0.6571428571428571
 40
0.6857142857142857
 40
0.6857142857142857
 40
0.6857142857142857
 40
0.6857142857142857
 40
0.7142857142857143
 40
0.7142857142857143
 40
0.7142857142857143
 40
0.7142857142857143
 40
0.7428571428571429
 40
0.7428571428571429
 40
0.7428571428571429
 40
0.7428571428571429
 40
0.7714285714285715
 40
0.7714285714285715
 40
0.7714285714285715
 40
0.7714285714285715
 40
0.8
 40
0.8
 40
0.8
 40
0.8
 40
0.8285714285714286
 40
0.8285714285714286
 40
0.8285714285714286
 40
0.8285714285714286
 40
0.8571428571428571
 40
0.8571428571428571
 40
0.8571428571428571
 40
0.8571428571428571
 40
0.8857142857142857
 40
0.8857142857142857
 40
0.8857142857142857
 40
0.8857142857142857
 40
0.9142857142857143
 40
0.9142857142857143
 40
0.9142857142857143
 40
0.9142857142857143
 40
0.9428571428571428
 40
0.9428571428571428
 40
0.9428571428571428
 40
0.9428571428571428
 40
1.0
 40
1.0
 40
1.0
 40
1.0
 10
-10.0048
 20
18.8876
 30
0.0
 10
-10.0048
 20
18.8876
 30
0.0
 10
-10.8663
 20
18.8876
 30
0.0
 10
-10.8663
 20
18.8876
 30
0.0
 10
-10.8663
 20
18.8876
 30
0.0
 10
-10.8663
 20
18.8876
 30
0.0
 10
-10.8663
 20
18.616
 30
0.0
 10
-10.8663
 20
18.616
 30
0.0
 10
-10.8663
 20
18.616
 30
0.0
 10
-10.8663
 20
18.616
 30
0.0
 10
-10.3385
 20
18.616
 30
0.0
 10
-10.3385
 20
18.616
 30
0.0
 10
-10.3385
 20
18.616
 30
0.0
 10
-10.3385
 20
18.616
 30
0.0
 10
-10.3385
 20
17.836
 30
0.0
 10
-10.3385
 20
17.836
 30
0.0
 10
-10.3385
 20
17.836
 30
0.0
 10
-10.3773
 20
17.8159
 30
0.0
 10
-10.4342
 20
17.7998
 30
0.0
 10
-10.5099
 20
17.7862
 30
0.0
 10
-10.5099
 20
17.7862
 30
0.0
 10
-10.5849
 20
17.7732
 30
0.0
 10
-10.6781
 20
17.7668
 30
0.0
 10
-10.7887
 20
17.7661
 30
0.0
 10
-10.7887
 20
17.7661
 30
0.0
 10
-10.9426
 20
17.7661
 30
0.0
 10
-11.081
 20
17.7901
 30
0.0
 10
-11.2052
 20
17.8379
 30
0.0
 10
-11.2052
 20
17.8379
 30
0.0
 10
-11.3287
 20
17.8851
 30
0.0
 10
-11.4348
 20
17.9543
 30
0.0
 10
-11.5234
 20
18.0449
 30
0.0
 10
-11.5234
 20
18.0449
 30
0.0
 10
-11.6113
 20
18.1361
 30
0.0
 10
-11.6792
 20
18.2467
 30
0.0
 10
-11.7265
 20
18.3767
 30
0.0
 10
-11.7265
 20
18.3767
 30
0.0
 10
-11.7737
 20
18.5073
 30
0.0
 10
-11.7969
 20
18.6554
 30
0.0
 10
-11.7976
 20
18.8216
 30
0.0
 10
-11.7976
 20
18.8216
 30
0.0
 10
-11.7969
 20
18.9859
 30
0.0
 10
-11.7724
 20
19.1327
 30
0.0
 10
-11.7226
 20
19.2627
 30
0.0
 10
-11.7226
 20
19.2627
 30
0.0
 10
-11.6734
 20
19.3921
 30
0.0
 10
-11.6029
 20
19.5027
 30
0.0
 10
-11.5104
 20
19.5932
 30
0.0
 10
-11.5104
 20
19.5932
 30
0.0
 10
-11.418
 20
19.6844
 30
0.0
 10
-11.308
 20
19.7536
 30
0.0
 10
-11.1787
 20
19.8015
 30
0.0
 10
-11.1787
 20
19.8015
 30
0.0
 10
-11.05
 20
19.8487
 30
0.0
 10
-10.9057
 20
19.8732
 30
0.0
 10
-10.746
 20
19.8732
 30
0.0
 10
-10.746
 20
19.8732
 30
0.0
 10
-10.658
 20
19.8732
 30
0.0
 10
-10.5798
 20
19.8681
 30
0.0
 10
-10.5099
 20
19.859
 30
0.0
 10
-10.5099
 20
19.859
 30
0.0
 10
-10.4401
 20
19.8493
 30
0.0
 10
-10.3773
 20
19.8364
 30
0.0
 10
-10.3211
 20
19.8196
 30
0.0
 10
-10.3211
 20
19.8196
 30
0.0
 10
-10.2648
 20
19.8027
 30
0.0
 10
-10.2137
 20
19.7827
 30
0.0
 10
-10.1678
 20
19.7607
 30
0.0
 10
-10.1678
 20
19.7607
 30
0.0
 10
-10.1678
 20
19.7607
 30
0.0
 10
-10.0824
 20
20.0362
 30
0.0
 10
-10.0824
 20
20.0362
 30
0.0
 10
-10.0824
 20
20.0362
 30
0.0
 10
-10.1206
 20
20.055
 30
0.0
 10
-10.171
 20
20.0731
 30
0.0
 10
-10.235
 20
20.0918
 30
0.0
 10
-10.235
 20
20.0918
 30
0.0
 10
-10.2991
 20
20.11
 30
0.0
 10
-10.3735
 20
20.1255
 30
0.0
 10
-10.4588
 20
20.1378
 30
0.0
 10
-10.4588
 20
20.1378
 30
0.0
 10
-10.5435
 20
20.1494
 30
0.0
 10
-10.6367
 20
20.1559
 30
0.0
 10
-10.7382
 20
20.1565
 30
0.0
 10
-10.7382
 20
20.1565
 30
0.0
 10
-10.9581
 20
20.1559
 30
0.0
 10
-11.1554
 20
20.1216
 30
0.0
 10
-11.3293
 20
20.055
 30
0.0
 10
-11.3293
 20
20.055
 30
0.0
 10
-11.504
 20
19.9884
 30
0.0
 10
-11.6527
 20
19.8946
 30
0.0
 10
-11.775
 20
19.7736
 30
0.0
 10
-11.775
 20
19.7736
 30
0.0
 10
-11.8978
 20
19.6527
 30
0.0
 10
-11.9916
 20
19.5104
 30
0.0
 10
-12.0563
 20
19.3461
 30
0.0
 10
-12.0563
 20
19.3461
 30
0.0
 10
-12.1216
 20
19.1819
 30
0.0
 10
-12.154
 20
19.0021
 30
0.0
 10
-12.1546
 20
18.8061
 30
0.0
 10
-12.1546
 20
18.8061
 30
0.0
 10
-12.154
 20
18.6696
 30
0.0
 10
-12.1391
 20
18.5416
 30
0.0
 10
-12.11
 20
18.4206
 30
0.0
 10
-12.11
 20
18.4206
 30
0.0
 10
-12.0809
 20
18.3003
 30
0.0
 10
-12.0388
 20
18.1904
 30
0.0
 10
-11.9845
 20
18.0908
 30
0.0
 10
-11.9845
 20
18.0908
 30
0.0
 10
-11.9302
 20
17.9912
 30
0.0
 10
-11.8655
 20
17.9052
 30
0.0
 10
-11.7898
 20
17.8321
 30
0.0
 10
-11.7898
 20
17.8321
 30
0.0
 10
-11.6618
 20
17.7105
 30
0.0
 10
-11.5163
 20
17.6226
 30
0.0
 10
-11.3533
 20
17.5676
 30
0.0
 10
-11.3533
 20
17.5676
 30
0.0
 10
-11.1903
 20
17.5126
 30
0.0
 10
-11.0099
 20
17.4861
 30
0.0
 10
-10.8119
 20
17.4867
 30
0.0
 10
-10.8119
 20
17.4867
 30
0.0
 10
-10.6936
 20
17.4874
 30
0.0
 10
-10.583
 20
17.4958
 30
0.0
 10
-10.4795
 20
17.5113
 30
0.0
 10
-10.4795
 20
17.5113
 30
0.0
 10
-10.376
 20
17.5268
 30
0.0
 10
-10.2836
 20
17.5456
 30
0.0
 10
-10.2027
 20
17.5669
 30
0.0
 10
-10.2027
 20
17.5669
 30
0.0
 10
-10.1219
 20
17.5889
 30
0.0
 10
-10.0559
 20
17.6103
 30
0.0
 10
-10.0048
 20
17.6303
 30
0.0
 10
-10.0048
 20
17.6303
 30
0.0
 10
-10.0048
 20
17.6303
 30
0.0
 10
-10.0048
 20
18.8876
 30
0.0
 10
-10.0048
 20
18.8876
 30
0.0
  0
SPLINE
  5
96
330
1F
100
AcDbEntity
  8
ROUND
 62
   250
100
AcDbSpline
210
0.0
220
0.0
230
1.0
 70
    11
 71
     3
 72
    20
 73
    16
 74
     0
 42
0.0000000001
 43
0.0000000001
 40
0.0
 40
0.0
 40
0.0
 40
0.0
 40
0.2
 40
0.2
 40
0.2
 40
0.2
 40
0.4
 40
0.4
 40
0.4
 40
0.4
 40
0.6
 40
0.6
 40
0.6
 40
0.6
 40
1.0
 40
1.0
 40
1.0
 40
1.0
 10
-6.718
 20
17.3626
 30
0.0
 10
-6.718
 20
17.3626
 30
0.0
 10
-5.6314
 20
20.1759
 30
0.0
 10
-5.6314
 20
20.1759
 30
0.0
 10
-5.6314
 20
20.1759
 30
0.0
 10
-5.6314
 20
20.1759
 30
0.0
 10
-5.8992
 20
20.1759
 30
0.0
 10
-5.8992
 20
20.1759
 30
0.0
 10
-5.8992
 20
20.1759
 30
0.0
 10
-5.8992
 20
20.1759
 30
0.0
 10
-6.978
 20
17.3626
 30
0.0
 10
-6.978
 20
17.3626
 30
0.0
 10
-6.978
 20
17.3626
 30
0.0
 10
-6.978
 20
17.3626
 30
0.0
 10
-6.718
 20
17.3626
 30
0.0
 10
-6.718
 20
17.3626
 30
0.0
  0
SPLINE
  5
97
330
1F
100
AcDbEntity
  8
ROUND
 62
   250
100
AcDbSpline
210
0.0
220
0.0
230
1.0
 70
    11
 71
     3
 72
    20
 73
    16
 74
     0
 42
0.0000000001
 43
0.0000000001
 40
0.0
 40
0.0
 40
0.0
 40
0.0
 40
0.2
 40
0.2
 40
0.2
 40
0.2
 40
0.4
 40
0.4
 40
0.4
 40
0.4
 40
0.6
 40
0.6
 40
0.6
 40
0.6
 40
1.0
 40
1.0
 40
1.0
 40
1.0
 10
-3.4545
 20
20.1992
 30
0.0
 10
-3.4545
 20
20.1992
 30
0.0
 10
-3.3924
 20
19.2679
 30
0.0
 10
-3.3924
 20
19.2679
 30
0.0
 10
-3.3924
 20
19.2679
 30
0.0
 10
-3.3924
 20
19.2679
 30
0.0
 10
-3.1829
 20
19.2679
 30
0.0
 10
-3.1829
 20
19.2679
 30
0.0
 10
-3.1829
 20
19.2679
 30
0.0
 10
-3.1829
 20
19.2679
 30
0.0
 10
-3.1169
 20
20.1992
 30
0.0
 10
-3.1169
 20
20.1992
 30
0.0
 10
-3.1169
 20
20.1992
 30
0.0
 10
-3.1169
 20
20.1992
 30
0.0
 10
-3.4545
 20
20.1992
 30
0.0
 10
-3.4545
 20
20.1992
 30
0.0
  0
SPLINE
  5
98
330
1F
100
AcDbEntity
  8
ROUND
 62
   250
100
AcDbSpline
210
0.0
220
0.0
230
1.0
 70
    11
 71
     3
 72
    20
 73
    16
 74
     0
 42
0.0000000001
 43
0.0000000001
 40
0.0
 40
0.0
 40
0.0
 40
0.0
 40
0.2
 40
0.2
 40
0.2
 40
0.2
 40
0.4
 40
0.4
 40
0.4
 40
0.4
 40
0.6
 40
0.6
 40
0.6
 40
0.6
 40
1.0
 40
1.0
 40
1.0
 40
1.0
 10
-2.8763
 20
20.1992
 30
0.0
 10
-2.8763
 20
20.1992
 30
0.0
 10
-2.8103
 20
19.2679
 30
0.0
 10
-2.8103
 20
19.2679
 30
0.0
 10
-2.8103
 20
19.2679
 30
0.0
 10
-2.8103
 20
19.2679
 30
0.0
 10
-2.6047
 20
19.2679
 30
0.0
 10
-2.6047
 20
19.2679
 30
0.0
 10
-2.6047
 20
19.2679
 30
0.0
 10
-2.6047
 20
19.2679
 30
0.0
 10
-2.5387
 20
20.1992
 30
0.0
 10
-2.5387
 20
20.1992
 30
0.0
 10
-2.5387
 20
20.1992
 30
0.0
 10
-2.5387
 20
20.1992
 30
0.0
 10
-2.8763
 20
20.1992
 30
0.0
 10
-2.8763
 20
20.1992
 30
0.0
  0
SPLINE
  5
99
330
1F
100
AcDbEntity
  8
ROUND
 62
   250
100
AcDbSpline
210
0.0
220
0.0
230
1.0
 70
    11
 71
     3
 72
    36
 73
    32
 74
     0
 42
0.0000000001
 43
0.0000000001
 40
0.0
 40
0.0
 40
0.0
 40
0.0
 40
0.1111111111111111
 40
0.1111111111111111
 40
0.1111111111111111
 40
0.1111111111111111
 40
0.2222222222222222
 40
0.2222222222222222
 40
0.2222222222222222
 40
0.2222222222222222
 40
0.3333333333333333
 40
0.3333333333333333
 40
0.3333333333333333
 40
0.3333333333333333
 40
0.4444444444444444
 40
0.4444444444444444
 40
0.4444444444444444
 40
0.4444444444444444
 40
0.5555555555555556
 40
0.5555555555555556
 40
0.5555555555555556
 40
0.5555555555555556
 40
0.6666666666666666
 40
0.6666666666666666
 40
0.6666666666666666
 40
0.6666666666666666
 40
0.7777777777777778
 40
0.7777777777777778
 40
0.7777777777777778
 40
0.7777777777777778
 40
1.0
 40
1.0
 40
1.0
 40
1.0
 10
-8.049
 20
17.5139
 30
0.0
 10
-8.049
 20
17.5139
 30
0.0
 10
-7.7192
 20
17.5139
 30
0.0
 10
-7.7192
 20
17.5139
 30
0.0
 10
-7.7192
 20
17.5139
 30
0.0
 10
-7.7192
 20
17.5139
 30
0.0
 10
-7.7192
 20
20.0362
 30
0.0
 10
-7.7192
 20
20.0362
 30
0.0
 10
-7.7192
 20
20.0362
 30
0.0
 10
-7.7192
 20
20.0362
 30
0.0
 10
-8.0102
 20
20.0362
 30
0.0
 10
-8.0102
 20
20.0362
 30
0.0
 10
-8.0102
 20
20.0362
 30
0.0
 10
-8.0102
 20
20.0362
 30
0.0
 10
-8.5612
 20
19.7413
 30
0.0
 10
-8.5612
 20
19.7413
 30
0.0
 10
-8.5612
 20
19.7413
 30
0.0
 10
-8.5612
 20
19.7413
 30
0.0
 10
-8.4953
 20
19.4813
 30
0.0
 10
-8.4953
 20
19.4813
 30
0.0
 10
-8.4953
 20
19.4813
 30
0.0
 10
-8.4953
 20
19.4813
 30
0.0
 10
-8.0568
 20
19.718
 30
0.0
 10
-8.0568
 20
19.718
 30
0.0
 10
-8.0568
 20
19.718
 30
0.0
 10
-8.0568
 20
19.718
 30
0.0
 10
-8.049
 20
19.718
 30
0.0
 10
-8.049
 20
19.718
 30
0.0
 10
-8.049
 20
19.718
 30
0.0
 10
-8.049
 20
19.718
 30
0.0
 10
-8.049
 20
17.5139
 30
0.0
 10
-8.049
 20
17.5139
 30
0.0
  0
SPLINE
  5
9A
330
1F
100
AcDbEntity
  8
ROUND
 62
   250
100
AcDbSpline
210
0.0
220
0.0
230
1.0
 70
    11
 71
     3
 72
   124
 73
   120
 74
     0
 42
0.0000000001
 43
0.0000000001
 40
0.0
 40
0.0
 40
0.0
 40
0.0
 40
0.032258064516129
 40
0.032258064516129
 40
0.032258064516129
 40
0.032258064516129
 40
0.0645161290322581
 40
0.0645161290322581
 40
0.0645161290322581
 40
0.0645161290322581
 40
0.0967741935483871
 40
0.0967741935483871
 40
0.0967741935483871
 40
0.0967741935483871
 40
0.1290322580645161
 40
0.1290322580645161
 40
0.1290322580645161
 40
0.1290322580645161
 40
0.1612903225806452
 40
0.1612903225806452
 40
0.1612903225806452
 40
0.1612903225806452
 40
0.1935483870967742
 40
0.1935483870967742
 40
0.1935483870967742
 40
0.1935483870967742
 40
0.2258064516129032
 40
0.2258064516129032
 40
0.2258064516129032
 40
0.2258064516129032
 40
0.2580645161290323
 40
0.2580645161290323
 40
0.2580645161290323
 40
0.2580645161290323
 40
0.2903225806451613
 40
0.2903225806451613
 40
0.2903225806451613
 40
0.2903225806451613
 40
0.3225806451612903
 40
0.3225806451612903
 40
0.3225806451612903
 40
0.3225806451612903
 40
0.3548387096774194
 40
0.3548387096774194
 40
0.3548387096774194
 40
0.3548387096774194
 40
0.3870967741935484
 40
0.3870967741935484
 40
0.3870967741935484
 40
0.3870967741935484
 40
0.4193548387096774
 40
0.4193548387096774
 40
0.4193548387096774
 40
0.4193548387096774
 40
0.4516129032258064
 40
0.4516129032258064
 40
0.4516129032258064
 40
0.4516129032258064
 40
0.4838709677419355
 40
0.4838709677419355
 40
0.4838709677419355
 40
0.4838709677419355
 40
0.5161290322580645
 40
0.5161290322580645
 40
0.5161290322580645
 40
0.5161290322580645
 40
0.5483870967741935
 40
0.5483870967741935
 40
0.5483870967741935
 40
0.5483870967741935
 40
0.5806451612903226
 40
0.5806451612903226
 40
0.5806451612903226
 40
0.5806451612903226
 40
0.6129032258064516
 40
0.6129032258064516
 40
0.6129032258064516
 40
0.6129032258064516
 40
0.6451612903225806
 40
0.6451612903225806
 40
0.6451612903225806
 40
0.6451612903225806
 40
0.6774193548387096
 40
0.6774193548387096
 40
0.6774193548387096
 40
0.6774193548387096
 40
0.7096774193548387
 40
0.7096774193548387
 40
0.7096774193548387
 40
0.7096774193548387
 40
0.7419354838709677
 40
0.7419354838709677
 40
0.7419354838709677
 40
0.7419354838709677
 40
0.7741935483870968
 40
0.7741935483870968
 40
0.7741935483870968
 40
0.7741935483870968
 40
0.8064516129032258
 40
0.8064516129032258
 40
0.8064516129032258
 40
0.8064516129032258
 40
0.8387096774193549
 40
0.8387096774193549
 40
0.8387096774193549
 40
0.8387096774193549
 40
0.8709677419354839
 40
0.8709677419354839
 40
0.8709677419354839
 40
0.8709677419354839
 40
0.9032258064516129
 40
0.9032258064516129
 40
0.9032258064516129
 40
0.9032258064516129
 40
0.9354838709677419
 40
0.9354838709677419
 40
0.9354838709677419
 40
0.9354838709677419
 40
1.0
 40
1.0
 40
1.0
 40
1.0
 10
-3.8581
 20
17.5139
 30
0.0
 10
-3.8581
 20
17.5139
 30
0.0
 10
-3.8581
 20
17.7972
 30
0.0
 10
-3.8581
 20
17.7972
 30
0.0
 10
-3.8581
 20
17.7972
 30
0.0
 10
-3.8581
 20
17.7972
 30
0.0
 10
-4.9873
 20
17.7972
 30
0.0
 10
-4.9873
 20
17.7972
 30
0.0
 10
-4.9873
 20
17.7972
 30
0.0
 10
-4.9873
 20
17.7972
 30
0.0
 10
-4.9873
 20
17.8049
 30
0.0
 10
-4.9873
 20
17.8049
 30
0.0
 10
-4.9873
 20
17.8049
 30
0.0
 10
-4.9873
 20
17.8049
 30
0.0
 10
-4.7894
 20
17.9912
 30
0.0
 10
-4.7894
 20
17.9912
 30
0.0
 10
-4.7894
 20
17.9912
 30
0.0
 10
-4.6562
 20
18.1186
 30
0.0
 10
-4.5359
 20
18.2396
 30
0.0
 10
-4.4292
 20
18.3534
 30
0.0
 10
-4.4292
 20
18.3534
 30
0.0
 10
-4.3224
 20
18.4672
 30
0.0
 10
-4.2312
 20
18.5785
 30
0.0
 10
-4.1556
 20
18.6858
 30
0.0
 10
-4.1556
 20
18.6858
 30
0.0
 10
-4.0793
 20
18.7932
 30
0.0
 10
-4.0217
 20
18.9012
 30
0.0
 10
-3.981
 20
19.0098
 30
0.0
 10
-3.981
 20
19.0098
 30
0.0
 10
-3.9409
 20
19.1178
 30
0.0
 10
-3.9208
 20
19.2297
 30
0.0
 10
-3.9202
 20
19.3455
 30
0.0
 10
-3.9202
 20
19.3455
 30
0.0
 10
-3.9202
 20
19.4367
 30
0.0
 10
-3.9344
 20
19.5259
 30
0.0
 10
-3.9641
 20
19.6126
 30
0.0
 10
-3.9641
 20
19.6126
 30
0.0
 10
-3.9939
 20
19.6993
 30
0.0
 10
-4.0405
 20
19.7775
 30
0.0
 10
-4.1025
 20
19.8474
 30
0.0
 10
-4.1025
 20
19.8474
 30
0.0
 10
-4.1646
 20
19.9179
 30
0.0
 10
-4.2448
 20
19.9735
 30
0.0
 10
-4.3425
 20
20.0149
 30
0.0
 10
-4.3425
 20
20.0149
 30
0.0
 10
-4.4401
 20
20.0569
 30
0.0
 10
-4.5566
 20
20.0783
 30
0.0
 10
-4.6924
 20
20.0789
 30
0.0
 10
-4.6924
 20
20.0789
 30
0.0
 10
-4.7881
 20
20.0783
 30
0.0
 10
-4.8793
 20
20.0673
 30
0.0
 10
-4.966
 20
20.0446
 30
0.0
 10
-4.966
 20
20.0446
 30
0.0
 10
-5.0526
 20
20.022
 30
0.0
 10
-5.1328
 20
19.9916
 30
0.0
 10
-5.2065
 20
19.9528
 30
0.0
 10
-5.2065
 20
19.9528
 30
0.0
 10
-5.2796
 20
19.9146
 30
0.0
 10
-5.3449
 20
19.8713
 30
0.0
 10
-5.4025
 20
19.8228
 30
0.0
 10
-5.4025
 20
19.8228
 30
0.0
 10
-5.4025
 20
19.8228
 30
0.0
 10
-5.2939
 20
19.5822
 30
0.0
 10
-5.2939
 20
19.5822
 30
0.0
 10
-5.2939
 20
19.5822
 30
0.0
 10
-5.255
 20
19.6152
 30
0.0
 10
-5.2085
 20
19.6482
 30
0.0
 10
-5.1542
 20
19.6805
 30
0.0
 10
-5.1542
 20
19.6805
 30
0.0
 10
-5.0998
 20
19.7135
 30
0.0
 10
-5.0397
 20
19.74
 30
0.0
 10
-4.9731
 20
19.762
 30
0.0
 10
-4.9731
 20
19.762
 30
0.0
 10
-4.9065
 20
19.7833
 30
0.0
 10
-4.8347
 20
19.795
 30
0.0
 10
-4.7583
 20
19.7956
 30
0.0
 10
-4.7583
 20
19.7956
 30
0.0
 10
-4.6646
 20
19.795
 30
0.0
 10
-4.5857
 20
19.7814
 30
0.0
 10
-4.5216
 20
19.7549
 30
0.0
 10
-4.5216
 20
19.7549
 30
0.0
 10
-4.4583
 20
19.7277
 30
0.0
 10
-4.4072
 20
19.6915
 30
0.0
 10
-4.369
 20
19.6456
 30
0.0
 10
-4.369
 20
19.6456
 30
0.0
 10
-4.3308
 20
19.599
 30
0.0
 10
-4.303
 20
19.5466
 30
0.0
 10
-4.2862
 20
19.4878
 30
0.0
 10
-4.2862
 20
19.4878
 30
0.0
 10
-4.2694
 20
19.4289
 30
0.0
 10
-4.261
 20
19.3675
 30
0.0
 10
-4.2616
 20
19.3028
 30
0.0
 10
-4.2616
 20
19.3028
 30
0.0
 10
-4.2616
 20
19.2084
 30
0.0
 10
-4.2804
 20
19.1153
 30
0.0
 10
-4.3179
 20
19.0228
 30
0.0
 10
-4.3179
 20
19.0228
 30
0.0
 10
-4.3554
 20
18.9296
 30
0.0
 10
-4.4123
 20
18.8326
 30
0.0
 10
-4.4893
 20
18.7304
 30
0.0
 10
-4.4893
 20
18.7304
 30
0.0
 10
-4.5663
 20
18.6283
 30
0.0
 10
-4.6639
 20
18.5164
 30
0.0
 10
-4.7823
 20
18.3948
 30
0.0
 10
-4.7823
 20
18.3948
 30
0.0
 10
-4.9
 20
18.2732
 30
0.0
 10
-5.0397
 20
18.1361
 30
0.0
 10
-5.2007
 20
17.9834
 30
0.0
 10
-5.2007
 20
17.9834
 30
0.0
 10
-5.2007
 20
17.9834
 30
0.0
 10
-5.4685
 20
17.7234
 30
0.0
 10
-5.4685
 20
17.7234
 30
0.0
 10
-5.4685
 20
17.7234
 30
0.0
 10
-5.4685
 20
17.7234
 30
0.0
 10
-5.4685
 20
17.5139
 30
0.0
 10
-5.4685
 20
17.5139
 30
0.0
 10
-5.4685
 20
17.5139
 30
0.0
 10
-5.4685
 20
17.5139
 30
0.0
 10
-3.8581
 20
17.5139
 30
0.0
 10
-3.8581
 20
17.5139
 30
0.0
  0
SPLINE
  5
9B
330
1F
100
AcDbEntity
  8
ROUND
  6
New Line2
 62
   250
370
    15
100
AcDbSpline
210
0.0
220
0.0
230
1.0
 70
    24
 71
     3
 72
     8
 73
     4
 74
     0
 42
0.0000000001
 43
0.0000000001
 40
0.0
 40
0.0
 40
0.0
 40
0.0
 40
1.0
 40
1.0
 40
1.0
 40
1.0
 10
-23.5513
 20
15.0472
 30
0.0
 10
-23.5513
 20
15.0472
 30
0.0
 10
-23.5513
 20
0.4098
 30
0.0
 10
-23.5513
 20
0.4098
 30
0.0
  0
SPLINE
  5
9D
330
1F
100
AcDbEntity
  8
ROUND
  6
New Line3
 62
   250
370
    15
100
AcDbSpline
210
0.0
220
0.0
230
1.0
 70
    24
 71
     3
 72
     8
 73
     4
 74
     0
 42
0.0000000001
 43
0.0000000001
 40
0.0
 40
0.0
 40
0.0
 40
0.0
 40
1.0
 40
1.0
 40
1.0
 40
1.0
 10
-7.2944
 20
-0.403
 30
0.0
 10
-7.2944
 20
-0.403
 30
0.0
 10
-7.2944
 20
16.2168
 30
0.0
 10
-7.2944
 20
16.2168
 30
0.0
  0
SPLINE
  5
9F
330
1F
100
AcDbEntity
  8
ROUND
 62
   250
370
    15
100
AcDbSpline
210
0.0
220
0.0
230
1.0
 70
    24
 71
     3
 72
     8
 73
     4
 74
     0
 42
0.0000000001
 43
0.0000000001
 40
0.0
 40
0.0
 40
0.0
 40
0.0
 40
1.0
 40
1.0
 40
1.0
 40
1.0
 10
-2.399
 20
11.8274
 30
0.0
 10
-2.399
 20
11.8274
 30
0.0
 10
-2.399
 20
17.4334
 30
0.0
 10
-2.399
 20
17.4334
 30
0.0
  0
SPLINE
  5
A0
330
1F
100
AcDbEntity
  8
ROUND
 62
   250
370
    15
100
AcDbSpline
210
0.0
220
0.0
230
1.0
 70
    24
 71
     3
 72
     8
 73
     4
 74
     0
 42
0.0000000001
 43
0.0000000001
 40
0.0
 40
0.0
 40
0.0
 40
0.0
 40
1.0
 40
1.0
 40
1.0
 40
1.0
 10
-12.3986
 20
11.7947
 30
0.0
 10
-12.3986
 20
11.7947
 30
0.0
 10
-12.3986
 20
17.4114
 30
0.0
 10
-12.3986
 20
17.4114
 30
0.0
  0
SPLINE
  5
A1
330
1F
100
AcDbEntity
  8
ROUND
 62
   250
370
    15
100
AcDbSpline
210
0.0
220
0.0
230
1.0
 70
    24
 71
     3
 72
     8
 73
     4
 74
     0
 42
0.0000000001
 43
0.0000000001
 40
0.0
 40
0.0
 40
0.0
 40
0.0
 40
1.0
 40
1.0
 40
1.0
 40
1.0
 10
-0.5531
 20
16.9584
 30
0.0
 10
-0.5531
 20
16.9584
 30
0.0
 10
-14.1133
 20
16.9584
 30
0.0
 10
-14.1133
 20
16.9584
 30
0.0
  0
SPLINE
  5
A2
330
1F
100
AcDbEntity
  8
ROUND
 62
   250
370
    15
100
AcDbSpline
210
0.0
220
0.0
230
1.0
 70
    24
 71
     3
 72
     8
 73
     4
 74
     0
 42
0.0000000001
 43
0.0000000001
 40
0.0
 40
0.0
 40
0.0
 40
0.0
 40
1.0
 40
1.0
 40
1.0
 40
1.0
 10
21.8883
 20
12.1859
 30
0.0
 10
21.8883
 20
12.1859
 30
0.0
 10
21.8883
 20
0.3458
 30
0.0
 10
21.8883
 20
0.3458
 30
0.0
  0
SPLINE
  5
A3
330
1F
100
AcDbEntity
  8
ROUND
 62
   250
370
     9
100
AcDbSpline
210
0.0
220
0.0
230
1.0
 70
    11
 71
     3
 72
    32
 73
    28
 74
     0
 42
0.0000000001
 43
0.0000000001
 40
0.0
 40
0.0
 40
0.0
 40
0.0
 40
0.125
 40
0.125
 40
0.125
 40
0.125
 40
0.25
 40
0.25
 40
0.25
 40
0.25
 40
0.375
 40
0.375
 40
0.375
 40
0.375
 40
0.5
 40
0.5
 40
0.5
 40
0.5
 40
0.625
 40
0.625
 40
0.625
 40
0.625
 40
0.75
 40
0.75
 40
0.75
 40
0.75
 40
1.0
 40
1.0
 40
1.0
 40
1.0
 10
20.5973
 20
-23.9394
 30
0.0
 10
20.5973
 20
-23.9394
 30
0.0
 10
20.5973
 20
-23.9394
 30
0.0
 10
20.5973
 20
-23.9394
 30
0.0
 10
20.5973
 20
-23.9394
 30
0.0
 10
20.5973
 20
-23.9394
 30
0.0
 10
20.5973
 20
-23.9394
 30
0.0
 10
20.5973
 20
-23.9394
 30
0.0
 10
20.5973
 20
-23.9394
 30
0.0
 10
20.5973
 20
-23.9394
 30
0.0
 10
21.8701
 20
-23.496
 30
0.0
 10
21.8701
 20
-23.496
 30
0.0
 10
21.8701
 20
-23.496
 30
0.0
 10
21.8701
 20
-23.496
 30
0.0
 10
20.5973
 20
-23.0526
 30
0.0
 10
20.5973
 20
-23.0526
 30
0.0
 10
20.5973
 20
-23.0526
 30
0.0
 10
20.5973
 20
-23.0526
 30
0.0
 10
20.5973
 20
-23.0526
 30
0.0
 10
20.5973
 20
-23.0526
 30
0.0
 10
20.5973
 20
-23.0526
 30
0.0
 10
20.5973
 20
-23.0526
 30
0.0
 10
20.5973
 20
-23.0526
 30
0.0
 10
20.5973
 20
-23.0526
 30
0.0
 10
20.5973
 20
-23.0526
 30
0.0
 10
20.5973
 20
-23.0526
 30
0.0
 10
20.5973
 20
-23.9394
 30
0.0
 10
20.5973
 20
-23.9394
 30
0.0
  0
SPLINE
  5
A4
330
1F
100
AcDbEntity
  8
ROUND
 62
   250
370
     9
100
AcDbSpline
210
0.0
220
0.0
230
1.0
 70
    11
 71
     3
 72
    32
 73
    28
 74
     0
 42
0.0000000001
 43
0.0000000001
 40
0.0
 40
0.0
 40
0.0
 40
0.0
 40
0.125
 40
0.125
 40
0.125
 40
0.125
 40
0.25
 40
0.25
 40
0.25
 40
0.25
 40
0.375
 40
0.375
 40
0.375
 40
0.375
 40
0.5
 40
0.5
 40
0.5
 40
0.5
 40
0.625
 40
0.625
 40
0.625
 40
0.625
 40
0.75
 40
0.75
 40
0.75
 40
0.75
 40
1.0
 40
1.0
 40
1.0
 40
1.0
 10
-8.5781
 20
21.3103
 30
0.0
 10
-8.5781
 20
21.3103
 30
0.0
 10
-8.5781
 20
21.3103
 30
0.0
 10
-8.5781
 20
21.3103
 30
0.0
 10
-8.5781
 20
21.3103
 30
0.0
 10
-8.5781
 20
21.3103
 30
0.0
 10
-8.5781
 20
21.3103
 30
0.0
 10
-8.5781
 20
21.3103
 30
0.0
 10
-8.5781
 20
21.3103
 30
0.0
 10
-8.5781
 20
21.3103
 30
0.0
 10
-7.3053
 20
21.7537
 30
0.0
 10
-7.3053
 20
21.7537
 30
0.0
 10
-7.3053
 20
21.7537
 30
0.0
 10
-7.3053
 20
21.7537
 30
0.0
 10
-8.5781
 20
22.1971
 30
0.0
 10
-8.5781
 20
22.1971
 30
0.0
 10
-8.5781
 20
22.1971
 30
0.0
 10
-8.5781
 20
22.1971
 30
0.0
 10
-8.5781
 20
22.1971
 30
0.0
 10
-8.5781
 20
22.1971
 30
0.0
 10
-8.5781
 20
22.1971
 30
0.0
 10
-8.5781
 20
22.1971
 30
0.0
 10
-8.5781
 20
22.1971
 30
0.0
 10
-8.5781
 20
22.1971
 30
0.0
 10
-8.5781
 20
22.1971
 30
0.0
 10
-8.5781
 20
22.1971
 30
0.0
 10
-8.5781
 20
21.3103
 30
0.0
 10
-8.5781
 20
21.3103
 30
0.0
  0
SPLINE
  5
A5
330
1F
100
AcDbEntity
  8
ROUND
 62
   250
370
     9
100
AcDbSpline
210
0.0
220
0.0
230
1.0
 70
    11
 71
     3
 72
    32
 73
    28
 74
     0
 42
0.0000000001
 43
0.0000000001
 40
0.0
 40
0.0
 40
0.0
 40
0.0
 40
0.125
 40
0.125
 40
0.125
 40
0.125
 40
0.25
 40
0.25
 40
0.25
 40
0.25
 40
0.375
 40
0.375
 40
0.375
 40
0.375
 40
0.5
 40
0.5
 40
0.5
 40
0.5
 40
0.625
 40
0.625
 40
0.625
 40
0.625
 40
0.75
 40
0.75
 40
0.75
 40
0.75
 40
1.0
 40
1.0
 40
1.0
 40
1.0
 10
-13.635
 20
16.5037
 30
0.0
 10
-13.635
 20
16.5037
 30
0.0
 10
-13.635
 20
16.5037
 30
0.0
 10
-13.635
 20
16.5037
 30
0.0
 10
-13.635
 20
16.5037
 30
0.0
 10
-13.635
 20
16.5037
 30
0.0
 10
-13.635
 20
16.5037
 30
0.0
 10
-13.635
 20
16.5037
 30
0.0
 10
-13.635
 20
16.5037
 30
0.0
 10
-13.635
 20
16.5037
 30
0.0
 10
-12.3622
 20
16.9471
 30
0.0
 10
-12.3622
 20
16.9471
 30
0.0
 10
-12.3622
 20
16.9471
 30
0.0
 10
-12.3622
 20
16.9471
 30
0.0
 10
-13.635
 20
17.3905
 30
0.0
 10
-13.635
 20
17.3905
 30
0.0
 10
-13.635
 20
17.3905
 30
0.0
 10
-13.635
 20
17.3905
 30
0.0
 10
-13.635
 20
17.3905
 30
0.0
 10
-13.635
 20
17.3905
 30
0.0
 10
-13.635
 20
17.3905
 30
0.0
 10
-13.635
 20
17.3905
 30
0.0
 10
-13.635
 20
17.3905
 30
0.0
 10
-13.635
 20
17.3905
 30
0.0
 10
-13.635
 20
17.3905
 30
0.0
 10
-13.635
 20
17.3905
 30
0.0
 10
-13.635
 20
16.5037
 30
0.0
 10
-13.635
 20
16.5037
 30
0.0
  0
SPLINE
  5
A6
330
1F
100
AcDbEntity
  8
ROUND
 62
   250
370
     9
100
AcDbSpline
210
0.0
220
0.0
230
1.0
 70
    11
 71
     3
 72
    32
 73
    28
 74
     0
 42
0.0000000001
 43
0.0000000001
 40
0.0
 40
0.0
 40
0.0
 40
0.0
 40
0.125
 40
0.125
 40
0.125
 40
0.125
 40
0.25
 40
0.25
 40
0.25
 40
0.25
 40
0.375
 40
0.375
 40
0.375
 40
0.375
 40
0.5
 40
0.5
 40
0.5
 40
0.5
 40
0.625
 40
0.625
 40
0.625
 40
0.625
 40
0.75
 40
0.75
 40
0.75
 40
0.75
 40
1.0
 40
1.0
 40
1.0
 40
1.0
 10
10.0751
 20
11.1018
 30
0.0
 10
10.0751
 20
11.1018
 30
0.0
 10
10.0751
 20
11.1018
 30
0.0
 10
10.0751
 20
11.1018
 30
0.0
 10
10.0751
 20
11.1018
 30
0.0
 10
10.0751
 20
11.1018
 30
0.0
 10
10.0751
 20
11.1018
 30
0.0
 10
10.0751
 20
11.1018
 30
0.0
 10
10.0751
 20
11.1018
 30
0.0
 10
10.0751
 20
11.1018
 30
0.0
 10
11.3479
 20
11.5452
 30
0.0
 10
11.3479
 20
11.5452
 30
0.0
 10
11.3479
 20
11.5452
 30
0.0
 10
11.3479
 20
11.5452
 30
0.0
 10
10.0751
 20
11.9886
 30
0.0
 10
10.0751
 20
11.9886
 30
0.0
 10
10.0751
 20
11.9886
 30
0.0
 10
10.0751
 20
11.9886
 30
0.0
 10
10.0751
 20
11.9886
 30
0.0
 10
10.0751
 20
11.9886
 30
0.0
 10
10.0751
 20
11.9886
 30
0.0
 10
10.0751
 20
11.9886
 30
0.0
 10
10.0751
 20
11.9886
 30
0.0
 10
10.0751
 20
11.9886
 30
0.0
 10
10.0751
 20
11.9886
 30
0.0
 10
10.0751
 20
11.9886
 30
0.0
 10
10.0751
 20
11.1018
 30
0.0
 10
10.0751
 20
11.1018
 30
0.0
  0
SPLINE
  5
A7
330
1F
100
AcDbEntity
  8
ROUND
 62
   250
370
     9
100
AcDbSpline
210
0.0
220
0.0
230
1.0
 70
    11
 71
     3
 72
    32
 73
    28
 74
     0
 42
0.0000000001
 43
0.0000000001
 40
0.0
 40
0.0
 40
0.0
 40
0.0
 40
0.125
 40
0.125
 40
0.125
 40
0.125
 40
0.25
 40
0.25
 40
0.25
 40
0.25
 40
0.375
 40
0.375
 40
0.375
 40
0.375
 40
0.5
 40
0.5
 40
0.5
 40
0.5
 40
0.625
 40
0.625
 40
0.625
 40
0.625
 40
0.75
 40
0.75
 40
0.75
 40
0.75
 40
1.0
 40
1.0
 40
1.0
 40
1.0
 10
27.2566
 20
1.7195
 30
0.0
 10
27.2566
 20
1.7195
 30
0.0
 10
27.2566
 20
1.7195
 30
0.0
 10
27.2566
 20
1.7195
 30
0.0
 10
27.2566
 20
1.7195
 30
0.0
 10
27.2566
 20
1.7195
 30
0.0
 10
27.2566
 20
1.7195
 30
0.0
 10
27.2566
 20
1.7195
 30
0.0
 10
27.2566
 20
1.7195
 30
0.0
 10
27.2566
 20
1.7195
 30
0.0
 10
27.7
 20
0.4467
 30
0.0
 10
27.7
 20
0.4467
 30
0.0
 10
27.7
 20
0.4467
 30
0.0
 10
27.7
 20
0.4467
 30
0.0
 10
28.1434
 20
1.7195
 30
0.0
 10
28.1434
 20
1.7195
 30
0.0
 10
28.1434
 20
1.7195
 30
0.0
 10
28.1434
 20
1.7195
 30
0.0
 10
28.1434
 20
1.7195
 30
0.0
 10
28.1434
 20
1.7195
 30
0.0
 10
28.1434
 20
1.7195
 30
0.0
 10
28.1434
 20
1.7195
 30
0.0
 10
28.1434
 20
1.7195
 30
0.0
 10
28.1434
 20
1.7195
 30
0.0
 10
28.1434
 20
1.7195
 30
0.0
 10
28.1434
 20
1.7195
 30
0.0
 10
27.2566
 20
1.7195
 30
0.0
 10
27.2566
 20
1.7195
 30
0.0
  0
SPLINE
  5
A8
330
1F
100
AcDbEntity
  8
ROUND
 62
   250
370
     9
100
AcDbSpline
210
0.0
220
0.0
230
1.0
 70
    11
 71
     3
 72
    32
 73
    28
 74
     0
 42
0.0000000001
 43
0.0000000001
 40
0.0
 40
0.0
 40
0.0
 40
0.0
 40
0.125
 40
0.125
 40
0.125
 40
0.125
 40
0.25
 40
0.25
 40
0.25
 40
0.25
 40
0.375
 40
0.375
 40
0.375
 40
0.375
 40
0.5
 40
0.5
 40
0.5
 40
0.5
 40
0.625
 40
0.625
 40
0.625
 40
0.625
 40
0.75
 40
0.75
 40
0.75
 40
0.75
 40
1.0
 40
1.0
 40
1.0
 40
1.0
 10
32.7577
 20
-17.1433
 30
0.0
 10
32.7577
 20
-17.1433
 30
0.0
 10
32.7577
 20
-17.1433
 30
0.0
 10
32.7577
 20
-17.1433
 30
0.0
 10
32.7577
 20
-17.1433
 30
0.0
 10
32.7577
 20
-17.1433
 30
0.0
 10
32.7577
 20
-17.1433
 30
0.0
 10
32.7577
 20
-17.1433
 30
0.0
 10
32.7577
 20
-17.1433
 30
0.0
 10
32.7577
 20
-17.1433
 30
0.0
 10
33.2011
 20
-18.4161
 30
0.0
 10
33.2011
 20
-18.4161
 30
0.0
 10
33.2011
 20
-18.4161
 30
0.0
 10
33.2011
 20
-18.4161
 30
0.0
 10
33.6445
 20
-17.1433
 30
0.0
 10
33.6445
 20
-17.1433
 30
0.0
 10
33.6445
 20
-17.1433
 30
0.0
 10
33.6445
 20
-17.1433
 30
0.0
 10
33.6445
 20
-17.1433
 30
0.0
 10
33.6445
 20
-17.1433
 30
0.0
 10
33.6445
 20
-17.1433
 30
0.0
 10
33.6445
 20
-17.1433
 30
0.0
 10
33.6445
 20
-17.1433
 30
0.0
 10
33.6445
 20
-17.1433
 30
0.0
 10
33.6445
 20
-17.1433
 30
0.0
 10
33.6445
 20
-17.1433
 30
0.0
 10
32.7577
 20
-17.1433
 30
0.0
 10
32.7577
 20
-17.1433
 30
0.0
  0
SPLINE
  5
A9
330
1F
100
AcDbEntity
  8
ROUND
 62
   250
370
     9
100
AcDbSpline
210
0.0
220
0.0
230
1.0
 70
    11
 71
     3
 72
    32
 73
    28
 74
     0
 42
0.0000000001
 43
0.0000000001
 40
0.0
 40
0.0
 40
0.0
 40
0.0
 40
0.125
 40
0.125
 40
0.125
 40
0.125
 40
0.25
 40
0.25
 40
0.25
 40
0.25
 40
0.375
 40
0.375
 40
0.375
 40
0.375
 40
0.5
 40
0.5
 40
0.5
 40
0.5
 40
0.625
 40
0.625
 40
0.625
 40
0.625
 40
0.75
 40
0.75
 40
0.75
 40
0.75
 40
1.0
 40
1.0
 40
1.0
 40
1.0
 10
-1.0592
 20
16.5037
 30
0.0
 10
-1.0592
 20
16.5037
 30
0.0
 10
-1.0592
 20
16.5037
 30
0.0
 10
-1.0592
 20
16.5037
 30
0.0
 10
-1.0592
 20
16.5037
 30
0.0
 10
-1.0592
 20
16.5037
 30
0.0
 10
-1.0592
 20
16.5037
 30
0.0
 10
-1.0592
 20
16.5037
 30
0.0
 10
-1.0592
 20
16.5037
 30
0.0
 10
-1.0592
 20
16.5037
 30
0.0
 10
-2.332
 20
16.9471
 30
0.0
 10
-2.332
 20
16.9471
 30
0.0
 10
-2.332
 20
16.9471
 30
0.0
 10
-2.332
 20
16.9471
 30
0.0
 10
-1.0592
 20
17.3905
 30
0.0
 10
-1.0592
 20
17.3905
 30
0.0
 10
-1.0592
 20
17.3905
 30
0.0
 10
-1.0592
 20
17.3905
 30
0.0
 10
-1.0592
 20
17.3905
 30
0.0
 10
-1.0592
 20
17.3905
 30
0.0
 10
-1.0592
 20
17.3905
 30
0.0
 10
-1.0592
 20
17.3905
 30
0.0
 10
-1.0592
 20
17.3905
 30
0.0
 10
-1.0592
 20
17.3905
 30
0.0
 10
-1.0592
 20
17.3905
 30
0.0
 10
-1.0592
 20
17.3905
 30
0.0
 10
-1.0592
 20
16.5037
 30
0.0
 10
-1.0592
 20
16.5037
 30
0.0
  0
SPLINE
  5
AA
330
1F
100
AcDbEntity
  8
ROUND
 62
   250
370
     9
100
AcDbSpline
210
0.0
220
0.0
230
1.0
 70
    11
 71
     3
 72
    32
 73
    28
 74
     0
 42
0.0000000001
 43
0.0000000001
 40
0.0
 40
0.0
 40
0.0
 40
0.0
 40
0.125
 40
0.125
 40
0.125
 40
0.125
 40
0.25
 40
0.25
 40
0.25
 40
0.25
 40
0.375
 40
0.375
 40
0.375
 40
0.375
 40
0.5
 40
0.5
 40
0.5
 40
0.5
 40
0.625
 40
0.625
 40
0.625
 40
0.625
 40
0.75
 40
0.75
 40
0.75
 40
0.75
 40
1.0
 40
1.0
 40
1.0
 40
1.0
 10
23.2542
 20
11.1018
 30
0.0
 10
23.2542
 20
11.1018
 30
0.0
 10
23.2542
 20
11.1018
 30
0.0
 10
23.2542
 20
11.1018
 30
0.0
 10
23.2542
 20
11.1018
 30
0.0
 10
23.2542
 20
11.1018
 30
0.0
 10
23.2542
 20
11.1018
 30
0.0
 10
23.2542
 20
11.1018
 30
0.0
 10
23.2542
 20
11.1018
 30
0.0
 10
23.2542
 20
11.1018
 30
0.0
 10
21.9814
 20
11.5452
 30
0.0
 10
21.9814
 20
11.5452
 30
0.0
 10
21.9814
 20
11.5452
 30
0.0
 10
21.9814
 20
11.5452
 30
0.0
 10
23.2542
 20
11.9886
 30
0.0
 10
23.2542
 20
11.9886
 30
0.0
 10
23.2542
 20
11.9886
 30
0.0
 10
23.2542
 20
11.9886
 30
0.0
 10
23.2542
 20
11.9886
 30
0.0
 10
23.2542
 20
11.9886
 30
0.0
 10
23.2542
 20
11.9886
 30
0.0
 10
23.2542
 20
11.9886
 30
0.0
 10
23.2542
 20
11.9886
 30
0.0
 10
23.2542
 20
11.9886
 30
0.0
 10
23.2542
 20
11.9886
 30
0.0
 10
23.2542
 20
11.9886
 30
0.0
 10
23.2542
 20
11.1018
 30
0.0
 10
23.2542
 20
11.1018
 30
0.0
  0
SPLINE
  5
AB
330
1F
100
AcDbEntity
  8
ROUND
 62
   250
370
     9
100
AcDbSpline
210
0.0
220
0.0
230
1.0
 70
    11
 71
     3
 72
    32
 73
    28
 74
     0
 42
0.0000000001
 43
0.0000000001
 40
0.0
 40
0.0
 40
0.0
 40
0.0
 40
0.125
 40
0.125
 40
0.125
 40
0.125
 40
0.25
 40
0.25
 40
0.25
 40
0.25
 40
0.375
 40
0.375
 40
0.375
 40
0.375
 40
0.5
 40
0.5
 40
0.5
 40
0.5
 40
0.625
 40
0.625
 40
0.625
 40
0.625
 40
0.75
 40
0.75
 40
0.75
 40
0.75
 40
1.0
 40
1.0
 40
1.0
 40
1.0
 10
27.2897
 20
-10.9966
 30
0.0
 10
27.2897
 20
-10.9966
 30
0.0
 10
27.2897
 20
-10.9966
 30
0.0
 10
27.2897
 20
-10.9966
 30
0.0
 10
27.2897
 20
-10.9966
 30
0.0
 10
27.2897
 20
-10.9966
 30
0.0
 10
27.2897
 20
-10.9966
 30
0.0
 10
27.2897
 20
-10.9966
 30
0.0
 10
27.2897
 20
-10.9966
 30
0.0
 10
27.2897
 20
-10.9966
 30
0.0
 10
27.7331
 20
-9.7238
 30
0.0
 10
27.7331
 20
-9.7238
 30
0.0
 10
27.7331
 20
-9.7238
 30
0.0
 10
27.7331
 20
-9.7238
 30
0.0
 10
28.1765
 20
-10.9966
 30
0.0
 10
28.1765
 20
-10.9966
 30
0.0
 10
28.1765
 20
-10.9966
 30
0.0
 10
28.1765
 20
-10.9966
 30
0.0
 10
28.1765
 20
-10.9966
 30
0.0
 10
28.1765
 20
-10.9966
 30
0.0
 10
28.1765
 20
-10.9966
 30
0.0
 10
28.1765
 20
-10.9966
 30
0.0
 10
28.1765
 20
-10.9966
 30
0.0
 10
28.1765
 20
-10.9966
 30
0.0
 10
28.1765
 20
-10.9966
 30
0.0
 10
28.1765
 20
-10.9966
 30
0.0
 10
27.2897
 20
-10.9966
 30
0.0
 10
27.2897
 20
-10.9966
 30
0.0
  0
SPLINE
  5
AC
330
1F
100
AcDbEntity
  8
ROUND
 62
   250
370
     9
100
AcDbSpline
210
0.0
220
0.0
230
1.0
 70
    11
 71
     3
 72
    32
 73
    28
 74
     0
 42
0.0000000001
 43
0.0000000001
 40
0.0
 40
0.0
 40
0.0
 40
0.0
 40
0.125
 40
0.125
 40
0.125
 40
0.125
 40
0.25
 40
0.25
 40
0.25
 40
0.25
 40
0.375
 40
0.375
 40
0.375
 40
0.375
 40
0.5
 40
0.5
 40
0.5
 40
0.5
 40
0.625
 40
0.625
 40
0.625
 40
0.625
 40
0.75
 40
0.75
 40
0.75
 40
0.75
 40
1.0
 40
1.0
 40
1.0
 40
1.0
 10
32.7796
 20
7.8493
 30
0.0
 10
32.7796
 20
7.8493
 30
0.0
 10
32.7796
 20
7.8493
 30
0.0
 10
32.7796
 20
7.8493
 30
0.0
 10
32.7796
 20
7.8493
 30
0.0
 10
32.7796
 20
7.8493
 30
0.0
 10
32.7796
 20
7.8493
 30
0.0
 10
32.7796
 20
7.8493
 30
0.0
 10
32.7796
 20
7.8493
 30
0.0
 10
32.7796
 20
7.8493
 30
0.0
 10
33.223
 20
9.1221
 30
0.0
 10
33.223
 20
9.1221
 30
0.0
 10
33.223
 20
9.1221
 30
0.0
 10
33.223
 20
9.1221
 30
0.0
 10
33.6664
 20
7.8493
 30
0.0
 10
33.6664
 20
7.8493
 30
0.0
 10
33.6664
 20
7.8493
 30
0.0
 10
33.6664
 20
7.8493
 30
0.0
 10
33.6664
 20
7.8493
 30
0.0
 10
33.6664
 20
7.8493
 30
0.0
 10
33.6664
 20
7.8493
 30
0.0
 10
33.6664
 20
7.8493
 30
0.0
 10
33.6664
 20
7.8493
 30
0.0
 10
33.6664
 20
7.8493
 30
0.0
 10
33.6664
 20
7.8493
 30
0.0
 10
33.6664
 20
7.8493
 30
0.0
 10
32.7796
 20
7.8493
 30
0.0
 10
32.7796
 20
7.8493
 30
0.0
  0
SPLINE
  5
AD
330
1F
100
AcDbEntity
  8
ROUND
 62
   250
370
     9
100
AcDbSpline
210
0.0
220
0.0
230
1.0
 70
    11
 71
     3
 72
    32
 73
    28
 74
     0
 42
0.0000000001
 43
0.0000000001
 40
0.0
 40
0.0
 40
0.0
 40
0.0
 40
0.125
 40
0.125
 40
0.125
 40
0.125
 40
0.25
 40
0.25
 40
0.25
 40
0.25
 40
0.375
 40
0.375
 40
0.375
 40
0.375
 40
0.5
 40
0.5
 40
0.5
 40
0.5
 40
0.625
 40
0.625
 40
0.625
 40
0.625
 40
0.75
 40
0.75
 40
0.75
 40
0.75
 40
1.0
 40
1.0
 40
1.0
 40
1.0
 10
-30.1825
 20
0.6991
 30
0.0
 10
-30.1825
 20
0.6991
 30
0.0
 10
-30.1825
 20
0.6991
 30
0.0
 10
-30.1825
 20
0.6991
 30
0.0
 10
-30.1825
 20
0.6991
 30
0.0
 10
-30.1825
 20
0.6991
 30
0.0
 10
-30.1825
 20
0.6991
 30
0.0
 10
-30.1825
 20
0.6991
 30
0.0
 10
-30.1825
 20
0.6991
 30
0.0
 10
-30.1825
 20
0.6991
 30
0.0
 10
-30.6259
 20
1.9719
 30
0.0
 10
-30.6259
 20
1.9719
 30
0.0
 10
-30.6259
 20
1.9719
 30
0.0
 10
-30.6259
 20
1.9719
 30
0.0
 10
-31.0693
 20
0.6991
 30
0.0
 10
-31.0693
 20
0.6991
 30
0.0
 10
-31.0693
 20
0.6991
 30
0.0
 10
-31.0693
 20
0.6991
 30
0.0
 10
-31.0693
 20
0.6991
 30
0.0
 10
-31.0693
 20
0.6991
 30
0.0
 10
-31.0693
 20
0.6991
 30
0.0
 10
-31.0693
 20
0.6991
 30
0.0
 10
-31.0693
 20
0.6991
 30
0.0
 10
-31.0693
 20
0.6991
 30
0.0
 10
-31.0693
 20
0.6991
 30
0.0
 10
-31.0693
 20
0.6991
 30
0.0
 10
-30.1825
 20
0.6991
 30
0.0
 10
-30.1825
 20
0.6991
 30
0.0
  0
SPLINE
  5
AE
330
1F
100
AcDbEntity
  8
ROUND
 62
   250
370
     9
100
AcDbSpline
210
0.0
220
0.0
230
1.0
 70
    11
 71
     3
 72
    32
 73
    28
 74
     0
 42
0.0000000001
 43
0.0000000001
 40
0.0
 40
0.0
 40
0.0
 40
0.0
 40
0.125
 40
0.125
 40
0.125
 40
0.125
 40
0.25
 40
0.25
 40
0.25
 40
0.25
 40
0.375
 40
0.375
 40
0.375
 40
0.375
 40
0.5
 40
0.5
 40
0.5
 40
0.5
 40
0.625
 40
0.625
 40
0.625
 40
0.625
 40
0.75
 40
0.75
 40
0.75
 40
0.75
 40
1.0
 40
1.0
 40
1.0
 40
1.0
 10
-25.0828
 20
-23.9839
 30
0.0
 10
-25.0828
 20
-23.9839
 30
0.0
 10
-25.0828
 20
-23.9839
 30
0.0
 10
-25.0828
 20
-23.9839
 30
0.0
 10
-25.0828
 20
-23.9839
 30
0.0
 10
-25.0828
 20
-23.9839
 30
0.0
 10
-25.0828
 20
-23.9839
 30
0.0
 10
-25.0828
 20
-23.9839
 30
0.0
 10
-25.0828
 20
-23.9839
 30
0.0
 10
-25.0828
 20
-23.9839
 30
0.0
 10
-26.3556
 20
-23.5405
 30
0.0
 10
-26.3556
 20
-23.5405
 30
0.0
 10
-26.3556
 20
-23.5405
 30
0.0
 10
-26.3556
 20
-23.5405
 30
0.0
 10
-25.0828
 20
-23.0971
 30
0.0
 10
-25.0828
 20
-23.0971
 30
0.0
 10
-25.0828
 20
-23.0971
 30
0.0
 10
-25.0828
 20
-23.0971
 30
0.0
 10
-25.0828
 20
-23.0971
 30
0.0
 10
-25.0828
 20
-23.0971
 30
0.0
 10
-25.0828
 20
-23.0971
 30
0.0
 10
-25.0828
 20
-23.0971
 30
0.0
 10
-25.0828
 20
-23.0971
 30
0.0
 10
-25.0828
 20
-23.0971
 30
0.0
 10
-25.0828
 20
-23.0971
 30
0.0
 10
-25.0828
 20
-23.0971
 30
0.0
 10
-25.0828
 20
-23.9839
 30
0.0
 10
-25.0828
 20
-23.9839
 30
0.0
  0
SPLINE
  5
AF
330
1F
100
AcDbEntity
  8
ROUND
 62
   250
370
     9
100
AcDbSpline
210
0.0
220
0.0
230
1.0
 70
    11
 71
     3
 72
    32
 73
    28
 74
     0
 42
0.0000000001
 43
0.0000000001
 40
0.0
 40
0.0
 40
0.0
 40
0.0
 40
0.125
 40
0.125
 40
0.125
 40
0.125
 40
0.25
 40
0.25
 40
0.25
 40
0.25
 40
0.375
 40
0.375
 40
0.375
 40
0.375
 40
0.5
 40
0.5
 40
0.5
 40
0.5
 40
0.625
 40
0.625
 40
0.625
 40
0.625
 40
0.75
 40
0.75
 40
0.75
 40
0.75
 40
1.0
 40
1.0
 40
1.0
 40
1.0
 10
-25.1321
 20
21.3321
 30
0.0
 10
-25.1321
 20
21.3321
 30
0.0
 10
-25.1321
 20
21.3321
 30
0.0
 10
-25.1321
 20
21.3321
 30
0.0
 10
-25.1321
 20
21.3321
 30
0.0
 10
-25.1321
 20
21.3321
 30
0.0
 10
-25.1321
 20
21.3321
 30
0.0
 10
-25.1321
 20
21.3321
 30
0.0
 10
-25.1321
 20
21.3321
 30
0.0
 10
-25.1321
 20
21.3321
 30
0.0
 10
-26.4049
 20
21.7755
 30
0.0
 10
-26.4049
 20
21.7755
 30
0.0
 10
-26.4049
 20
21.7755
 30
0.0
 10
-26.4049
 20
21.7755
 30
0.0
 10
-25.1321
 20
22.2189
 30
0.0
 10
-25.1321
 20
22.2189
 30
0.0
 10
-25.1321
 20
22.2189
 30
0.0
 10
-25.1321
 20
22.2189
 30
0.0
 10
-25.1321
 20
22.2189
 30
0.0
 10
-25.1321
 20
22.2189
 30
0.0
 10
-25.1321
 20
22.2189
 30
0.0
 10
-25.1321
 20
22.2189
 30
0.0
 10
-25.1321
 20
22.2189
 30
0.0
 10
-25.1321
 20
22.2189
 30
0.0
 10
-25.1321
 20
22.2189
 30
0.0
 10
-25.1321
 20
22.2189
 30
0.0
 10
-25.1321
 20
21.3321
 30
0.0
 10
-25.1321
 20
21.3321
 30
0.0
  0
SPLINE
  5
B0
330
1F
100
AcDbEntity
  8
ROUND
 62
   250
370
     9
100
AcDbSpline
210
0.0
220
0.0
230
1.0
 70
    11
 71
     3
 72
    32
 73
    28
 74
     0
 42
0.0000000001
 43
0.0000000001
 40
0.0
 40
0.0
 40
0.0
 40
0.0
 40
0.125
 40
0.125
 40
0.125
 40
0.125
 40
0.25
 40
0.25
 40
0.25
 40
0.25
 40
0.375
 40
0.375
 40
0.375
 40
0.375
 40
0.5
 40
0.5
 40
0.5
 40
0.5
 40
0.625
 40
0.625
 40
0.625
 40
0.625
 40
0.75
 40
0.75
 40
0.75
 40
0.75
 40
1.0
 40
1.0
 40
1.0
 40
1.0
 10
-30.1981
 20
-10.0322
 30
0.0
 10
-30.1981
 20
-10.0322
 30
0.0
 10
-30.1981
 20
-10.0322
 30
0.0
 10
-30.1981
 20
-10.0322
 30
0.0
 10
-30.1981
 20
-10.0322
 30
0.0
 10
-30.1981
 20
-10.0322
 30
0.0
 10
-30.1981
 20
-10.0322
 30
0.0
 10
-30.1981
 20
-10.0322
 30
0.0
 10
-30.1981
 20
-10.0322
 30
0.0
 10
-30.1981
 20
-10.0322
 30
0.0
 10
-30.6415
 20
-11.305
 30
0.0
 10
-30.6415
 20
-11.305
 30
0.0
 10
-30.6415
 20
-11.305
 30
0.0
 10
-30.6415
 20
-11.305
 30
0.0
 10
-31.0849
 20
-10.0322
 30
0.0
 10
-31.0849
 20
-10.0322
 30
0.0
 10
-31.0849
 20
-10.0322
 30
0.0
 10
-31.0849
 20
-10.0322
 30
0.0
 10
-31.0849
 20
-10.0322
 30
0.0
 10
-31.0849
 20
-10.0322
 30
0.0
 10
-31.0849
 20
-10.0322
 30
0.0
 10
-31.0849
 20
-10.0322
 30
0.0
 10
-31.0849
 20
-10.0322
 30
0.0
 10
-31.0849
 20
-10.0322
 30
0.0
 10
-31.0849
 20
-10.0322
 30
0.0
 10
-31.0849
 20
-10.0322
 30
0.0
 10
-30.1981
 20
-10.0322
 30
0.0
 10
-30.1981
 20
-10.0322
 30
0.0
  0
ENDSEC
  0
SECTION
  2
OBJECTS
  0
DICTIONARY
  5
C
330
0
100
AcDbDictionary
281
     1
  3
ACAD_GROUP
350
D
  3
ACAD_LAYOUT
350
1A
  3
ACAD_MATERIAL
350
3B
  3
ACAD_MLEADERSTYLE
350
B3
  3
ACAD_MLINESTYLE
350
17
  3
ACAD_PLOTSETTINGS
350
19
  3
ACAD_PLOTSTYLENAME
350
E
  3
ACAD_VISUALSTYLE
350
2A
  3
AcDbVariableDictionary
350
B1
  0
DICTIONARY
  5
D
102
{ACAD_REACTORS
330
C
102
}
330
C
100
AcDbDictionary
281
     1
  0
DICTIONARY
  5
1A
102
{ACAD_REACTORS
330
C
102
}
330
C
100
AcDbDictionary
281
     1
  3
Layout1
350
1E
  3
Layout2
350
26
  3
Model
350
22
  0
DICTIONARY
  5
3B
102
{ACAD_REACTORS
330
C
102
}
330
C
100
AcDbDictionary
281
     1
  3
ByBlock
350
3D
  3
ByLayer
350
3C
  3
Global
350
3E
  0
DICTIONARY
  5
B3
102
{ACAD_REACTORS
330
C
102
}
330
C
100
AcDbDictionary
281
     1
  0
DICTIONARY
  5
17
102
{ACAD_REACTORS
330
C
102
}
330
C
100
AcDbDictionary
281
     1
  3
Standard
350
18
  0
DICTIONARY
  5
19
102
{ACAD_REACTORS
330
C
102
}
330
C
100
AcDbDictionary
281
     1
  0
ACDBDICTIONARYWDFLT
  5
E
102
{ACAD_REACTORS
330
C
102
}
330
C
100
AcDbDictionary
281
     1
  3
Normal
350
F
100
AcDbDictionaryWithDefault
340
F
  0
DICTIONARY
  5
2A
102
{ACAD_REACTORS
330
C
102
}
330
C
100
AcDbDictionary
281
     1
  3
2dWireframe
350
2F
  3
3D Hidden
350
31
  3
3dWireframe
350
30
  3
Basic
350
32
  3
Brighten
350
36
  3
ColorChange
350
3A
  3
Conceptual
350
34
  3
Dim
350
35
  3
Facepattern
350
39
  3
Flat
350
2B
  3
FlatWithEdges
350
2C
  3
Gouraud
350
2D
  3
GouraudWithEdges
350
2E
  3
Linepattern
350
38
  3
Realistic
350
33
  3
Thicken
350
37
  0
DICTIONARY
  5
B1
102
{ACAD_REACTORS
330
C
102
}
330
C
100
AcDbDictionary
281
     1
  3
DIMASSOC
350
B4
  3
HIDETEXT
350
B5
  0
LAYOUT
  5
1E
102
{ACAD_REACTORS
330
1A
102
}
330
1A
100
AcDbPlotSettings
  1

  2
none_device
  4

  6

 40
0.0
 41
0.0
 42
0.0
 43
0.0
 44
0.0
 45
0.0
 46
0.0
 47
0.0
 48
0.0
 49
0.0
140
0.0
141
0.0
142
1.0
143
1.0
 70
   688
 72
     0
 73
     0
 74
     5
  7

 75
    16
147
1.0
148
0.0
149
0.0
100
AcDbLayout
  1
Layout1
 70
     1
 71
     1
 10
0.0
 20
0.0
 11
12.0
 21
9.0
 12
0.0
 22
0.0
 32
0.0
 14
1.000000000000000E+20
 24
1.000000000000000E+20
 34
1.000000000000000E+20
 15
-1.000000000000000E+20
 25
-1.000000000000000E+20
 35
-1.000000000000000E+20
146
0.0
 13
0.0
 23
0.0
 33
0.0
 16
1.0
 26
0.0
 36
0.0
 17
0.0
 27
1.0
 37
0.0
 76
     0
330
1B
  0
LAYOUT
  5
26
102
{ACAD_REACTORS
330
1A
102
}
330
1A
100
AcDbPlotSettings
  1

  2
none_device
  4

  6

 40
0.0
 41
0.0
 42
0.0
 43
0.0
 44
0.0
 45
0.0
 46
0.0
 47
0.0
 48
0.0
 49
0.0
140
0.0
141
0.0
142
1.0
143
1.0
 70
   688
 72
     0
 73
     0
 74
     5
  7

 75
    16
147
1.0
148
0.0
149
0.0
100
AcDbLayout
  1
Layout2
 70
     1
 71
     2
 10
0.0
 20
0.0
 11
0.0
 21
0.0
 12
0.0
 22
0.0
 32
0.0
 14
0.0
 24
0.0
 34
0.0
 15
0.0
 25
0.0
 35
0.0
146
0.0
 13
0.0
 23
0.0
 33
0.0
 16
1.0
 26
0.0
 36
0.0
 17
0.0
 27
1.0
 37
0.0
 76
     0
330
23
  0
LAYOUT
  5
22
102
{ACAD_REACTORS
330
1A
102
}
330
1A
100
AcDbPlotSettings
  1

  2
none_device
  4

  6

 40
0.0
 41
0.0
 42
0.0
 43
0.0
 44
0.0
 45
0.0
 46
0.0
 47
0.0
 48
0.0
 49
0.0
140
0.0
141
0.0
142
1.0
143
1.0
 70
  1712
 72
     0
 73
     0
 74
     0
  7

 75
     0
147
1.0
148
0.0
149
0.0
100
AcDbLayout
  1
Model
 70
     1
 71
     0
 10
0.0
 20
0.0
 11
12.0
 21
9.0
 12
0.0
 22
0.0
 32
0.0
 14
-34.0696
 24
-24.8115
 34
0.0
 15
34.0695
 25
24.8116
 35
0.0
146
0.0
 13
0.0
 23
0.0
 33
0.0
 16
1.0
 26
0.0
 36
0.0
 17
0.0
 27
1.0
 37
0.0
 76
     0
330
1F
331
29
  0
MATERIAL
  5
3D
102
{ACAD_REACTORS
330
3B
102
}
102
{ACAD_XDICTIONARY
360
D8
102
}
330
3B
100
AcDbMaterial
  1
ByBlock
  0
MATERIAL
  5
3C
102
{ACAD_REACTORS
330
3B
102
}
102
{ACAD_XDICTIONARY
360
D6
102
}
330
3B
100
AcDbMaterial
  1
ByLayer
  0
MATERIAL
  5
3E
102
{ACAD_REACTORS
330
3B
102
}
102
{ACAD_XDICTIONARY
360
DA
102
}
330
3B
100
AcDbMaterial
  1
Global
  0
MLINESTYLE
  5
18
102
{ACAD_REACTORS
330
17
102
}
330
17
100
AcDbMlineStyle
  2
Standard
 70
     0
  3

 62
   256
 51
90.0
 52
90.0
 71
     2
 49
0.5
 62
   256
  6
BYLAYER
 49
-0.5
 62
   256
  6
BYLAYER
  0
ACDBPLACEHOLDER
  5
F
102
{ACAD_REACTORS
330
E
102
}
330
E
  0
VISUALSTYLE
  5
2F
102
{ACAD_REACTORS
330
2A
102
}
102
{ACAD_XDICTIONARY
360
BE
102
}
330
2A
100
AcDbVisualStyle
  2
2dWireframe
 70
     4
 71
     0
 72
     2
 73
     0
 90
        0
 40
-0.6
 41
-30.0
 62
     5
 63
     7
 74
     1
 91
        4
 64
     7
 65
   257
 75
     1
175
     1
 42
1.0
 92
        0
 66
   257
 43
1.0
 76
     1
 77
     6
 78
     2
 67
     7
 79
     5
170
     0
171
     0
290
     0
174
     0
 93
        1
 44
0.0
173
     0
291
     0
 45
0.0
1001
ACAD
1000
AcDbSavedByObjectVersion
1070
     0
  0
VISUALSTYLE
  5
31
102
{ACAD_REACTORS
330
2A
102
}
102
{ACAD_XDICTIONARY
360
C2
102
}
330
2A
100
AcDbVisualStyle
  2
3D Hidden
 70
     6
 71
     1
 72
     2
 73
     2
 90
        0
 40
-0.6
 41
-30.0
 62
     5
 63
     7
 74
     2
 91
        2
 64
     7
 65
   257
 75
     2
175
     1
 42
40.0
 92
        0
 66
   257
 43
1.0
 76
     1
 77
     6
 78
     2
 67
     7
 79
     3
170
     0
171
     0
290
     0
174
     0
 93
        1
 44
0.0
173
     0
291
     0
 45
0.0
1001
ACAD
1000
AcDbSavedByObjectVersion
1070
     0
  0
VISUALSTYLE
  5
30
102
{ACAD_REACTORS
330
2A
102
}
102
{ACAD_XDICTIONARY
360
C0
102
}
330
2A
100
AcDbVisualStyle
  2
3dWireframe
 70
     5
 71
     0
 72
     2
 73
     0
 90
        0
 40
-0.6
 41
-30.0
 62
     5
 63
     7
 74
     1
 91
        4
 64
     7
 65
   257
 75
     1
175
     1
 42
1.0
 92
        0
 66
   257
 43
1.0
 76
     1
 77
     6
 78
     2
 67
     7
 79
     5
170
     0
171
     0
290
     0
174
     0
 93
        1
 44
0.0
173
     0
291
     0
 45
0.0
1001
ACAD
1000
AcDbSavedByObjectVersion
1070
     0
  0
VISUALSTYLE
  5
32
102
{ACAD_REACTORS
330
2A
102
}
102
{ACAD_XDICTIONARY
360
C4
102
}
330
2A
100
AcDbVisualStyle
  2
Basic
 70
     7
 71
     1
 72
     0
 73
     1
 90
        0
 40
-0.6
 41
-30.0
 62
     5
 63
     7
 74
     0
 91
        4
 64
     7
 65
   257
 75
     1
175
     1
 42
1.0
 92
        8
 66
     7
 43
1.0
 76
     1
 77
     6
 78
     2
 67
     7
 79
     5
170
     0
171
     0
290
     0
174
     0
 93
        1
 44
0.0
173
     0
291
     1
 45
0.0
1001
ACAD
1000
AcDbSavedByObjectVersion
1070
     0
  0
VISUALSTYLE
  5
36
102
{ACAD_REACTORS
330
2A
102
}
102
{ACAD_XDICTIONARY
360
CC
102
}
330
2A
100
AcDbVisualStyle
  2
Brighten
 70
    12
 71
     2
 72
     2
 73
     0
 90
        0
 40
-0.6
 41
-30.0
 62
     5
 63
     7
 74
     1
 91
        4
 64
     7
 65
   257
 75
     1
175
     1
 42
1.0
 92
        8
 66
     7
 43
1.0
 76
     1
 77
     6
 78
     2
 67
     7
 79
     5
170
     0
171
     0
290
     0
174
     0
 93
        1
 44
50.0
173
     0
291
     1
 45
0.0
1001
ACAD
1000
AcDbSavedByObjectVersion
1070
     0
  0
VISUALSTYLE
  5
3A
102
{ACAD_REACTORS
330
2A
102
}
102
{ACAD_XDICTIONARY
360
D4
102
}
330
2A
100
AcDbVisualStyle
  2
ColorChange
 70
    16
 71
     2
 72
     2
 73
     3
 90
        0
 40
-0.6
 41
-30.0
 62
     5
 63
     8
 74
     1
 91
        4
 64
     7
 65
   257
 75
     1
175
     1
 42
1.0
 92
        8
 66
     8
 43
1.0
 76
     1
 77
     6
 78
     2
 67
     7
 79
     5
170
     0
171
     0
290
     0
174
     0
 93
        1
 44
0.0
173
     0
291
     1
 45
0.0
1001
ACAD
1000
AcDbSavedByObjectVersion
1070
     0
  0
VISUALSTYLE
  5
34
102
{ACAD_REACTORS
330
2A
102
}
102
{ACAD_XDICTIONARY
360
C8
102
}
330
2A
100
AcDbVisualStyle
  2
Conceptual
 70
     9
 71
     3
 72
     2
 73
     0
 90
        0
 40
-0.6
 41
-30.0
 62
     5
 63
     7
 74
     2
 91
        2
 64
     7
 65
   257
 75
     1
175
     1
 42
40.0
 92
        8
 66
     7
 43
1.0
 76
     1
 77
     6
 78
     2
 67
     7
 79
     3
170
     0
171
     0
290
     0
174
     0
 93
        1
 44
0.0
173
     0
291
     0
 45
0.0
1001
ACAD
1000
AcDbSavedByObjectVersion
1070
     0
  0
VISUALSTYLE
  5
35
102
{ACAD_REACTORS
330
2A
102
}
102
{ACAD_XDICTIONARY
360
CA
102
}
330
2A
100
AcDbVisualStyle
  2
Dim
 70
    11
 71
     2
 72
     2
 73
     0
 90
        0
 40
-0.6
 41
-30.0
 62
     5
 63
     7
 74
     1
 91
        4
 64
     7
 65
   257
 75
     1
175
     1
 42
1.0
 92
        8
 66
     7
 43
1.0
 76
     1
 77
     6
 78
     2
 67
     7
 79
     5
170
     0
171
     0
290
     0
174
     0
 93
        1
 44
-50.0
173
     0
291
     1
 45
0.0
1001
ACAD
1000
AcDbSavedByObjectVersion
1070
     0
  0
VISUALSTYLE
  5
39
102
{ACAD_REACTORS
330
2A
102
}
102
{ACAD_XDICTIONARY
360
D2
102
}
330
2A
100
AcDbVisualStyle
  2
Facepattern
 70
    15
 71
     2
 72
     2
 73
     0
 90
        0
 40
-0.6
 41
-30.0
 62
     5
 63
     7
 74
     1
 91
        4
 64
     7
 65
   257
 75
     1
175
     1
 42
1.0
 92
        8
 66
     7
 43
1.0
 76
     1
 77
     6
 78
     2
 67
     7
 79
     5
170
     0
171
     0
290
     0
174
     0
 93
        1
 44
0.0
173
     0
291
     1
 45
0.0
1001
ACAD
1000
AcDbSavedByObjectVersion
1070
     0
  0
VISUALSTYLE
  5
2B
102
{ACAD_REACTORS
330
2A
102
}
102
{ACAD_XDICTIONARY
360
B6
102
}
330
2A
100
AcDbVisualStyle
  2
Flat
 70
     0
 71
     2
 72
     1
 73
     1
 90
        2
 40
-0.6
 41
30.0
 62
     5
 63
     7
 74
     0
 91
        4
 64
     7
 65
   257
 75
     1
175
     1
 42
1.0
 92
        8
 66
     7
 43
1.0
 76
     1
 77
     6
 78
     2
 67
     7
 79
     5
170
     0
171
     0
290
     0
174
     0
 93
       13
 44
0.0
173
     0
291
     1
 45
0.0
1001
ACAD
1000
AcDbSavedByObjectVersion
1070
     0
  0
VISUALSTYLE
  5
2C
102
{ACAD_REACTORS
330
2A
102
}
102
{ACAD_XDICTIONARY
360
B8
102
}
330
2A
100
AcDbVisualStyle
  2
FlatWithEdges
 70
     1
 71
     2
 72
     1
 73
     1
 90
        2
 40
-0.6
 41
30.0
 62
     5
 63
     7
 74
     1
 91
        4
 64
     7
 65
   257
 75
     1
175
     1
 42
1.0
 92
        0
 66
   257
 43
1.0
 76
     1
 77
     6
 78
     2
 67
     7
 79
     5
170
     0
171
     0
290
     0
174
     0
 93
       13
 44
0.0
173
     0
291
     1
 45
0.0
1001
ACAD
1000
AcDbSavedByObjectVersion
1070
     0
  0
VISUALSTYLE
  5
2D
102
{ACAD_REACTORS
330
2A
102
}
102
{ACAD_XDICTIONARY
360
BA
102
}
330
2A
100
AcDbVisualStyle
  2
Gouraud
 70
     2
 71
     2
 72
     2
 73
     1
 90
        2
 40
-0.6
 41
30.0
 62
     5
 63
     7
 74
     0
 91
        4
 64
     7
 65
   257
 75
     1
175
     1
 42
1.0
 92
        0
 66
     7
 43
1.0
 76
     1
 77
     6
 78
     2
 67
     7
 79
     5
170
     0
171
     0
290
     0
174
     0
 93
       13
 44
0.0
173
     0
291
     1
 45
0.0
1001
ACAD
1000
AcDbSavedByObjectVersion
1070
     0
  0
VISUALSTYLE
  5
2E
102
{ACAD_REACTORS
330
2A
102
}
102
{ACAD_XDICTIONARY
360
BC
102
}
330
2A
100
AcDbVisualStyle
  2
GouraudWithEdges
 70
     3
 71
     2
 72
     2
 73
     1
 90
        2
 40
-0.6
 41
30.0
 62
     5
 63
     7
 74
     1
 91
        4
 64
     7
 65
   257
 75
     1
175
     1
 42
1.0
 92
        0
 66
   257
 43
1.0
 76
     1
 77
     6
 78
     2
 67
     7
 79
     5
170
     0
171
     0
290
     0
174
     0
 93
       13
 44
0.0
173
     0
291
     1
 45
0.0
1001
ACAD
1000
AcDbSavedByObjectVersion
1070
     0
  0
VISUALSTYLE
  5
38
102
{ACAD_REACTORS
330
2A
102
}
102
{ACAD_XDICTIONARY
360
D0
102
}
330
2A
100
AcDbVisualStyle
  2
Linepattern
 70
    14
 71
     2
 72
     2
 73
     0
 90
        0
 40
-0.6
 41
-30.0
 62
     5
 63
     7
 74
     1
 91
        4
 64
     7
 65
   257
 75
     7
175
     7
 42
1.0
 92
        8
 66
     7
 43
1.0
 76
     1
 77
     6
 78
     2
 67
     7
 79
     5
170
     0
171
     0
290
     0
174
     0
 93
        1
 44
0.0
173
     0
291
     1
 45
0.0
1001
ACAD
1000
AcDbSavedByObjectVersion
1070
     0
  0
VISUALSTYLE
  5
33
102
{ACAD_REACTORS
330
2A
102
}
102
{ACAD_XDICTIONARY
360
C6
102
}
330
2A
100
AcDbVisualStyle
  2
Realistic
 70
     8
 71
     2
 72
     2
 73
     0
 90
        0
 40
-0.6
 41
-30.0
 62
     5
 63
     7
 74
     1
 91
        0
 64
     7
 65
   257
 75
     1
175
     1
 42
1.0
 92
        8
 66
     8
 43
1.0
 76
     1
 77
     6
 78
     2
 67
     7
 79
     5
170
     0
171
     0
290
     0
174
     0
 93
       13
 44
0.0
173
     0
291
     0
 45
0.0
1001
ACAD
1000
AcDbSavedByObjectVersion
1070
     0
  0
VISUALSTYLE
  5
37
102
{ACAD_REACTORS
330
2A
102
}
102
{ACAD_XDICTIONARY
360
CE
102
}
330
2A
100
AcDbVisualStyle
  2
Thicken
 70
    13
 71
     2
 72
     2
 73
     0
 90
        0
 40
-0.6
 41
-30.0
 62
     5
 63
     7
 74
     1
 91
        4
 64
     7
 65
   257
 75
     1
175
     1
 42
1.0
 92
       12
 66
     7
 43
1.0
 76
     1
 77
     6
 78
     2
 67
     7
 79
     5
170
     0
171
     0
290
     0
174
     0
 93
        1
 44
0.0
173
     0
291
     1
 45
0.0
1001
ACAD
1000
AcDbSavedByObjectVersion
1070
     0
  0
DICTIONARYVAR
  5
B4
102
{ACAD_REACTORS
330
B1
102
}
330
B1
100
DictionaryVariables
280
     0
  1
2
  0
DICTIONARYVAR
  5
B5
102
{ACAD_REACTORS
330
B1
102
}
330
B1
100
DictionaryVariables
280
     0
  1
1
  0
DICTIONARY
  5
D8
330
3D
100
AcDbDictionary
280
     1
281
     1
  3
ACAD_XREC_ROUNDTRIP
360
D9
  0
DICTIONARY
  5
D6
330
3C
100
AcDbDictionary
280
     1
281
     1
  3
ACAD_XREC_ROUNDTRIP
360
D7
  0
DICTIONARY
  5
DA
330
3E
100
AcDbDictionary
280
     1
281
     1
  3
ACAD_XREC_ROUNDTRIP
360
DB
  0
DICTIONARY
  5
BE
330
2F
100
AcDbDictionary
280
     1
281
     1
  3
ACAD_XREC_ROUNDTRIP
360
BF
  0
DICTIONARY
  5
C2
330
31
100
AcDbDictionary
280
     1
281
     1
  3
ACAD_XREC_ROUNDTRIP
360
C3
  0
DICTIONARY
  5
C0
330
30
100
AcDbDictionary
280
     1
281
     1
  3
ACAD_XREC_ROUNDTRIP
360
C1
  0
DICTIONARY
  5
C4
330
32
100
AcDbDictionary
280
     1
281
     1
  3
ACAD_XREC_ROUNDTRIP
360
C5
  0
DICTIONARY
  5
CC
330
36
100
AcDbDictionary
280
     1
281
     1
  3
ACAD_XREC_ROUNDTRIP
360
CD
  0
DICTIONARY
  5
D4
330
3A
100
AcDbDictionary
280
     1
281
     1
  3
ACAD_XREC_ROUNDTRIP
360
D5
  0
DICTIONARY
  5
C8
330
34
100
AcDbDictionary
280
     1
281
     1
  3
ACAD_XREC_ROUNDTRIP
360
C9
  0
DICTIONARY
  5
CA
330
35
100
AcDbDictionary
280
     1
281
     1
  3
ACAD_XREC_ROUNDTRIP
360
CB
  0
DICTIONARY
  5
D2
330
39
100
AcDbDictionary
280
     1
281
     1
  3
ACAD_XREC_ROUNDTRIP
360
D3
  0
DICTIONARY
  5
B6
330
2B
100
AcDbDictionary
280
     1
281
     1
  3
ACAD_XREC_ROUNDTRIP
360
B7
  0
DICTIONARY
  5
B8
330
2C
100
AcDbDictionary
280
     1
281
     1
  3
ACAD_XREC_ROUNDTRIP
360
B9
  0
DICTIONARY
  5
BA
330
2D
100
AcDbDictionary
280
     1
281
     1
  3
ACAD_XREC_ROUNDTRIP
360
BB
  0
DICTIONARY
  5
BC
330
2E
100
AcDbDictionary
280
     1
281
     1
  3
ACAD_XREC_ROUNDTRIP
360
BD
  0
DICTIONARY
  5
D0
330
38
100
AcDbDictionary
280
     1
281
     1
  3
ACAD_XREC_ROUNDTRIP
360
D1
  0
DICTIONARY
  5
C6
330
33
100
AcDbDictionary
280
     1
281
     1
  3
ACAD_XREC_ROUNDTRIP
360
C7
  0
DICTIONARY
  5
CE
330
37
100
AcDbDictionary
280
     1
281
     1
  3
ACAD_XREC_ROUNDTRIP
360
CF
  0
XRECORD
  5
D9
102
{ACAD_REACTORS
330
D8
102
}
330
D8
100
AcDbXrecord
280
     1
102
MATERIAL
148
0.0
149
0.0
149
0.0
 93
        0
 94
      127
282
     0
 72
     1
 77
     1
171
     1
175
     1
179
     1
273
     0
  0
XRECORD
  5
D7
102
{ACAD_REACTORS
330
D6
102
}
330
D6
100
AcDbXrecord
280
     1
102
MATERIAL
148
0.0
149
0.0
149
0.0
 93
        0
 94
      127
282
     0
 72
     1
 77
     1
171
     1
175
     1
179
     1
273
     0
  0
XRECORD
  5
DB
102
{ACAD_REACTORS
330
DA
102
}
330
DA
100
AcDbXrecord
280
     1
102
MATERIAL
148
0.0
149
0.0
149
0.0
 93
        0
 94
      127
282
     0
 72
     1
 77
     1
171
     1
175
     1
179
     1
273
     0
  0
XRECORD
  5
BF
102
{ACAD_REACTORS
330
BE
102
}
330
BE
100
AcDbXrecord
280
     1
102
RTVSPropertyOp0
 70
     1
102
RTVSPropertyOp1
 70
     1
102
RTVSPropertyOp2
 70
     1
102
RTVSPropertyOp3
 70
     1
102
RTVSPropertyOp4
 70
     1
102
RTVSPropertyOp5
 70
     1
102
RTVSPropertyOp6
 70
     1
102
RTVSPropertyOp7
 70
     1
102
RTVSPropertyOp8
 70
     1
102
RTVSPropertyOp9
 70
     1
102
RTVSPropertyOp10
 70
     1
102
RTVSPropertyOp11
 70
     1
102
RTVSPropertyOp12
 70
     1
102
RTVSPropertyOp13
 70
     1
102
RTVSPropertyOp14
 70
     1
102
RTVSPropertyOp15
 70
     1
102
RTVSPropertyOp16
 70
     1
102
RTVSPropertyOp17
 70
     1
102
RTVSPropertyOp18
 70
     1
102
RTVSPropertyOp19
 70
     1
102
RTVSPropertyOp20
 70
     1
102
RTVSPropertyOp21
 70
     1
102
RTVSPropertyOp22
 70
     1
102
RTVSPropertyOp23
 70
     1
102
RTVSPropertyOp24
 70
     1
102
RTVSPropertyOp25
 70
     1
102
RTVSPropertyOp26
 70
     1
102
RTVSPropertyOp27
 70
     1
  0
XRECORD
  5
C3
102
{ACAD_REACTORS
330
C2
102
}
330
C2
100
AcDbXrecord
280
     1
102
RTVSPropertyOp0
 70
     1
102
RTVSPropertyOp1
 70
     1
102
RTVSPropertyOp2
 70
     1
102
RTVSPropertyOp3
 70
     1
102
RTVSPropertyOp4
 70
     1
102
RTVSPropertyOp5
 70
     1
102
RTVSPropertyOp6
 70
     1
102
RTVSPropertyOp7
 70
     1
102
RTVSPropertyOp8
 70
     1
102
RTVSPropertyOp9
 70
     1
102
RTVSPropertyOp10
 70
     1
102
RTVSPropertyOp11
 70
     1
102
RTVSPropertyOp12
 70
     1
102
RTVSPropertyOp13
 70
     1
102
RTVSPropertyOp14
 70
     1
102
RTVSPropertyOp15
 70
     1
102
RTVSPropertyOp16
 70
     1
102
RTVSPropertyOp17
 70
     1
102
RTVSPropertyOp18
 70
     1
102
RTVSPropertyOp19
 70
     1
102
RTVSPropertyOp20
 70
     1
102
RTVSPropertyOp21
 70
     1
102
RTVSPropertyOp22
 70
     1
102
RTVSPropertyOp23
 70
     1
102
RTVSPropertyOp24
 70
     1
102
RTVSPropertyOp25
 70
     1
102
RTVSPropertyOp26
 70
     1
102
RTVSPropertyOp27
 70
     1
  0
XRECORD
  5
C1
102
{ACAD_REACTORS
330
C0
102
}
330
C0
100
AcDbXrecord
280
     1
102
RTVSPropertyOp0
 70
     1
102
RTVSPropertyOp1
 70
     1
102
RTVSPropertyOp2
 70
     1
102
RTVSPropertyOp3
 70
     1
102
RTVSPropertyOp4
 70
     1
102
RTVSPropertyOp5
 70
     1
102
RTVSPropertyOp6
 70
     1
102
RTVSPropertyOp7
 70
     1
102
RTVSPropertyOp8
 70
     1
102
RTVSPropertyOp9
 70
     1
102
RTVSPropertyOp10
 70
     1
102
RTVSPropertyOp11
 70
     1
102
RTVSPropertyOp12
 70
     1
102
RTVSPropertyOp13
 70
     1
102
RTVSPropertyOp14
 70
     1
102
RTVSPropertyOp15
 70
     1
102
RTVSPropertyOp16
 70
     1
102
RTVSPropertyOp17
 70
     1
102
RTVSPropertyOp18
 70
     1
102
RTVSPropertyOp19
 70
     1
102
RTVSPropertyOp20
 70
     1
102
RTVSPropertyOp21
 70
     1
102
RTVSPropertyOp22
 70
     1
102
RTVSPropertyOp23
 70
     1
102
RTVSPropertyOp24
 70
     1
102
RTVSPropertyOp25
 70
     1
102
RTVSPropertyOp26
 70
     1
102
RTVSPropertyOp27
 70
     1
  0
XRECORD
  5
C5
102
{ACAD_REACTORS
330
C4
102
}
330
C4
100
AcDbXrecord
280
     1
102
RTVSPropertyOp0
 70
     1
102
RTVSPropertyOp1
 70
     1
102
RTVSPropertyOp2
 70
     1
102
RTVSPropertyOp3
 70
     1
102
RTVSPropertyOp4
 70
     1
102
RTVSPropertyOp5
 70
     1
102
RTVSPropertyOp6
 70
     1
102
RTVSPropertyOp7
 70
     1
102
RTVSPropertyOp8
 70
     1
102
RTVSPropertyOp9
 70
     1
102
RTVSPropertyOp10
 70
     1
102
RTVSPropertyOp11
 70
     1
102
RTVSPropertyOp12
 70
     1
102
RTVSPropertyOp13
 70
     1
102
RTVSPropertyOp14
 70
     1
102
RTVSPropertyOp15
 70
     1
102
RTVSPropertyOp16
 70
     1
102
RTVSPropertyOp17
 70
     1
102
RTVSPropertyOp18
 70
     1
102
RTVSPropertyOp19
 70
     1
102
RTVSPropertyOp20
 70
     1
102
RTVSPropertyOp21
 70
     1
102
RTVSPropertyOp22
 70
     1
102
RTVSPropertyOp23
 70
     1
102
RTVSPropertyOp24
 70
     1
102
RTVSPropertyOp25
 70
     1
102
RTVSPropertyOp26
 70
     1
102
RTVSPropertyOp27
 70
     1
  0
XRECORD
  5
CD
102
{ACAD_REACTORS
330
CC
102
}
330
CC
100
AcDbXrecord
280
     1
102
RTVSPropertyOp0
 70
     1
102
RTVSPropertyOp1
 70
     1
102
RTVSPropertyOp2
 70
     1
102
RTVSPropertyOp3
 70
     1
102
RTVSPropertyOp4
 70
     1
102
RTVSPropertyOp5
 70
     1
102
RTVSPropertyOp6
 70
     1
102
RTVSPropertyOp7
 70
     1
102
RTVSPropertyOp8
 70
     1
102
RTVSPropertyOp9
 70
     1
102
RTVSPropertyOp10
 70
     1
102
RTVSPropertyOp11
 70
     1
102
RTVSPropertyOp12
 70
     1
102
RTVSPropertyOp13
 70
     1
102
RTVSPropertyOp14
 70
     1
102
RTVSPropertyOp15
 70
     1
102
RTVSPropertyOp16
 70
     1
102
RTVSPropertyOp17
 70
     1
102
RTVSPropertyOp18
 70
     1
102
RTVSPropertyOp19
 70
     1
102
RTVSPropertyOp20
 70
     1
102
RTVSPropertyOp21
 70
     1
102
RTVSPropertyOp22
 70
     1
102
RTVSPropertyOp23
 70
     1
102
RTVSPropertyOp24
 70
     1
102
RTVSPropertyOp25
 70
     1
102
RTVSPropertyOp26
 70
     1
102
RTVSPropertyOp27
 70
     1
  0
XRECORD
  5
D5
102
{ACAD_REACTORS
330
D4
102
}
330
D4
100
AcDbXrecord
280
     1
102
RTVSPropertyOp0
 70
     1
102
RTVSPropertyOp1
 70
     1
102
RTVSPropertyOp2
 70
     1
102
RTVSPropertyOp3
 70
     1
102
RTVSPropertyOp4
 70
     1
102
RTVSPropertyOp5
 70
     1
102
RTVSPropertyOp6
 70
     1
102
RTVSPropertyOp7
 70
     1
102
RTVSPropertyOp8
 70
     1
102
RTVSPropertyOp9
 70
     1
102
RTVSPropertyOp10
 70
     1
102
RTVSPropertyOp11
 70
     1
102
RTVSPropertyOp12
 70
     1
102
RTVSPropertyOp13
 70
     1
102
RTVSPropertyOp14
 70
     1
102
RTVSPropertyOp15
 70
     1
102
RTVSPropertyOp16
 70
     1
102
RTVSPropertyOp17
 70
     1
102
RTVSPropertyOp18
 70
     1
102
RTVSPropertyOp19
 70
     1
102
RTVSPropertyOp20
 70
     1
102
RTVSPropertyOp21
 70
     1
102
RTVSPropertyOp22
 70
     1
102
RTVSPropertyOp23
 70
     1
102
RTVSPropertyOp24
 70
     1
102
RTVSPropertyOp25
 70
     1
102
RTVSPropertyOp26
 70
     1
102
RTVSPropertyOp27
 70
     1
  0
XRECORD
  5
C9
102
{ACAD_REACTORS
330
C8
102
}
330
C8
100
AcDbXrecord
280
     1
102
RTVSPropertyOp0
 70
     1
102
RTVSPropertyOp1
 70
     1
102
RTVSPropertyOp2
 70
     1
102
RTVSPropertyOp3
 70
     1
102
RTVSPropertyOp4
 70
     1
102
RTVSPropertyOp5
 70
     1
102
RTVSPropertyOp6
 70
     1
102
RTVSPropertyOp7
 70
     1
102
RTVSPropertyOp8
 70
     1
102
RTVSPropertyOp9
 70
     1
102
RTVSPropertyOp10
 70
     1
102
RTVSPropertyOp11
 70
     1
102
RTVSPropertyOp12
 70
     1
102
RTVSPropertyOp13
 70
     1
102
RTVSPropertyOp14
 70
     1
102
RTVSPropertyOp15
 70
     1
102
RTVSPropertyOp16
 70
     1
102
RTVSPropertyOp17
 70
     1
102
RTVSPropertyOp18
 70
     1
102
RTVSPropertyOp19
 70
     1
102
RTVSPropertyOp20
 70
     1
102
RTVSPropertyOp21
 70
     1
102
RTVSPropertyOp22
 70
     1
102
RTVSPropertyOp23
 70
     1
102
RTVSPropertyOp24
 70
     1
102
RTVSPropertyOp25
 70
     1
102
RTVSPropertyOp26
 70
     1
102
RTVSPropertyOp27
 70
     1
  0
XRECORD
  5
CB
102
{ACAD_REACTORS
330
CA
102
}
330
CA
100
AcDbXrecord
280
     1
102
RTVSPropertyOp0
 70
     1
102
RTVSPropertyOp1
 70
     1
102
RTVSPropertyOp2
 70
     1
102
RTVSPropertyOp3
 70
     1
102
RTVSPropertyOp4
 70
     1
102
RTVSPropertyOp5
 70
     1
102
RTVSPropertyOp6
 70
     1
102
RTVSPropertyOp7
 70
     1
102
RTVSPropertyOp8
 70
     1
102
RTVSPropertyOp9
 70
     1
102
RTVSPropertyOp10
 70
     1
102
RTVSPropertyOp11
 70
     1
102
RTVSPropertyOp12
 70
     1
102
RTVSPropertyOp13
 70
     1
102
RTVSPropertyOp14
 70
     1
102
RTVSPropertyOp15
 70
     1
102
RTVSPropertyOp16
 70
     1
102
RTVSPropertyOp17
 70
     1
102
RTVSPropertyOp18
 70
     1
102
RTVSPropertyOp19
 70
     1
102
RTVSPropertyOp20
 70
     1
102
RTVSPropertyOp21
 70
     1
102
RTVSPropertyOp22
 70
     1
102
RTVSPropertyOp23
 70
     1
102
RTVSPropertyOp24
 70
     1
102
RTVSPropertyOp25
 70
     1
102
RTVSPropertyOp26
 70
     1
102
RTVSPropertyOp27
 70
     1
  0
XRECORD
  5
D3
102
{ACAD_REACTORS
330
D2
102
}
330
D2
100
AcDbXrecord
280
     1
102
RTVSPropertyOp0
 70
     1
102
RTVSPropertyOp1
 70
     1
102
RTVSPropertyOp2
 70
     1
102
RTVSPropertyOp3
 70
     1
102
RTVSPropertyOp4
 70
     1
102
RTVSPropertyOp5
 70
     1
102
RTVSPropertyOp6
 70
     1
102
RTVSPropertyOp7
 70
     1
102
RTVSPropertyOp8
 70
     1
102
RTVSPropertyOp9
 70
     1
102
RTVSPropertyOp10
 70
     1
102
RTVSPropertyOp11
 70
     1
102
RTVSPropertyOp12
 70
     1
102
RTVSPropertyOp13
 70
     1
102
RTVSPropertyOp14
 70
     1
102
RTVSPropertyOp15
 70
     1
102
RTVSPropertyOp16
 70
     1
102
RTVSPropertyOp17
 70
     1
102
RTVSPropertyOp18
 70
     1
102
RTVSPropertyOp19
 70
     1
102
RTVSPropertyOp20
 70
     1
102
RTVSPropertyOp21
 70
     1
102
RTVSPropertyOp22
 70
     1
102
RTVSPropertyOp23
 70
     1
102
RTVSPropertyOp24
 70
     1
102
RTVSPropertyOp25
 70
     1
102
RTVSPropertyOp26
 70
     1
102
RTVSPropertyOp27
 70
     1
  0
XRECORD
  5
B7
102
{ACAD_REACTORS
330
B6
102
}
330
B6
100
AcDbXrecord
280
     1
102
RTVSPropertyOp0
 70
     1
102
RTVSPropertyOp1
 70
     1
102
RTVSPropertyOp2
 70
     1
102
RTVSPropertyOp3
 70
     1
102
RTVSPropertyOp4
 70
     1
102
RTVSPropertyOp5
 70
     1
102
RTVSPropertyOp6
 70
     1
102
RTVSPropertyOp7
 70
     1
102
RTVSPropertyOp8
 70
     1
102
RTVSPropertyOp9
 70
     1
102
RTVSPropertyOp10
 70
     1
102
RTVSPropertyOp11
 70
     1
102
RTVSPropertyOp12
 70
     1
102
RTVSPropertyOp13
 70
     1
102
RTVSPropertyOp14
 70
     1
102
RTVSPropertyOp15
 70
     1
102
RTVSPropertyOp16
 70
     1
102
RTVSPropertyOp17
 70
     1
102
RTVSPropertyOp18
 70
     1
102
RTVSPropertyOp19
 70
     1
102
RTVSPropertyOp20
 70
     1
102
RTVSPropertyOp21
 70
     1
102
RTVSPropertyOp22
 70
     1
102
RTVSPropertyOp23
 70
     1
102
RTVSPropertyOp24
 70
     1
102
RTVSPropertyOp25
 70
     1
102
RTVSPropertyOp26
 70
     1
102
RTVSPropertyOp27
 70
     1
  0
XRECORD
  5
B9
102
{ACAD_REACTORS
330
B8
102
}
330
B8
100
AcDbXrecord
280
     1
102
RTVSPropertyOp0
 70
     1
102
RTVSPropertyOp1
 70
     1
102
RTVSPropertyOp2
 70
     1
102
RTVSPropertyOp3
 70
     1
102
RTVSPropertyOp4
 70
     1
102
RTVSPropertyOp5
 70
     1
102
RTVSPropertyOp6
 70
     1
102
RTVSPropertyOp7
 70
     1
102
RTVSPropertyOp8
 70
     1
102
RTVSPropertyOp9
 70
     1
102
RTVSPropertyOp10
 70
     1
102
RTVSPropertyOp11
 70
     1
102
RTVSPropertyOp12
 70
     1
102
RTVSPropertyOp13
 70
     1
102
RTVSPropertyOp14
 70
     1
102
RTVSPropertyOp15
 70
     1
102
RTVSPropertyOp16
 70
     1
102
RTVSPropertyOp17
 70
     1
102
RTVSPropertyOp18
 70
     1
102
RTVSPropertyOp19
 70
     1
102
RTVSPropertyOp20
 70
     1
102
RTVSPropertyOp21
 70
     1
102
RTVSPropertyOp22
 70
     1
102
RTVSPropertyOp23
 70
     1
102
RTVSPropertyOp24
 70
     1
102
RTVSPropertyOp25
 70
     1
102
RTVSPropertyOp26
 70
     1
102
RTVSPropertyOp27
 70
     1
  0
XRECORD
  5
BB
102
{ACAD_REACTORS
330
BA
102
}
330
BA
100
AcDbXrecord
280
     1
102
RTVSPropertyOp0
 70
     1
102
RTVSPropertyOp1
 70
     1
102
RTVSPropertyOp2
 70
     1
102
RTVSPropertyOp3
 70
     1
102
RTVSPropertyOp4
 70
     1
102
RTVSPropertyOp5
 70
     1
102
RTVSPropertyOp6
 70
     1
102
RTVSPropertyOp7
 70
     1
102
RTVSPropertyOp8
 70
     1
102
RTVSPropertyOp9
 70
     1
102
RTVSPropertyOp10
 70
     1
102
RTVSPropertyOp11
 70
     1
102
RTVSPropertyOp12
 70
     1
102
RTVSPropertyOp13
 70
     1
102
RTVSPropertyOp14
 70
     1
102
RTVSPropertyOp15
 70
     1
102
RTVSPropertyOp16
 70
     1
102
RTVSPropertyOp17
 70
     1
102
RTVSPropertyOp18
 70
     1
102
RTVSPropertyOp19
 70
     1
102
RTVSPropertyOp20
 70
     1
102
RTVSPropertyOp21
 70
     1
102
RTVSPropertyOp22
 70
     1
102
RTVSPropertyOp23
 70
     1
102
RTVSPropertyOp24
 70
     1
102
RTVSPropertyOp25
 70
     1
102
RTVSPropertyOp26
 70
     1
102
RTVSPropertyOp27
 70
     1
  0
XRECORD
  5
BD
102
{ACAD_REACTORS
330
BC
102
}
330
BC
100
AcDbXrecord
280
     1
102
RTVSPropertyOp0
 70
     1
102
RTVSPropertyOp1
 70
     1
102
RTVSPropertyOp2
 70
     1
102
RTVSPropertyOp3
 70
     1
102
RTVSPropertyOp4
 70
     1
102
RTVSPropertyOp5
 70
     1
102
RTVSPropertyOp6
 70
     1
102
RTVSPropertyOp7
 70
     1
102
RTVSPropertyOp8
 70
     1
102
RTVSPropertyOp9
 70
     1
102
RTVSPropertyOp10
 70
     1
102
RTVSPropertyOp11
 70
     1
102
RTVSPropertyOp12
 70
     1
102
RTVSPropertyOp13
 70
     1
102
RTVSPropertyOp14
 70
     1
102
RTVSPropertyOp15
 70
     1
102
RTVSPropertyOp16
 70
     1
102
RTVSPropertyOp17
 70
     1
102
RTVSPropertyOp18
 70
     1
102
RTVSPropertyOp19
 70
     1
102
RTVSPropertyOp20
 70
     1
102
RTVSPropertyOp21
 70
     1
102
RTVSPropertyOp22
 70
     1
102
RTVSPropertyOp23
 70
     1
102
RTVSPropertyOp24
 70
     1
102
RTVSPropertyOp25
 70
     1
102
RTVSPropertyOp26
 70
     1
102
RTVSPropertyOp27
 70
     1
  0
XRECORD
  5
D1
102
{ACAD_REACTORS
330
D0
102
}
330
D0
100
AcDbXrecord
280
     1
102
RTVSPropertyOp0
 70
     1
102
RTVSPropertyOp1
 70
     1
102
RTVSPropertyOp2
 70
     1
102
RTVSPropertyOp3
 70
     1
102
RTVSPropertyOp4
 70
     1
102
RTVSPropertyOp5
 70
     1
102
RTVSPropertyOp6
 70
     1
102
RTVSPropertyOp7
 70
     1
102
RTVSPropertyOp8
 70
     1
102
RTVSPropertyOp9
 70
     1
102
RTVSPropertyOp10
 70
     1
102
RTVSPropertyOp11
 70
     1
102
RTVSPropertyOp12
 70
     1
102
RTVSPropertyOp13
 70
     1
102
RTVSPropertyOp14
 70
     1
102
RTVSPropertyOp15
 70
     1
102
RTVSPropertyOp16
 70
     1
102
RTVSPropertyOp17
 70
     1
102
RTVSPropertyOp18
 70
     1
102
RTVSPropertyOp19
 70
     1
102
RTVSPropertyOp20
 70
     1
102
RTVSPropertyOp21
 70
     1
102
RTVSPropertyOp22
 70
     1
102
RTVSPropertyOp23
 70
     1
102
RTVSPropertyOp24
 70
     1
102
RTVSPropertyOp25
 70
     1
102
RTVSPropertyOp26
 70
     1
102
RTVSPropertyOp27
 70
     1
  0
XRECORD
  5
C7
102
{ACAD_REACTORS
330
C6
102
}
330
C6
100
AcDbXrecord
280
     1
102
RTVSPropertyOp0
 70
     1
102
RTVSPropertyOp1
 70
     1
102
RTVSPropertyOp2
 70
     1
102
RTVSPropertyOp3
 70
     1
102
RTVSPropertyOp4
 70
     1
102
RTVSPropertyOp5
 70
     1
102
RTVSPropertyOp6
 70
     1
102
RTVSPropertyOp7
 70
     1
102
RTVSPropertyOp8
 70
     1
102
RTVSPropertyOp9
 70
     1
102
RTVSPropertyOp10
 70
     1
102
RTVSPropertyOp11
 70
     1
102
RTVSPropertyOp12
 70
     1
102
RTVSPropertyOp13
 70
     1
102
RTVSPropertyOp14
 70
     1
102
RTVSPropertyOp15
 70
     1
102
RTVSPropertyOp16
 70
     1
102
RTVSPropertyOp17
 70
     1
102
RTVSPropertyOp18
 70
     1
102
RTVSPropertyOp19
 70
     1
102
RTVSPropertyOp20
 70
     1
102
RTVSPropertyOp21
 70
     1
102
RTVSPropertyOp22
 70
     1
102
RTVSPropertyOp23
 70
     1
102
RTVSPropertyOp24
 70
     1
102
RTVSPropertyOp25
 70
     1
102
RTVSPropertyOp26
 70
     1
102
RTVSPropertyOp27
 70
     1
  0
XRECORD
  5
CF
102
{ACAD_REACTORS
330
CE
102
}
330
CE
100
AcDbXrecord
280
     1
102
RTVSPropertyOp0
 70
     1
102
RTVSPropertyOp1
 70
     1
102
RTVSPropertyOp2
 70
     1
102
RTVSPropertyOp3
 70
     1
102
RTVSPropertyOp4
 70
     1
102
RTVSPropertyOp5
 70
     1
102
RTVSPropertyOp6
 70
     1
102
RTVSPropertyOp7
 70
     1
102
RTVSPropertyOp8
 70
     1
102
RTVSPropertyOp9
 70
     1
102
RTVSPropertyOp10
 70
     1
102
RTVSPropertyOp11
 70
     1
102
RTVSPropertyOp12
 70
     1
102
RTVSPropertyOp13
 70
     1
102
RTVSPropertyOp14
 70
     1
102
RTVSPropertyOp15
 70
     1
102
RTVSPropertyOp16
 70
     1
102
RTVSPropertyOp17
 70
     1
102
RTVSPropertyOp18
 70
     1
102
RTVSPropertyOp19
 70
     1
102
RTVSPropertyOp20
 70
     1
102
RTVSPropertyOp21
 70
     1
102
RTVSPropertyOp22
 70
     1
102
RTVSPropertyOp23
 70
     1
102
RTVSPropertyOp24
 70
     1
102
RTVSPropertyOp25
 70
     1
102
RTVSPropertyOp26
 70
     1
102
RTVSPropertyOp27
 70
     1
  0
ENDSEC
  0
EOF
