  0
SECTION
  2
HEADER
  9
$ACADVER
  1
AC1014
  9
$ACADMAINTVER
 70
     9
  9
$DWGCODEPAGE
  3
ANSI_1250
  9
$INSBASE
 10
0.0
 20
0.0
 30
0.0
  9
$EXTMIN
 10
-18.3375
 20
-27.7291
 30
0.0
  9
$EXTMAX
 10
17.5458
 20
27.0767
 30
0.0
  9
$LIMMIN
 10
0.0
 20
0.0
  9
$LIMMAX
 10
12.0
 20
9.0
  9
$ORTHOMODE
 70
     0
  9
$REGENMODE
 70
     1
  9
$FILLMODE
 70
     1
  9
$QTEXTMODE
 70
     0
  9
$MIRRTEXT
 70
     1
  9
$DRAGMODE
 70
     2
  9
$LTSCALE
 40
1.0
  9
$OSMODE
 70
    37
  9
$ATTMODE
 70
     1
  9
$TEXTSIZE
 40
0.2
  9
$TRACEWID
 40
0.05
  9
$TEXTSTYLE
  7
STANDARD
  9
$CLAYER
  8
0
  9
$CELTYPE
  6
BYLAYER
  9
$CECOLOR
 62
   256
  9
$CELTSCALE
 40
1.0
  9
$DELOBJ
 70
     1
  9
$DISPSILH
 70
     0
  9
$DIMSCALE
 40
1.0
  9
$DIMASZ
 40
0.18
  9
$DIMEXO
 40
0.0625
  9
$DIMDLI
 40
0.38
  9
$DIMRND
 40
0.0
  9
$DIMDLE
 40
0.0
  9
$DIMEXE
 40
0.18
  9
$DIMTP
 40
0.0
  9
$DIMTM
 40
0.0
  9
$DIMTXT
 40
0.18
  9
$DIMCEN
 40
0.09
  9
$DIMTSZ
 40
0.0
  9
$DIMTOL
 70
     0
  9
$DIMLIM
 70
     0
  9
$DIMTIH
 70
     1
  9
$DIMTOH
 70
     1
  9
$DIMSE1
 70
     0
  9
$DIMSE2
 70
     0
  9
$DIMTAD
 70
     0
  9
$DIMZIN
 70
     0
  9
$DIMBLK
  1

  9
$DIMASO
 70
     1
  9
$DIMSHO
 70
     1
  9
$DIMPOST
  1

  9
$DIMAPOST
  1

  9
$DIMALT
 70
     0
  9
$DIMALTD
 70
     2
  9
$DIMALTF
 40
25.4
  9
$DIMLFAC
 40
1.0
  9
$DIMTOFL
 70
     0
  9
$DIMTVP
 40
0.0
  9
$DIMTIX
 70
     0
  9
$DIMSOXD
 70
     0
  9
$DIMSAH
 70
     0
  9
$DIMBLK1
  1

  9
$DIMBLK2
  1

  9
$DIMSTYLE
  2
STANDARD
  9
$DIMCLRD
 70
     0
  9
$DIMCLRE
 70
     0
  9
$DIMCLRT
 70
     0
  9
$DIMTFAC
 40
1.0
  9
$DIMGAP
 40
0.09
  9
$DIMJUST
 70
     0
  9
$DIMSD1
 70
     0
  9
$DIMSD2
 70
     0
  9
$DIMTOLJ
 70
     1
  9
$DIMTZIN
 70
     0
  9
$DIMALTZ
 70
     0
  9
$DIMALTTZ
 70
     0
  9
$DIMFIT
 70
     3
  9
$DIMUPT
 70
     0
  9
$DIMUNIT
 70
     2
  9
$DIMDEC
 70
     4
  9
$DIMTDEC
 70
     4
  9
$DIMALTU
 70
     2
  9
$DIMALTTD
 70
     2
  9
$DIMTXSTY
  7
STANDARD
  9
$DIMAUNIT
 70
     0
  9
$LUNITS
 70
     2
  9
$LUPREC
 70
     4
  9
$SKETCHINC
 40
0.1
  9
$FILLETRAD
 40
0.5
  9
$AUNITS
 70
     0
  9
$AUPREC
 70
     0
  9
$MENU
  1
.
  9
$ELEVATION
 40
0.0
  9
$PELEVATION
 40
0.0
  9
$THICKNESS
 40
0.0
  9
$LIMCHECK
 70
     0
  9
$CHAMFERA
 40
0.5
  9
$CHAMFERB
 40
0.5
  9
$CHAMFERC
 40
1.0
  9
$CHAMFERD
 40
0.0
  9
$SKPOLY
 70
     0
  9
$TDCREATE
 40
2456268.577695671
  9
$TDUPDATE
 40
2456268.577695683
  9
$TDINDWG
 40
0.0000000116
  9
$TDUSRTIMER
 40
0.0000000116
  9
$USRTIMER
 70
     1
  9
$ANGBASE
 50
0.0
  9
$ANGDIR
 70
     0
  9
$PDMODE
 70
     0
  9
$PDSIZE
 40
0.0
  9
$PLINEWID
 40
0.0
  9
$COORDS
 70
     1
  9
$SPLFRAME
 70
     0
  9
$SPLINETYPE
 70
     6
  9
$SPLINESEGS
 70
     8
  9
$ATTDIA
 70
     0
  9
$ATTREQ
 70
     1
  9
$HANDLING
 70
     1
  9
$HANDSEED
  5
1BE
  9
$SURFTAB1
 70
     6
  9
$SURFTAB2
 70
     6
  9
$SURFTYPE
 70
     6
  9
$SURFU
 70
     6
  9
$SURFV
 70
     6
  9
$UCSNAME
  2

  9
$UCSORG
 10
0.0
 20
0.0
 30
0.0
  9
$UCSXDIR
 10
1.0
 20
0.0
 30
0.0
  9
$UCSYDIR
 10
0.0
 20
1.0
 30
0.0
  9
$PUCSNAME
  2

  9
$PUCSORG
 10
0.0
 20
0.0
 30
0.0
  9
$PUCSXDIR
 10
1.0
 20
0.0
 30
0.0
  9
$PUCSYDIR
 10
0.0
 20
1.0
 30
0.0
  9
$USERI1
 70
     0
  9
$USERI2
 70
     0
  9
$USERI3
 70
     0
  9
$USERI4
 70
     0
  9
$USERI5
 70
     0
  9
$USERR1
 40
0.0
  9
$USERR2
 40
0.0
  9
$USERR3
 40
0.0
  9
$USERR4
 40
0.0
  9
$USERR5
 40
0.0
  9
$WORLDVIEW
 70
     1
  9
$SHADEDGE
 70
     3
  9
$SHADEDIF
 70
    70
  9
$TILEMODE
 70
     1
  9
$MAXACTVP
 70
    64
  9
$PINSBASE
 10
0.0
 20
0.0
 30
0.0
  9
$PLIMCHECK
 70
     0
  9
$PEXTMIN
 10
1.000000000000000E+20
 20
1.000000000000000E+20
 30
1.000000000000000E+20
  9
$PEXTMAX
 10
-1.000000000000000E+20
 20
-1.000000000000000E+20
 30
-1.000000000000000E+20
  9
$PLIMMIN
 10
0.0
 20
0.0
  9
$PLIMMAX
 10
12.0
 20
9.0
  9
$UNITMODE
 70
     0
  9
$VISRETAIN
 70
     1
  9
$PLINEGEN
 70
     0
  9
$PSLTSCALE
 70
     1
  9
$TREEDEPTH
 70
  3020
  9
$PICKSTYLE
 70
     1
  9
$CMLSTYLE
  2
STANDARD
  9
$CMLJUST
 70
     0
  9
$CMLSCALE
 40
1.0
  9
$PROXYGRAPHICS
 70
     1
  9
$MEASUREMENT
 70
     0
  0
ENDSEC
  0
SECTION
  2
CLASSES
  0
CLASS
  1
ACDBDICTIONARYWDFLT
  2
AcDbDictionaryWithDefault
  3
ObjectDBX Classes
 90
        0
280
     0
281
     0
  0
CLASS
  1
VISUALSTYLE
  2
AcDbVisualStyle
  3
ObjectDBX Classes
 90
     4095
280
     0
281
     0
  0
CLASS
  1
MATERIAL
  2
AcDbMaterial
  3
ObjectDBX Classes
 90
     1153
280
     0
281
     0
  0
CLASS
  1
DICTIONARYVAR
  2
AcDbDictionaryVar
  3
ObjectDBX Classes
 90
        0
280
     0
281
     0
  0
CLASS
  1
XRECORD
  2
AcDbXrecord
  3
AutoCAD 2000
 90
        0
280
     0
281
     0
  0
CLASS
  1
LWPOLYLINE
  2
AcDbPolyline
  3
AutoCAD 2000
 90
        0
280
     0
281
     1
  0
CLASS
  1
HATCH
  2
AcDbHatch
  3
AutoCAD 2000
 90
        0
280
     0
281
     1
  0
CLASS
  1
ACDBPLACEHOLDER
  2
AcDbPlaceHolder
  3
ObjectDBX Classes
 90
        0
280
     0
281
     0
  0
CLASS
  1
LAYOUT
  2
AcDbLayout
  3
ObjectDBX Classes
 90
        0
280
     0
281
     0
  0
ENDSEC
  0
SECTION
  2
TABLES
  0
TABLE
  2
VPORT
  5
8
330
0
100
AcDbSymbolTable
 70
     1
  0
VPORT
  5
29
330
8
100
AcDbSymbolTableRecord
100
AcDbViewportTableRecord
  2
*ACTIVE
 70
     0
 10
0.0
 20
0.0
 11
1.0
 21
1.0
 12
10.42990654205607
 22
4.5
 13
0.0
 23
0.0
 14
0.5
 24
0.5
 15
0.5
 25
0.5
 16
0.0
 26
0.0
 36
1.0
 17
0.0
 27
0.0
 37
0.0
 40
9.0
 41
1.972972972850329
 42
50.0
 43
0.0
 44
0.0
 50
0.0
 51
0.0
 71
     0
 72
   100
 73
     1
 74
     3
 75
     0
 76
     0
 77
     0
 78
     0
  0
ENDTAB
  0
TABLE
  2
LTYPE
  5
5
330
0
100
AcDbSymbolTable
 70
     6
  0
LTYPE
  5
14
330
5
100
AcDbSymbolTableRecord
100
AcDbLinetypeTableRecord
  2
BYBLOCK
 70
     0
  3

 72
    65
 73
     0
 40
0.0
  0
LTYPE
  5
15
330
5
100
AcDbSymbolTableRecord
100
AcDbLinetypeTableRecord
  2
BYLAYER
 70
     0
  3

 72
    65
 73
     0
 40
0.0
  0
LTYPE
  5
16
330
5
100
AcDbSymbolTableRecord
100
AcDbLinetypeTableRecord
  2
CONTINUOUS
 70
     0
  3
Solid line
 72
    65
 73
     0
 40
0.0
  0
LTYPE
  5
18A
330
5
100
AcDbSymbolTableRecord
100
AcDbLinetypeTableRecord
  2
NEW_LINE1
 70
     0
  3

 72
    65
 73
     4
 40
1.2
 49
0.5
 74
     4
 75
     0
340
0
 46
1.0
 50
0.0
 44
0.0
 45
0.0
 49
-0.3
 74
     4
 75
     0
340
0
 46
1.0
 50
0.0
 44
0.0
 45
0.0
 49
0.1
 74
     4
 75
     0
340
0
 46
1.0
 50
0.0
 44
0.0
 45
0.0
 49
-0.3
 74
     4
 75
     0
340
0
 46
1.0
 50
0.0
 44
0.0
 45
0.0
  0
LTYPE
  5
18C
330
5
100
AcDbSymbolTableRecord
100
AcDbLinetypeTableRecord
  2
NEW_LINE2
 70
     0
  3

 72
    65
 73
     4
 40
1.2
 49
0.5
 74
     4
 75
     0
340
0
 46
1.0
 50
0.0
 44
0.0
 45
0.0
 49
-0.3
 74
     4
 75
     0
340
0
 46
1.0
 50
0.0
 44
0.0
 45
0.0
 49
0.1
 74
     4
 75
     0
340
0
 46
1.0
 50
0.0
 44
0.0
 45
0.0
 49
-0.3
 74
     4
 75
     0
340
0
 46
1.0
 50
0.0
 44
0.0
 45
0.0
  0
LTYPE
  5
18E
330
5
100
AcDbSymbolTableRecord
100
AcDbLinetypeTableRecord
  2
NEW_LINE3
 70
     0
  3

 72
    65
 73
     4
 40
1.2
 49
0.5
 74
     4
 75
     0
340
0
 46
1.0
 50
0.0
 44
0.0
 45
0.0
 49
-0.3
 74
     4
 75
     0
340
0
 46
1.0
 50
0.0
 44
0.0
 45
0.0
 49
0.1
 74
     4
 75
     0
340
0
 46
1.0
 50
0.0
 44
0.0
 45
0.0
 49
-0.3
 74
     4
 75
     0
340
0
 46
1.0
 50
0.0
 44
0.0
 45
0.0
  0
LTYPE
  5
190
330
5
100
AcDbSymbolTableRecord
100
AcDbLinetypeTableRecord
  2
NEW_LINE4
 70
     0
  3

 72
    65
 73
     4
 40
1.2
 49
0.5
 74
     4
 75
     0
340
0
 46
1.0
 50
0.0
 44
0.0
 45
0.0
 49
-0.3
 74
     4
 75
     0
340
0
 46
1.0
 50
0.0
 44
0.0
 45
0.0
 49
0.1
 74
     4
 75
     0
340
0
 46
1.0
 50
0.0
 44
0.0
 45
0.0
 49
-0.3
 74
     4
 75
     0
340
0
 46
1.0
 50
0.0
 44
0.0
 45
0.0
  0
LTYPE
  5
192
330
5
100
AcDbSymbolTableRecord
100
AcDbLinetypeTableRecord
  2
NEW_LINE5
 70
     0
  3

 72
    65
 73
     4
 40
1.2
 49
0.5
 74
     4
 75
     0
340
0
 46
1.0
 50
0.0
 44
0.0
 45
0.0
 49
-0.3
 74
     4
 75
     0
340
0
 46
1.0
 50
0.0
 44
0.0
 45
0.0
 49
0.1
 74
     4
 75
     0
340
0
 46
1.0
 50
0.0
 44
0.0
 45
0.0
 49
-0.3
 74
     4
 75
     0
340
0
 46
1.0
 50
0.0
 44
0.0
 45
0.0
  0
ENDTAB
  0
TABLE
  2
LAYER
  5
2
330
0
100
AcDbSymbolTable
 70
     2
  0
LAYER
  5
10
330
2
100
AcDbSymbolTableRecord
100
AcDbLayerTableRecord
  2
0
 70
     0
 62
     7
  6
CONTINUOUS
  0
LAYER
  5
40
330
2
100
AcDbSymbolTableRecord
100
AcDbLayerTableRecord
  2
DEFAULT_1
 70
     0
 62
     7
  6
CONTINUOUS
  0
ENDTAB
  0
TABLE
  2
STYLE
  5
3
330
0
100
AcDbSymbolTable
 70
     1
  0
STYLE
  5
11
330
3
100
AcDbSymbolTableRecord
100
AcDbTextStyleTableRecord
  2
STANDARD
 70
     0
 40
0.0
 41
1.0
 50
0.0
 71
     0
 42
0.2
  3
txt
  4

  0
ENDTAB
  0
TABLE
  2
VIEW
  5
6
330
0
100
AcDbSymbolTable
 70
     0
  0
ENDTAB
  0
TABLE
  2
UCS
  5
7
330
0
100
AcDbSymbolTable
 70
     0
  0
ENDTAB
  0
TABLE
  2
APPID
  5
9
330
0
100
AcDbSymbolTable
 70
     2
  0
APPID
  5
12
330
9
100
AcDbSymbolTableRecord
100
AcDbRegAppTableRecord
  2
ACAD
 70
     0
  0
APPID
  5
3F
330
9
100
AcDbSymbolTableRecord
100
AcDbRegAppTableRecord
  2
ODA
 70
     0
  0
ENDTAB
  0
TABLE
  2
DIMSTYLE
  5
A
330
0
100
AcDbSymbolTable
 70
     1
  0
DIMSTYLE
105
27
330
A
100
AcDbSymbolTableRecord
100
AcDbDimStyleTableRecord
  2
STANDARD
 70
     0
  3

  4

  5

  6

  7

 40
1.0
 41
0.18
 42
0.0625
 43
0.38
 44
0.18
 45
0.0
 46
0.0
 47
0.0
 48
0.0
140
0.18
141
0.09
142
0.0
143
25.4
144
1.0
145
0.0
146
1.0
147
0.09
 71
     0
 72
     0
 73
     1
 74
     1
 75
     0
 76
     0
 77
     0
 78
     0
170
     0
171
     2
172
     0
173
     0
174
     0
175
     0
176
     0
177
     0
178
     0
270
     2
271
     4
272
     4
273
     2
274
     2
340
11
275
     0
280
     0
281
     0
282
     0
283
     1
284
     0
285
     0
286
     0
287
     3
288
     0
  0
ENDTAB
  0
TABLE
  2
BLOCK_RECORD
  5
1
330
0
100
AcDbSymbolTable
 70
     1
  0
BLOCK_RECORD
  5
1F
330
1
100
AcDbSymbolTableRecord
100
AcDbBlockTableRecord
  2
*MODEL_SPACE
  0
BLOCK_RECORD
  5
1B
330
1
100
AcDbSymbolTableRecord
100
AcDbBlockTableRecord
  2
*PAPER_SPACE
  0
ENDTAB
  0
ENDSEC
  0
SECTION
  2
BLOCKS
  0
BLOCK
  5
20
330
1F
100
AcDbEntity
  8
0
100
AcDbBlockBegin
  2
*MODEL_SPACE
 70
     0
 10
0.0
 20
0.0
 30
0.0
  3
*MODEL_SPACE
  1

  0
ENDBLK
  5
21
330
1F
100
AcDbEntity
  8
0
100
AcDbBlockEnd
  0
BLOCK
  5
1C
330
1B
100
AcDbEntity
 67
     1
  8
0
100
AcDbBlockBegin
  2
*PAPER_SPACE
 70
     0
 10
0.0
 20
0.0
 30
0.0
  3
*PAPER_SPACE
  1

  0
ENDBLK
  5
1D
330
1B
100
AcDbEntity
 67
     1
  8
0
100
AcDbBlockEnd
  0
ENDSEC
  0
SECTION
  2
ENTITIES
  0
SPLINE
  5
41
330
1F
100
AcDbEntity
  8
DEFAULT_1
 62
   250
100
AcDbSpline
210
0.0
220
0.0
230
1.0
 70
    11
 71
     3
 72
    84
 73
    80
 74
     0
 42
0.0000000001
 43
0.0000000001
 40
0.0
 40
0.0
 40
0.0
 40
0.0
 40
0.0476190476190476
 40
0.0476190476190476
 40
0.0476190476190476
 40
0.0476190476190476
 40
0.0952380952380952
 40
0.0952380952380952
 40
0.0952380952380952
 40
0.0952380952380952
 40
0.1428571428571428
 40
0.1428571428571428
 40
0.1428571428571428
 40
0.1428571428571428
 40
0.1904761904761905
 40
0.1904761904761905
 40
0.1904761904761905
 40
0.1904761904761905
 40
0.2380952380952381
 40
0.2380952380952381
 40
0.2380952380952381
 40
0.2380952380952381
 40
0.2857142857142857
 40
0.2857142857142857
 40
0.2857142857142857
 40
0.2857142857142857
 40
0.3333333333333333
 40
0.3333333333333333
 40
0.3333333333333333
 40
0.3333333333333333
 40
0.3809523809523809
 40
0.3809523809523809
 40
0.3809523809523809
 40
0.3809523809523809
 40
0.4285714285714285
 40
0.4285714285714285
 40
0.4285714285714285
 40
0.4285714285714285
 40
0.4761904761904762
 40
0.4761904761904762
 40
0.4761904761904762
 40
0.4761904761904762
 40
0.5238095238095238
 40
0.5238095238095238
 40
0.5238095238095238
 40
0.5238095238095238
 40
0.5714285714285714
 40
0.5714285714285714
 40
0.5714285714285714
 40
0.5714285714285714
 40
0.6190476190476191
 40
0.6190476190476191
 40
0.6190476190476191
 40
0.6190476190476191
 40
0.6666666666666666
 40
0.6666666666666666
 40
0.6666666666666666
 40
0.6666666666666666
 40
0.7142857142857143
 40
0.7142857142857143
 40
0.7142857142857143
 40
0.7142857142857143
 40
0.7619047619047619
 40
0.7619047619047619
 40
0.7619047619047619
 40
0.7619047619047619
 40
0.8095238095238095
 40
0.8095238095238095
 40
0.8095238095238095
 40
0.8095238095238095
 40
0.8571428571428571
 40
0.8571428571428571
 40
0.8571428571428571
 40
0.8571428571428571
 40
0.9047619047619048
 40
0.9047619047619048
 40
0.9047619047619048
 40
0.9047619047619048
 40
1.0
 40
1.0
 40
1.0
 40
1.0
 10
-0.2289
 20
26.8176
 30
0.0
 10
-0.2289
 20
26.8176
 30
0.0
 10
0.0025
 20
27.0767
 30
0.0
 10
0.0025
 20
27.0767
 30
0.0
 10
0.0025
 20
27.0767
 30
0.0
 10
0.0025
 20
27.0767
 30
0.0
 10
0.1389
 20
26.961
 30
0.0
 10
0.1389
 20
26.961
 30
0.0
 10
0.1389
 20
26.961
 30
0.0
 10
0.1389
 20
26.961
 30
0.0
 10
-0.1033
 20
26.6882
 30
0.0
 10
-0.1033
 20
26.6882
 30
0.0
 10
-0.1033
 20
26.6882
 30
0.0
 10
-0.0243
 20
26.5706
 30
0.0
 10
0.0288
 20
26.4676
 30
0.0
 10
0.0566
 20
26.3797
 30
0.0
 10
0.0566
 20
26.3797
 30
0.0
 10
0.0933
 20
26.2639
 30
0.0
 10
0.1116
 20
26.1341
 30
0.0
 10
0.1116
 20
25.9911
 30
0.0
 10
0.1116
 20
25.9911
 30
0.0
 10
0.1116
 20
25.7842
 30
0.0
 10
0.0698
 20
25.5998
 30
0.0
 10
-0.014
 20
25.4385
 30
0.0
 10
-0.014
 20
25.4385
 30
0.0
 10
-0.0977
 20
25.2766
 30
0.0
 10
-0.2148
 20
25.1544
 30
0.0
 10
-0.3658
 20
25.0716
 30
0.0
 10
-0.3658
 20
25.0716
 30
0.0
 10
-0.5173
 20
24.9893
 30
0.0
 10
-0.6776
 20
24.9479
 30
0.0
 10
-0.8474
 20
24.9479
 30
0.0
 10
-0.8474
 20
24.9479
 30
0.0
 10
-0.9744
 20
24.9479
 30
0.0
 10
-1.0892
 20
24.9657
 30
0.0
 10
-1.1922
 20
25.0015
 30
0.0
 10
-1.1922
 20
25.0015
 30
0.0
 10
-1.2712
 20
25.0292
 30
0.0
 10
-1.3634
 20
25.0819
 30
0.0
 10
-1.4693
 20
25.16
 30
0.0
 10
-1.4693
 20
25.16
 30
0.0
 10
-1.4693
 20
25.16
 30
0.0
 10
-1.7007
 20
24.9008
 30
0.0
 10
-1.7007
 20
24.9008
 30
0.0
 10
-1.7007
 20
24.9008
 30
0.0
 10
-1.7007
 20
24.9008
 30
0.0
 10
-1.8371
 20
25.0165
 30
0.0
 10
-1.8371
 20
25.0165
 30
0.0
 10
-1.8371
 20
25.0165
 30
0.0
 10
-1.8371
 20
25.0165
 30
0.0
 10
-1.5944
 20
25.2879
 30
0.0
 10
-1.5944
 20
25.2879
 30
0.0
 10
-1.5944
 20
25.2879
 30
0.0
 10
-1.6847
 20
25.4248
 30
0.0
 10
-1.7449
 20
25.5419
 30
0.0
 10
-1.775
 20
25.6388
 30
0.0
 10
-1.775
 20
25.6388
 30
0.0
 10
-1.8051
 20
25.7357
 30
0.0
 10
-1.8206
 20
25.8524
 30
0.0
 10
-1.8206
 20
25.9883
 30
0.0
 10
-1.8206
 20
25.9883
 30
0.0
 10
-1.8206
 20
26.1957
 30
0.0
 10
-1.7792
 20
26.3806
 30
0.0
 10
-1.6965
 20
26.5429
 30
0.0
 10
-1.6965
 20
26.5429
 30
0.0
 10
-1.6137
 20
26.7052
 30
0.0
 10
-1.498
 20
26.8279
 30
0.0
 10
-1.3484
 20
26.9116
 30
0.0
 10
-1.3484
 20
26.9116
 30
0.0
 10
-1.1993
 20
26.9949
 30
0.0
 10
-1.0332
 20
27.0368
 30
0.0
 10
-0.8503
 20
27.0368
 30
0.0
 10
-0.8503
 20
27.0368
 30
0.0
 10
-0.727
 20
27.0368
 30
0.0
 10
-0.6193
 20
27.0208
 30
0.0
 10
-0.5271
 20
26.9878
 30
0.0
 10
-0.5271
 20
26.9878
 30
0.0
 10
-0.4349
 20
26.9554
 30
0.0
 10
-0.3352
 20
26.8985
 30
0.0
 10
-0.2289
 20
26.8176
 30
0.0
  0
SPLINE
  5
42
330
1F
100
AcDbEntity
  8
DEFAULT_1
 62
   250
100
AcDbSpline
210
0.0
220
0.0
230
1.0
 70
    11
 71
     3
 72
    32
 73
    28
 74
     0
 42
0.0000000001
 43
0.0000000001
 40
0.0
 40
0.0
 40
0.0
 40
0.0
 40
0.125
 40
0.125
 40
0.125
 40
0.125
 40
0.25
 40
0.25
 40
0.25
 40
0.25
 40
0.375
 40
0.375
 40
0.375
 40
0.375
 40
0.5
 40
0.5
 40
0.5
 40
0.5
 40
0.625
 40
0.625
 40
0.625
 40
0.625
 40
0.75
 40
0.75
 40
0.75
 40
0.75
 40
1.0
 40
1.0
 40
1.0
 40
1.0
 10
-0.394
 20
26.6318
 30
0.0
 10
-0.4806
 20
26.6995
 30
0.0
 10
-0.5563
 20
26.7461
 30
0.0
 10
-0.6207
 20
26.771
 30
0.0
 10
-0.6207
 20
26.771
 30
0.0
 10
-0.6856
 20
26.7955
 30
0.0
 10
-0.7618
 20
26.8082
 30
0.0
 10
-0.8489
 20
26.8082
 30
0.0
 10
-0.8489
 20
26.8082
 30
0.0
 10
-1.0502
 20
26.8082
 30
0.0
 10
-1.2162
 20
26.74
 30
0.0
 10
-1.3479
 20
26.6036
 30
0.0
 10
-1.3479
 20
26.6036
 30
0.0
 10
-1.4792
 20
26.4671
 30
0.0
 10
-1.545
 20
26.2635
 30
0.0
 10
-1.545
 20
25.9921
 30
0.0
 10
-1.545
 20
25.9921
 30
0.0
 10
-1.545
 20
25.8858
 30
0.0
 10
-1.5347
 20
25.7912
 30
0.0
 10
-1.5144
 20
25.7084
 30
0.0
 10
-1.5144
 20
25.7084
 30
0.0
 10
-1.4998
 20
25.6468
 30
0.0
 10
-1.4693
 20
25.5711
 30
0.0
 10
-1.4222
 20
25.4813
 30
0.0
 10
-1.4222
 20
25.4813
 30
0.0
 10
-1.4222
 20
25.4813
 30
0.0
 10
-0.394
 20
26.6318
 30
0.0
 10
-0.394
 20
26.6318
 30
0.0
  0
SPLINE
  5
43
330
1F
100
AcDbEntity
  8
DEFAULT_1
 62
   250
100
AcDbSpline
210
0.0
220
0.0
230
1.0
 70
    11
 71
     3
 72
    28
 73
    24
 74
     0
 42
0.0000000001
 43
0.0000000001
 40
0.0
 40
0.0
 40
0.0
 40
0.0
 40
0.1428571428571428
 40
0.1428571428571428
 40
0.1428571428571428
 40
0.1428571428571428
 40
0.2857142857142857
 40
0.2857142857142857
 40
0.2857142857142857
 40
0.2857142857142857
 40
0.4285714285714285
 40
0.4285714285714285
 40
0.4285714285714285
 40
0.4285714285714285
 40
0.5714285714285714
 40
0.5714285714285714
 40
0.5714285714285714
 40
0.5714285714285714
 40
0.7142857142857143
 40
0.7142857142857143
 40
0.7142857142857143
 40
0.7142857142857143
 40
1.0
 40
1.0
 40
1.0
 40
1.0
 10
-0.2811
 20
26.4897
 30
0.0
 10
-0.2811
 20
26.4897
 30
0.0
 10
-1.3051
 20
25.3434
 30
0.0
 10
-1.3051
 20
25.3434
 30
0.0
 10
-1.3051
 20
25.3434
 30
0.0
 10
-1.2346
 20
25.2856
 30
0.0
 10
-1.1692
 20
25.2451
 30
0.0
 10
-1.1094
 20
25.2221
 30
0.0
 10
-1.1094
 20
25.2221
 30
0.0
 10
-1.0314
 20
25.1915
 30
0.0
 10
-0.9467
 20
25.1765
 30
0.0
 10
-0.8559
 20
25.1765
 30
0.0
 10
-0.8559
 20
25.1765
 30
0.0
 10
-0.6555
 20
25.1765
 30
0.0
 10
-0.4904
 20
25.247
 30
0.0
 10
-0.3597
 20
25.3886
 30
0.0
 10
-0.3597
 20
25.3886
 30
0.0
 10
-0.2294
 20
25.5302
 30
0.0
 10
-0.164
 20
25.7287
 30
0.0
 10
-0.164
 20
25.9841
 30
0.0
 10
-0.164
 20
25.9841
 30
0.0
 10
-0.164
 20
26.175
 30
0.0
 10
-0.203
 20
26.3439
 30
0.0
 10
-0.2811
 20
26.4897
 30
0.0
  0
SPLINE
  5
44
330
1F
100
AcDbEntity
  8
DEFAULT_1
 62
   250
100
AcDbSpline
210
0.0
220
0.0
230
1.0
 70
    11
 71
     3
 72
    40
 73
    36
 74
     0
 42
0.0000000001
 43
0.0000000001
 40
0.0
 40
0.0
 40
0.0
 40
0.0
 40
0.1
 40
0.1
 40
0.1
 40
0.1
 40
0.2
 40
0.2
 40
0.2
 40
0.2
 40
0.3
 40
0.3
 40
0.3
 40
0.3
 40
0.4
 40
0.4
 40
0.4
 40
0.4
 40
0.5
 40
0.5
 40
0.5
 40
0.5
 40
0.6
 40
0.6
 40
0.6
 40
0.6
 40
0.7
 40
0.7
 40
0.7
 40
0.7
 40
0.8
 40
0.8
 40
0.8
 40
0.8
 40
1.0
 40
1.0
 40
1.0
 40
1.0
 10
1.2951
 20
24.9822
 30
0.0
 10
1.2951
 20
24.9822
 30
0.0
 10
1.0472
 20
24.9822
 30
0.0
 10
1.0472
 20
24.9822
 30
0.0
 10
1.0472
 20
24.9822
 30
0.0
 10
1.0472
 20
24.9822
 30
0.0
 10
1.0472
 20
26.5626
 30
0.0
 10
1.0472
 20
26.5626
 30
0.0
 10
1.0472
 20
26.5626
 30
0.0
 10
0.9874
 20
26.5057
 30
0.0
 10
0.9094
 20
26.4488
 30
0.0
 10
0.8125
 20
26.3919
 30
0.0
 10
0.8125
 20
26.3919
 30
0.0
 10
0.7151
 20
26.335
 30
0.0
 10
0.6281
 20
26.2922
 30
0.0
 10
0.5509
 20
26.2639
 30
0.0
 10
0.5509
 20
26.2639
 30
0.0
 10
0.5509
 20
26.2639
 30
0.0
 10
0.5509
 20
26.5034
 30
0.0
 10
0.5509
 20
26.5034
 30
0.0
 10
0.5509
 20
26.5034
 30
0.0
 10
0.6897
 20
26.5687
 30
0.0
 10
0.8111
 20
26.6478
 30
0.0
 10
0.915
 20
26.7404
 30
0.0
 10
0.915
 20
26.7404
 30
0.0
 10
1.0185
 20
26.8336
 30
0.0
 10
1.0923
 20
26.9234
 30
0.0
 10
1.1356
 20
27.0109
 30
0.0
 10
1.1356
 20
27.0109
 30
0.0
 10
1.1356
 20
27.0109
 30
0.0
 10
1.2951
 20
27.0109
 30
0.0
 10
1.2951
 20
27.0109
 30
0.0
 10
1.2951
 20
27.0109
 30
0.0
 10
1.2951
 20
27.0109
 30
0.0
 10
1.2951
 20
24.9822
 30
0.0
 10
1.2951
 20
24.9822
 30
0.0
  0
SPLINE
  5
45
330
1F
100
AcDbEntity
  8
DEFAULT_1
 62
   250
100
AcDbSpline
210
0.0
220
0.0
230
1.0
 70
    11
 71
     3
 72
    52
 73
    48
 74
     0
 42
0.0000000001
 43
0.0000000001
 40
0.0
 40
0.0
 40
0.0
 40
0.0
 40
0.0769230769230769
 40
0.0769230769230769
 40
0.0769230769230769
 40
0.0769230769230769
 40
0.1538461538461539
 40
0.1538461538461539
 40
0.1538461538461539
 40
0.1538461538461539
 40
0.2307692307692308
 40
0.2307692307692308
 40
0.2307692307692308
 40
0.2307692307692308
 40
0.3076923076923077
 40
0.3076923076923077
 40
0.3076923076923077
 40
0.3076923076923077
 40
0.3846153846153846
 40
0.3846153846153846
 40
0.3846153846153846
 40
0.3846153846153846
 40
0.4615384615384616
 40
0.4615384615384616
 40
0.4615384615384616
 40
0.4615384615384616
 40
0.5384615384615384
 40
0.5384615384615384
 40
0.5384615384615384
 40
0.5384615384615384
 40
0.6153846153846154
 40
0.6153846153846154
 40
0.6153846153846154
 40
0.6153846153846154
 40
0.6923076923076923
 40
0.6923076923076923
 40
0.6923076923076923
 40
0.6923076923076923
 40
0.7692307692307693
 40
0.7692307692307693
 40
0.7692307692307693
 40
0.7692307692307693
 40
0.8461538461538461
 40
0.8461538461538461
 40
0.8461538461538461
 40
0.8461538461538461
 40
1.0
 40
1.0
 40
1.0
 40
1.0
 10
1.9305
 20
25.9784
 30
0.0
 10
1.9305
 20
26.2174
 30
0.0
 10
1.955
 20
26.4098
 30
0.0
 10
2.0044
 20
26.5551
 30
0.0
 10
2.0044
 20
26.5551
 30
0.0
 10
2.0533
 20
26.7009
 30
0.0
 10
2.1267
 20
26.8133
 30
0.0
 10
2.2236
 20
26.8924
 30
0.0
 10
2.2236
 20
26.8924
 30
0.0
 10
2.3205
 20
26.9714
 30
0.0
 10
2.4423
 20
27.0109
 30
0.0
 10
2.589
 20
27.0109
 30
0.0
 10
2.589
 20
27.0109
 30
0.0
 10
2.6977
 20
27.0109
 30
0.0
 10
2.7927
 20
26.9888
 30
0.0
 10
2.8745
 20
26.945
 30
0.0
 10
2.8745
 20
26.945
 30
0.0
 10
2.9564
 20
26.9018
 30
0.0
 10
3.0237
 20
26.8387
 30
0.0
 10
3.0773
 20
26.7564
 30
0.0
 10
3.0773
 20
26.7564
 30
0.0
 10
3.1304
 20
26.6741
 30
0.0
 10
3.1723
 20
26.5739
 30
0.0
 10
3.2024
 20
26.4559
 30
0.0
 10
3.2024
 20
26.4559
 30
0.0
 10
3.233
 20
26.3378
 30
0.0
 10
3.248
 20
26.1788
 30
0.0
 10
3.248
 20
25.9784
 30
0.0
 10
3.248
 20
25.9784
 30
0.0
 10
3.248
 20
25.7414
 30
0.0
 10
3.2236
 20
25.5504
 30
0.0
 10
3.1751
 20
25.4046
 30
0.0
 10
3.1751
 20
25.4046
 30
0.0
 10
3.1262
 20
25.2588
 30
0.0
 10
3.0533
 20
25.1464
 30
0.0
 10
2.9564
 20
25.0669
 30
0.0
 10
2.9564
 20
25.0669
 30
0.0
 10
2.8595
 20
24.9874
 30
0.0
 10
2.7372
 20
24.9479
 30
0.0
 10
2.589
 20
24.9479
 30
0.0
 10
2.589
 20
24.9479
 30
0.0
 10
2.3943
 20
24.9479
 30
0.0
 10
2.2414
 20
25.0175
 30
0.0
 10
2.1304
 20
25.1572
 30
0.0
 10
2.1304
 20
25.1572
 30
0.0
 10
1.9973
 20
25.3251
 30
0.0
 10
1.9305
 20
25.5993
 30
0.0
 10
1.9305
 20
25.9784
 30
0.0
  0
SPLINE
  5
46
330
1F
100
AcDbEntity
  8
DEFAULT_1
 62
   250
100
AcDbSpline
210
0.0
220
0.0
230
1.0
 70
    11
 71
     3
 72
    36
 73
    32
 74
     0
 42
0.0000000001
 43
0.0000000001
 40
0.0
 40
0.0
 40
0.0
 40
0.0
 40
0.1111111111111111
 40
0.1111111111111111
 40
0.1111111111111111
 40
0.1111111111111111
 40
0.2222222222222222
 40
0.2222222222222222
 40
0.2222222222222222
 40
0.2222222222222222
 40
0.3333333333333333
 40
0.3333333333333333
 40
0.3333333333333333
 40
0.3333333333333333
 40
0.4444444444444444
 40
0.4444444444444444
 40
0.4444444444444444
 40
0.4444444444444444
 40
0.5555555555555556
 40
0.5555555555555556
 40
0.5555555555555556
 40
0.5555555555555556
 40
0.6666666666666666
 40
0.6666666666666666
 40
0.6666666666666666
 40
0.6666666666666666
 40
0.7777777777777778
 40
0.7777777777777778
 40
0.7777777777777778
 40
0.7777777777777778
 40
1.0
 40
1.0
 40
1.0
 40
1.0
 10
2.1855
 20
25.9784
 30
0.0
 10
2.1855
 20
25.6468
 30
0.0
 10
2.2245
 20
25.4262
 30
0.0
 10
2.3021
 20
25.3162
 30
0.0
 10
2.3021
 20
25.3162
 30
0.0
 10
2.3797
 20
25.2066
 30
0.0
 10
2.4752
 20
25.1515
 30
0.0
 10
2.589
 20
25.1515
 30
0.0
 10
2.589
 20
25.1515
 30
0.0
 10
2.7033
 20
25.1515
 30
0.0
 10
2.7988
 20
25.207
 30
0.0
 10
2.8764
 20
25.3171
 30
0.0
 10
2.8764
 20
25.3171
 30
0.0
 10
2.954
 20
25.4272
 30
0.0
 10
2.9931
 20
25.6478
 30
0.0
 10
2.9931
 20
25.9784
 30
0.0
 10
2.9931
 20
25.9784
 30
0.0
 10
2.9931
 20
26.311
 30
0.0
 10
2.954
 20
26.5321
 30
0.0
 10
2.8764
 20
26.6412
 30
0.0
 10
2.8764
 20
26.6412
 30
0.0
 10
2.7988
 20
26.7508
 30
0.0
 10
2.7024
 20
26.8053
 30
0.0
 10
2.5867
 20
26.8053
 30
0.0
 10
2.5867
 20
26.8053
 30
0.0
 10
2.4724
 20
26.8053
 30
0.0
 10
2.3816
 20
26.7569
 30
0.0
 10
2.3134
 20
26.6605
 30
0.0
 10
2.3134
 20
26.6605
 30
0.0
 10
2.2283
 20
26.5377
 30
0.0
 10
2.1855
 20
26.31
 30
0.0
 10
2.1855
 20
25.9784
 30
0.0
  0
SPLINE
  5
47
330
1F
100
AcDbEntity
  8
DEFAULT_1
 62
   250
100
AcDbSpline
210
0.0
220
0.0
230
1.0
 70
    11
 71
     3
 72
    92
 73
    88
 74
     0
 42
0.0000000001
 43
0.0000000001
 40
0.0
 40
0.0
 40
0.0
 40
0.0
 40
0.0434782608695652
 40
0.0434782608695652
 40
0.0434782608695652
 40
0.0434782608695652
 40
0.0869565217391304
 40
0.0869565217391304
 40
0.0869565217391304
 40
0.0869565217391304
 40
0.1304347826086956
 40
0.1304347826086956
 40
0.1304347826086956
 40
0.1304347826086956
 40
0.1739130434782609
 40
0.1739130434782609
 40
0.1739130434782609
 40
0.1739130434782609
 40
0.2173913043478261
 40
0.2173913043478261
 40
0.2173913043478261
 40
0.2173913043478261
 40
0.2608695652173913
 40
0.2608695652173913
 40
0.2608695652173913
 40
0.2608695652173913
 40
0.3043478260869565
 40
0.3043478260869565
 40
0.3043478260869565
 40
0.3043478260869565
 40
0.3478260869565217
 40
0.3478260869565217
 40
0.3478260869565217
 40
0.3478260869565217
 40
0.391304347826087
 40
0.391304347826087
 40
0.391304347826087
 40
0.391304347826087
 40
0.4347826086956522
 40
0.4347826086956522
 40
0.4347826086956522
 40
0.4347826086956522
 40
0.4782608695652174
 40
0.4782608695652174
 40
0.4782608695652174
 40
0.4782608695652174
 40
0.5217391304347826
 40
0.5217391304347826
 40
0.5217391304347826
 40
0.5217391304347826
 40
0.5652173913043478
 40
0.5652173913043478
 40
0.5652173913043478
 40
0.5652173913043478
 40
0.6086956521739131
 40
0.6086956521739131
 40
0.6086956521739131
 40
0.6086956521739131
 40
0.6521739130434783
 40
0.6521739130434783
 40
0.6521739130434783
 40
0.6521739130434783
 40
0.6956521739130435
 40
0.6956521739130435
 40
0.6956521739130435
 40
0.6956521739130435
 40
0.7391304347826086
 40
0.7391304347826086
 40
0.7391304347826086
 40
0.7391304347826086
 40
0.782608695652174
 40
0.782608695652174
 40
0.782608695652174
 40
0.782608695652174
 40
0.8260869565217391
 40
0.8260869565217391
 40
0.8260869565217391
 40
0.8260869565217391
 40
0.8695652173913043
 40
0.8695652173913043
 40
0.8695652173913043
 40
0.8695652173913043
 40
0.9130434782608695
 40
0.9130434782608695
 40
0.9130434782608695
 40
0.9130434782608695
 40
1.0
 40
1.0
 40
1.0
 40
1.0
 10
3.5001
 20
25.5114
 30
0.0
 10
3.5001
 20
25.5114
 30
0.0
 10
3.7607
 20
25.5335
 30
0.0
 10
3.7607
 20
25.5335
 30
0.0
 10
3.7607
 20
25.5335
 30
0.0
 10
3.78
 20
25.4065
 30
0.0
 10
3.8247
 20
25.3115
 30
0.0
 10
3.8948
 20
25.2475
 30
0.0
 10
3.8948
 20
25.2475
 30
0.0
 10
3.9653
 20
25.1835
 30
0.0
 10
4.05
 20
25.1515
 30
0.0
 10
4.1492
 20
25.1515
 30
0.0
 10
4.1492
 20
25.1515
 30
0.0
 10
4.2687
 20
25.1515
 30
0.0
 10
4.3698
 20
25.1967
 30
0.0
 10
4.4521
 20
25.2865
 30
0.0
 10
4.4521
 20
25.2865
 30
0.0
 10
4.5349
 20
25.3768
 30
0.0
 10
4.5763
 20
25.4963
 30
0.0
 10
4.5763
 20
25.6449
 30
0.0
 10
4.5763
 20
25.6449
 30
0.0
 10
4.5763
 20
25.7865
 30
0.0
 10
4.5368
 20
25.898
 30
0.0
 10
4.4573
 20
25.9798
 30
0.0
 10
4.4573
 20
25.9798
 30
0.0
 10
4.3778
 20
26.0617
 30
0.0
 10
4.2739
 20
26.1026
 30
0.0
 10
4.145
 20
26.1026
 30
0.0
 10
4.145
 20
26.1026
 30
0.0
 10
4.065
 20
26.1026
 30
0.0
 10
3.9931
 20
26.0843
 30
0.0
 10
3.9286
 20
26.0481
 30
0.0
 10
3.9286
 20
26.0481
 30
0.0
 10
3.8642
 20
26.0118
 30
0.0
 10
3.8139
 20
25.9648
 30
0.0
 10
3.7772
 20
25.9069
 30
0.0
 10
3.7772
 20
25.9069
 30
0.0
 10
3.7772
 20
25.9069
 30
0.0
 10
3.5443
 20
25.937
 30
0.0
 10
3.5443
 20
25.937
 30
0.0
 10
3.5443
 20
25.937
 30
0.0
 10
3.5443
 20
25.937
 30
0.0
 10
3.74
 20
26.9747
 30
0.0
 10
3.74
 20
26.9747
 30
0.0
 10
3.74
 20
26.9747
 30
0.0
 10
3.74
 20
26.9747
 30
0.0
 10
4.7447
 20
26.9747
 30
0.0
 10
4.7447
 20
26.9747
 30
0.0
 10
4.7447
 20
26.9747
 30
0.0
 10
4.7447
 20
26.9747
 30
0.0
 10
4.7447
 20
26.7376
 30
0.0
 10
4.7447
 20
26.7376
 30
0.0
 10
4.7447
 20
26.7376
 30
0.0
 10
4.7447
 20
26.7376
 30
0.0
 10
3.9385
 20
26.7376
 30
0.0
 10
3.9385
 20
26.7376
 30
0.0
 10
3.9385
 20
26.7376
 30
0.0
 10
3.9385
 20
26.7376
 30
0.0
 10
3.8294
 20
26.1948
 30
0.0
 10
3.8294
 20
26.1948
 30
0.0
 10
3.8294
 20
26.1948
 30
0.0
 10
3.9507
 20
26.2795
 30
0.0
 10
4.0782
 20
26.3218
 30
0.0
 10
4.2113
 20
26.3218
 30
0.0
 10
4.2113
 20
26.3218
 30
0.0
 10
4.3877
 20
26.3218
 30
0.0
 10
4.5363
 20
26.2607
 30
0.0
 10
4.6577
 20
26.1384
 30
0.0
 10
4.6577
 20
26.1384
 30
0.0
 10
4.779
 20
26.0161
 30
0.0
 10
4.8397
 20
25.859
 30
0.0
 10
4.8397
 20
25.6671
 30
0.0
 10
4.8397
 20
25.6671
 30
0.0
 10
4.8397
 20
25.4841
 30
0.0
 10
4.7861
 20
25.326
 30
0.0
 10
4.6798
 20
25.1929
 30
0.0
 10
4.6798
 20
25.1929
 30
0.0
 10
4.55
 20
25.0297
 30
0.0
 10
4.3731
 20
24.9479
 30
0.0
 10
4.1492
 20
24.9479
 30
0.0
 10
4.1492
 20
24.9479
 30
0.0
 10
3.9653
 20
24.9479
 30
0.0
 10
3.8153
 20
24.9991
 30
0.0
 10
3.6991
 20
25.1021
 30
0.0
 10
3.6991
 20
25.1021
 30
0.0
 10
3.5829
 20
25.2052
 30
0.0
 10
3.5166
 20
25.3416
 30
0.0
 10
3.5001
 20
25.5114
 30
0.0
  0
SPLINE
  5
48
330
1F
100
AcDbEntity
  8
DEFAULT_1
 62
   250
100
AcDbSpline
210
0.0
220
0.0
230
1.0
 70
    11
 71
     3
 72
    84
 73
    80
 74
     0
 42
0.0000000001
 43
0.0000000001
 40
0.0
 40
0.0
 40
0.0
 40
0.0
 40
0.0476190476190476
 40
0.0476190476190476
 40
0.0476190476190476
 40
0.0476190476190476
 40
0.0952380952380952
 40
0.0952380952380952
 40
0.0952380952380952
 40
0.0952380952380952
 40
0.1428571428571428
 40
0.1428571428571428
 40
0.1428571428571428
 40
0.1428571428571428
 40
0.1904761904761905
 40
0.1904761904761905
 40
0.1904761904761905
 40
0.1904761904761905
 40
0.2380952380952381
 40
0.2380952380952381
 40
0.2380952380952381
 40
0.2380952380952381
 40
0.2857142857142857
 40
0.2857142857142857
 40
0.2857142857142857
 40
0.2857142857142857
 40
0.3333333333333333
 40
0.3333333333333333
 40
0.3333333333333333
 40
0.3333333333333333
 40
0.3809523809523809
 40
0.3809523809523809
 40
0.3809523809523809
 40
0.3809523809523809
 40
0.4285714285714285
 40
0.4285714285714285
 40
0.4285714285714285
 40
0.4285714285714285
 40
0.4761904761904762
 40
0.4761904761904762
 40
0.4761904761904762
 40
0.4761904761904762
 40
0.5238095238095238
 40
0.5238095238095238
 40
0.5238095238095238
 40
0.5238095238095238
 40
0.5714285714285714
 40
0.5714285714285714
 40
0.5714285714285714
 40
0.5714285714285714
 40
0.6190476190476191
 40
0.6190476190476191
 40
0.6190476190476191
 40
0.6190476190476191
 40
0.6666666666666666
 40
0.6666666666666666
 40
0.6666666666666666
 40
0.6666666666666666
 40
0.7142857142857143
 40
0.7142857142857143
 40
0.7142857142857143
 40
0.7142857142857143
 40
0.7619047619047619
 40
0.7619047619047619
 40
0.7619047619047619
 40
0.7619047619047619
 40
0.8095238095238095
 40
0.8095238095238095
 40
0.8095238095238095
 40
0.8095238095238095
 40
0.8571428571428571
 40
0.8571428571428571
 40
0.8571428571428571
 40
0.8571428571428571
 40
0.9047619047619048
 40
0.9047619047619048
 40
0.9047619047619048
 40
0.9047619047619048
 40
1.0
 40
1.0
 40
1.0
 40
1.0
 10
-0.0797
 20
3.7167
 30
0.0
 10
-0.0797
 20
3.7167
 30
0.0
 10
0.1517
 20
3.9758
 30
0.0
 10
0.1517
 20
3.9758
 30
0.0
 10
0.1517
 20
3.9758
 30
0.0
 10
0.1517
 20
3.9758
 30
0.0
 10
0.2881
 20
3.8601
 30
0.0
 10
0.2881
 20
3.8601
 30
0.0
 10
0.2881
 20
3.8601
 30
0.0
 10
0.2881
 20
3.8601
 30
0.0
 10
0.0459
 20
3.5873
 30
0.0
 10
0.0459
 20
3.5873
 30
0.0
 10
0.0459
 20
3.5873
 30
0.0
 10
0.1249
 20
3.4697
 30
0.0
 10
0.178
 20
3.3667
 30
0.0
 10
0.2058
 20
3.2788
 30
0.0
 10
0.2058
 20
3.2788
 30
0.0
 10
0.2425
 20
3.163
 30
0.0
 10
0.2608
 20
3.0332
 30
0.0
 10
0.2608
 20
2.8902
 30
0.0
 10
0.2608
 20
2.8902
 30
0.0
 10
0.2608
 20
2.6833
 30
0.0
 10
0.219
 20
2.4989
 30
0.0
 10
0.1352
 20
2.3376
 30
0.0
 10
0.1352
 20
2.3376
 30
0.0
 10
0.0515
 20
2.1757
 30
0.0
 10
-0.0656
 20
2.0535
 30
0.0
 10
-0.2166
 20
1.9707
 30
0.0
 10
-0.2166
 20
1.9707
 30
0.0
 10
-0.3681
 20
1.8884
 30
0.0
 10
-0.5284
 20
1.847
 30
0.0
 10
-0.6982
 20
1.847
 30
0.0
 10
-0.6982
 20
1.847
 30
0.0
 10
-0.8252
 20
1.847
 30
0.0
 10
-0.94
 20
1.8648
 30
0.0
 10
-1.043
 20
1.9006
 30
0.0
 10
-1.043
 20
1.9006
 30
0.0
 10
-1.122
 20
1.9283
 30
0.0
 10
-1.2142
 20
1.981
 30
0.0
 10
-1.3201
 20
2.0591
 30
0.0
 10
-1.3201
 20
2.0591
 30
0.0
 10
-1.3201
 20
2.0591
 30
0.0
 10
-1.5515
 20
1.7999
 30
0.0
 10
-1.5515
 20
1.7999
 30
0.0
 10
-1.5515
 20
1.7999
 30
0.0
 10
-1.5515
 20
1.7999
 30
0.0
 10
-1.6879
 20
1.9156
 30
0.0
 10
-1.6879
 20
1.9156
 30
0.0
 10
-1.6879
 20
1.9156
 30
0.0
 10
-1.6879
 20
1.9156
 30
0.0
 10
-1.4452
 20
2.187
 30
0.0
 10
-1.4452
 20
2.187
 30
0.0
 10
-1.4452
 20
2.187
 30
0.0
 10
-1.5355
 20
2.3239
 30
0.0
 10
-1.5957
 20
2.441
 30
0.0
 10
-1.6258
 20
2.5379
 30
0.0
 10
-1.6258
 20
2.5379
 30
0.0
 10
-1.6559
 20
2.6348
 30
0.0
 10
-1.6714
 20
2.7515
 30
0.0
 10
-1.6714
 20
2.8874
 30
0.0
 10
-1.6714
 20
2.8874
 30
0.0
 10
-1.6714
 20
3.0948
 30
0.0
 10
-1.63
 20
3.2797
 30
0.0
 10
-1.5473
 20
3.442
 30
0.0
 10
-1.5473
 20
3.442
 30
0.0
 10
-1.4645
 20
3.6043
 30
0.0
 10
-1.3488
 20
3.727
 30
0.0
 10
-1.1992
 20
3.8107
 30
0.0
 10
-1.1992
 20
3.8107
 30
0.0
 10
-1.0501
 20
3.894
 30
0.0
 10
-0.884
 20
3.9359
 30
0.0
 10
-0.7011
 20
3.9359
 30
0.0
 10
-0.7011
 20
3.9359
 30
0.0
 10
-0.5778
 20
3.9359
 30
0.0
 10
-0.4701
 20
3.9199
 30
0.0
 10
-0.3779
 20
3.8869
 30
0.0
 10
-0.3779
 20
3.8869
 30
0.0
 10
-0.2857
 20
3.8545
 30
0.0
 10
-0.186
 20
3.7976
 30
0.0
 10
-0.0797
 20
3.7167
 30
0.0
  0
SPLINE
  5
49
330
1F
100
AcDbEntity
  8
DEFAULT_1
 62
   250
100
AcDbSpline
210
0.0
220
0.0
230
1.0
 70
    11
 71
     3
 72
    32
 73
    28
 74
     0
 42
0.0000000001
 43
0.0000000001
 40
0.0
 40
0.0
 40
0.0
 40
0.0
 40
0.125
 40
0.125
 40
0.125
 40
0.125
 40
0.25
 40
0.25
 40
0.25
 40
0.25
 40
0.375
 40
0.375
 40
0.375
 40
0.375
 40
0.5
 40
0.5
 40
0.5
 40
0.5
 40
0.625
 40
0.625
 40
0.625
 40
0.625
 40
0.75
 40
0.75
 40
0.75
 40
0.75
 40
1.0
 40
1.0
 40
1.0
 40
1.0
 10
-0.2448
 20
3.5309
 30
0.0
 10
-0.3314
 20
3.5986
 30
0.0
 10
-0.4071
 20
3.6452
 30
0.0
 10
-0.4715
 20
3.6701
 30
0.0
 10
-0.4715
 20
3.6701
 30
0.0
 10
-0.5364
 20
3.6946
 30
0.0
 10
-0.6126
 20
3.7073
 30
0.0
 10
-0.6997
 20
3.7073
 30
0.0
 10
-0.6997
 20
3.7073
 30
0.0
 10
-0.901
 20
3.7073
 30
0.0
 10
-1.067
 20
3.6391
 30
0.0
 10
-1.1987
 20
3.5027
 30
0.0
 10
-1.1987
 20
3.5027
 30
0.0
 10
-1.33
 20
3.3662
 30
0.0
 10
-1.3958
 20
3.1626
 30
0.0
 10
-1.3958
 20
2.8912
 30
0.0
 10
-1.3958
 20
2.8912
 30
0.0
 10
-1.3958
 20
2.7849
 30
0.0
 10
-1.3855
 20
2.6903
 30
0.0
 10
-1.3652
 20
2.6075
 30
0.0
 10
-1.3652
 20
2.6075
 30
0.0
 10
-1.3506
 20
2.5459
 30
0.0
 10
-1.3201
 20
2.4702
 30
0.0
 10
-1.273
 20
2.3804
 30
0.0
 10
-1.273
 20
2.3804
 30
0.0
 10
-1.273
 20
2.3804
 30
0.0
 10
-0.2448
 20
3.5309
 30
0.0
 10
-0.2448
 20
3.5309
 30
0.0
  0
SPLINE
  5
4A
330
1F
100
AcDbEntity
  8
DEFAULT_1
 62
   250
100
AcDbSpline
210
0.0
220
0.0
230
1.0
 70
    11
 71
     3
 72
    28
 73
    24
 74
     0
 42
0.0000000001
 43
0.0000000001
 40
0.0
 40
0.0
 40
0.0
 40
0.0
 40
0.1428571428571428
 40
0.1428571428571428
 40
0.1428571428571428
 40
0.1428571428571428
 40
0.2857142857142857
 40
0.2857142857142857
 40
0.2857142857142857
 40
0.2857142857142857
 40
0.4285714285714285
 40
0.4285714285714285
 40
0.4285714285714285
 40
0.4285714285714285
 40
0.5714285714285714
 40
0.5714285714285714
 40
0.5714285714285714
 40
0.5714285714285714
 40
0.7142857142857143
 40
0.7142857142857143
 40
0.7142857142857143
 40
0.7142857142857143
 40
1.0
 40
1.0
 40
1.0
 40
1.0
 10
-0.1319
 20
3.3888
 30
0.0
 10
-0.1319
 20
3.3888
 30
0.0
 10
-1.1559
 20
2.2425
 30
0.0
 10
-1.1559
 20
2.2425
 30
0.0
 10
-1.1559
 20
2.2425
 30
0.0
 10
-1.0854
 20
2.1847
 30
0.0
 10
-1.02
 20
2.1442
 30
0.0
 10
-0.9602
 20
2.1212
 30
0.0
 10
-0.9602
 20
2.1212
 30
0.0
 10
-0.8822
 20
2.0906
 30
0.0
 10
-0.7975
 20
2.0756
 30
0.0
 10
-0.7067
 20
2.0756
 30
0.0
 10
-0.7067
 20
2.0756
 30
0.0
 10
-0.5063
 20
2.0756
 30
0.0
 10
-0.3412
 20
2.1461
 30
0.0
 10
-0.2105
 20
2.2877
 30
0.0
 10
-0.2105
 20
2.2877
 30
0.0
 10
-0.0802
 20
2.4293
 30
0.0
 10
-0.0148
 20
2.6278
 30
0.0
 10
-0.0148
 20
2.8832
 30
0.0
 10
-0.0148
 20
2.8832
 30
0.0
 10
-0.0148
 20
3.0741
 30
0.0
 10
-0.0538
 20
3.243
 30
0.0
 10
-0.1319
 20
3.3888
 30
0.0
  0
SPLINE
  5
4B
330
1F
100
AcDbEntity
  8
DEFAULT_1
 62
   250
100
AcDbSpline
210
0.0
220
0.0
230
1.0
 70
    11
 71
     3
 72
    40
 73
    36
 74
     0
 42
0.0000000001
 43
0.0000000001
 40
0.0
 40
0.0
 40
0.0
 40
0.0
 40
0.1
 40
0.1
 40
0.1
 40
0.1
 40
0.2
 40
0.2
 40
0.2
 40
0.2
 40
0.3
 40
0.3
 40
0.3
 40
0.3
 40
0.4
 40
0.4
 40
0.4
 40
0.4
 40
0.5
 40
0.5
 40
0.5
 40
0.5
 40
0.6
 40
0.6
 40
0.6
 40
0.6
 40
0.7
 40
0.7
 40
0.7
 40
0.7
 40
0.8
 40
0.8
 40
0.8
 40
0.8
 40
1.0
 40
1.0
 40
1.0
 40
1.0
 10
1.4443
 20
1.8813
 30
0.0
 10
1.4443
 20
1.8813
 30
0.0
 10
1.1964
 20
1.8813
 30
0.0
 10
1.1964
 20
1.8813
 30
0.0
 10
1.1964
 20
1.8813
 30
0.0
 10
1.1964
 20
1.8813
 30
0.0
 10
1.1964
 20
3.4617
 30
0.0
 10
1.1964
 20
3.4617
 30
0.0
 10
1.1964
 20
3.4617
 30
0.0
 10
1.1366
 20
3.4048
 30
0.0
 10
1.0586
 20
3.3479
 30
0.0
 10
0.9617
 20
3.291
 30
0.0
 10
0.9617
 20
3.291
 30
0.0
 10
0.8643
 20
3.2341
 30
0.0
 10
0.7773
 20
3.1913
 30
0.0
 10
0.7001
 20
3.163
 30
0.0
 10
0.7001
 20
3.163
 30
0.0
 10
0.7001
 20
3.163
 30
0.0
 10
0.7001
 20
3.4025
 30
0.0
 10
0.7001
 20
3.4025
 30
0.0
 10
0.7001
 20
3.4025
 30
0.0
 10
0.8389
 20
3.4678
 30
0.0
 10
0.9603
 20
3.5469
 30
0.0
 10
1.0642
 20
3.6395
 30
0.0
 10
1.0642
 20
3.6395
 30
0.0
 10
1.1677
 20
3.7327
 30
0.0
 10
1.2415
 20
3.8225
 30
0.0
 10
1.2848
 20
3.91
 30
0.0
 10
1.2848
 20
3.91
 30
0.0
 10
1.2848
 20
3.91
 30
0.0
 10
1.4443
 20
3.91
 30
0.0
 10
1.4443
 20
3.91
 30
0.0
 10
1.4443
 20
3.91
 30
0.0
 10
1.4443
 20
3.91
 30
0.0
 10
1.4443
 20
1.8813
 30
0.0
 10
1.4443
 20
1.8813
 30
0.0
  0
SPLINE
  5
4C
330
1F
100
AcDbEntity
  8
DEFAULT_1
 62
   250
100
AcDbSpline
210
0.0
220
0.0
230
1.0
 70
    11
 71
     3
 72
    52
 73
    48
 74
     0
 42
0.0000000001
 43
0.0000000001
 40
0.0
 40
0.0
 40
0.0
 40
0.0
 40
0.0769230769230769
 40
0.0769230769230769
 40
0.0769230769230769
 40
0.0769230769230769
 40
0.1538461538461539
 40
0.1538461538461539
 40
0.1538461538461539
 40
0.1538461538461539
 40
0.2307692307692308
 40
0.2307692307692308
 40
0.2307692307692308
 40
0.2307692307692308
 40
0.3076923076923077
 40
0.3076923076923077
 40
0.3076923076923077
 40
0.3076923076923077
 40
0.3846153846153846
 40
0.3846153846153846
 40
0.3846153846153846
 40
0.3846153846153846
 40
0.4615384615384616
 40
0.4615384615384616
 40
0.4615384615384616
 40
0.4615384615384616
 40
0.5384615384615384
 40
0.5384615384615384
 40
0.5384615384615384
 40
0.5384615384615384
 40
0.6153846153846154
 40
0.6153846153846154
 40
0.6153846153846154
 40
0.6153846153846154
 40
0.6923076923076923
 40
0.6923076923076923
 40
0.6923076923076923
 40
0.6923076923076923
 40
0.7692307692307693
 40
0.7692307692307693
 40
0.7692307692307693
 40
0.7692307692307693
 40
0.8461538461538461
 40
0.8461538461538461
 40
0.8461538461538461
 40
0.8461538461538461
 40
1.0
 40
1.0
 40
1.0
 40
1.0
 10
2.0797
 20
2.8775
 30
0.0
 10
2.0797
 20
3.1165
 30
0.0
 10
2.1042
 20
3.3089
 30
0.0
 10
2.1536
 20
3.4542
 30
0.0
 10
2.1536
 20
3.4542
 30
0.0
 10
2.2025
 20
3.6
 30
0.0
 10
2.2759
 20
3.7124
 30
0.0
 10
2.3728
 20
3.7915
 30
0.0
 10
2.3728
 20
3.7915
 30
0.0
 10
2.4697
 20
3.8705
 30
0.0
 10
2.5915
 20
3.91
 30
0.0
 10
2.7382
 20
3.91
 30
0.0
 10
2.7382
 20
3.91
 30
0.0
 10
2.8469
 20
3.91
 30
0.0
 10
2.9419
 20
3.8879
 30
0.0
 10
3.0237
 20
3.8441
 30
0.0
 10
3.0237
 20
3.8441
 30
0.0
 10
3.1056
 20
3.8009
 30
0.0
 10
3.1729
 20
3.7378
 30
0.0
 10
3.2265
 20
3.6555
 30
0.0
 10
3.2265
 20
3.6555
 30
0.0
 10
3.2796
 20
3.5732
 30
0.0
 10
3.3215
 20
3.473
 30
0.0
 10
3.3516
 20
3.355
 30
0.0
 10
3.3516
 20
3.355
 30
0.0
 10
3.3822
 20
3.2369
 30
0.0
 10
3.3972
 20
3.0779
 30
0.0
 10
3.3972
 20
2.8775
 30
0.0
 10
3.3972
 20
2.8775
 30
0.0
 10
3.3972
 20
2.6405
 30
0.0
 10
3.3728
 20
2.4495
 30
0.0
 10
3.3243
 20
2.3037
 30
0.0
 10
3.3243
 20
2.3037
 30
0.0
 10
3.2754
 20
2.1579
 30
0.0
 10
3.2025
 20
2.0455
 30
0.0
 10
3.1056
 20
1.966
 30
0.0
 10
3.1056
 20
1.966
 30
0.0
 10
3.0087
 20
1.8865
 30
0.0
 10
2.8864
 20
1.847
 30
0.0
 10
2.7382
 20
1.847
 30
0.0
 10
2.7382
 20
1.847
 30
0.0
 10
2.5435
 20
1.847
 30
0.0
 10
2.3906
 20
1.9166
 30
0.0
 10
2.2796
 20
2.0563
 30
0.0
 10
2.2796
 20
2.0563
 30
0.0
 10
2.1465
 20
2.2242
 30
0.0
 10
2.0797
 20
2.4984
 30
0.0
 10
2.0797
 20
2.8775
 30
0.0
  0
SPLINE
  5
4D
330
1F
100
AcDbEntity
  8
DEFAULT_1
 62
   250
100
AcDbSpline
210
0.0
220
0.0
230
1.0
 70
    11
 71
     3
 72
    36
 73
    32
 74
     0
 42
0.0000000001
 43
0.0000000001
 40
0.0
 40
0.0
 40
0.0
 40
0.0
 40
0.1111111111111111
 40
0.1111111111111111
 40
0.1111111111111111
 40
0.1111111111111111
 40
0.2222222222222222
 40
0.2222222222222222
 40
0.2222222222222222
 40
0.2222222222222222
 40
0.3333333333333333
 40
0.3333333333333333
 40
0.3333333333333333
 40
0.3333333333333333
 40
0.4444444444444444
 40
0.4444444444444444
 40
0.4444444444444444
 40
0.4444444444444444
 40
0.5555555555555556
 40
0.5555555555555556
 40
0.5555555555555556
 40
0.5555555555555556
 40
0.6666666666666666
 40
0.6666666666666666
 40
0.6666666666666666
 40
0.6666666666666666
 40
0.7777777777777778
 40
0.7777777777777778
 40
0.7777777777777778
 40
0.7777777777777778
 40
1.0
 40
1.0
 40
1.0
 40
1.0
 10
2.3347
 20
2.8775
 30
0.0
 10
2.3347
 20
2.5459
 30
0.0
 10
2.3737
 20
2.3253
 30
0.0
 10
2.4513
 20
2.2153
 30
0.0
 10
2.4513
 20
2.2153
 30
0.0
 10
2.5289
 20
2.1057
 30
0.0
 10
2.6244
 20
2.0506
 30
0.0
 10
2.7382
 20
2.0506
 30
0.0
 10
2.7382
 20
2.0506
 30
0.0
 10
2.8525
 20
2.0506
 30
0.0
 10
2.948
 20
2.1061
 30
0.0
 10
3.0256
 20
2.2162
 30
0.0
 10
3.0256
 20
2.2162
 30
0.0
 10
3.1032
 20
2.3263
 30
0.0
 10
3.1423
 20
2.5469
 30
0.0
 10
3.1423
 20
2.8775
 30
0.0
 10
3.1423
 20
2.8775
 30
0.0
 10
3.1423
 20
3.2101
 30
0.0
 10
3.1032
 20
3.4312
 30
0.0
 10
3.0256
 20
3.5403
 30
0.0
 10
3.0256
 20
3.5403
 30
0.0
 10
2.948
 20
3.6499
 30
0.0
 10
2.8516
 20
3.7044
 30
0.0
 10
2.7359
 20
3.7044
 30
0.0
 10
2.7359
 20
3.7044
 30
0.0
 10
2.6216
 20
3.7044
 30
0.0
 10
2.5308
 20
3.656
 30
0.0
 10
2.4626
 20
3.5596
 30
0.0
 10
2.4626
 20
3.5596
 30
0.0
 10
2.3775
 20
3.4368
 30
0.0
 10
2.3347
 20
3.2091
 30
0.0
 10
2.3347
 20
2.8775
 30
0.0
  0
SPLINE
  5
4E
330
1F
100
AcDbEntity
  8
DEFAULT_1
 62
   250
100
AcDbSpline
210
0.0
220
0.0
230
1.0
 70
    11
 71
     3
 72
    48
 73
    44
 74
     0
 42
0.0000000001
 43
0.0000000001
 40
0.0
 40
0.0
 40
0.0
 40
0.0
 40
0.0833333333333333
 40
0.0833333333333333
 40
0.0833333333333333
 40
0.0833333333333333
 40
0.1666666666666667
 40
0.1666666666666667
 40
0.1666666666666667
 40
0.1666666666666667
 40
0.25
 40
0.25
 40
0.25
 40
0.25
 40
0.3333333333333333
 40
0.3333333333333333
 40
0.3333333333333333
 40
0.3333333333333333
 40
0.4166666666666667
 40
0.4166666666666667
 40
0.4166666666666667
 40
0.4166666666666667
 40
0.5
 40
0.5
 40
0.5
 40
0.5
 40
0.5833333333333334
 40
0.5833333333333334
 40
0.5833333333333334
 40
0.5833333333333334
 40
0.6666666666666666
 40
0.6666666666666666
 40
0.6666666666666666
 40
0.6666666666666666
 40
0.75
 40
0.75
 40
0.75
 40
0.75
 40
0.8333333333333334
 40
0.8333333333333334
 40
0.8333333333333334
 40
0.8333333333333334
 40
1.0
 40
1.0
 40
1.0
 40
1.0
 10
4.4442
 20
1.8813
 30
0.0
 10
4.4442
 20
1.8813
 30
0.0
 10
4.4442
 20
2.3648
 30
0.0
 10
4.4442
 20
2.3648
 30
0.0
 10
4.4442
 20
2.3648
 30
0.0
 10
4.4442
 20
2.3648
 30
0.0
 10
3.5679
 20
2.3648
 30
0.0
 10
3.5679
 20
2.3648
 30
0.0
 10
3.5679
 20
2.3648
 30
0.0
 10
3.5679
 20
2.3648
 30
0.0
 10
3.5679
 20
2.5925
 30
0.0
 10
3.5679
 20
2.5925
 30
0.0
 10
3.5679
 20
2.5925
 30
0.0
 10
3.5679
 20
2.5925
 30
0.0
 10
4.4899
 20
3.9015
 30
0.0
 10
4.4899
 20
3.9015
 30
0.0
 10
4.4899
 20
3.9015
 30
0.0
 10
4.4899
 20
3.9015
 30
0.0
 10
4.6926
 20
3.9015
 30
0.0
 10
4.6926
 20
3.9015
 30
0.0
 10
4.6926
 20
3.9015
 30
0.0
 10
4.6926
 20
3.9015
 30
0.0
 10
4.6926
 20
2.5925
 30
0.0
 10
4.6926
 20
2.5925
 30
0.0
 10
4.6926
 20
2.5925
 30
0.0
 10
4.6926
 20
2.5925
 30
0.0
 10
4.9654
 20
2.5925
 30
0.0
 10
4.9654
 20
2.5925
 30
0.0
 10
4.9654
 20
2.5925
 30
0.0
 10
4.9654
 20
2.5925
 30
0.0
 10
4.9654
 20
2.3648
 30
0.0
 10
4.9654
 20
2.3648
 30
0.0
 10
4.9654
 20
2.3648
 30
0.0
 10
4.9654
 20
2.3648
 30
0.0
 10
4.6926
 20
2.3648
 30
0.0
 10
4.6926
 20
2.3648
 30
0.0
 10
4.6926
 20
2.3648
 30
0.0
 10
4.6926
 20
2.3648
 30
0.0
 10
4.6926
 20
1.8813
 30
0.0
 10
4.6926
 20
1.8813
 30
0.0
 10
4.6926
 20
1.8813
 30
0.0
 10
4.6926
 20
1.8813
 30
0.0
 10
4.4442
 20
1.8813
 30
0.0
 10
4.4442
 20
1.8813
 30
0.0
  0
SPLINE
  5
4F
330
1F
100
AcDbEntity
  8
DEFAULT_1
 62
   250
100
AcDbSpline
210
0.0
220
0.0
230
1.0
 70
    11
 71
     3
 72
    16
 73
    12
 74
     0
 42
0.0000000001
 43
0.0000000001
 40
0.0
 40
0.0
 40
0.0
 40
0.0
 40
0.25
 40
0.25
 40
0.25
 40
0.25
 40
0.5
 40
0.5
 40
0.5
 40
0.5
 40
1.0
 40
1.0
 40
1.0
 40
1.0
 10
4.4442
 20
2.5925
 30
0.0
 10
4.4442
 20
2.5925
 30
0.0
 10
4.4442
 20
3.5031
 30
0.0
 10
4.4442
 20
3.5031
 30
0.0
 10
4.4442
 20
3.5031
 30
0.0
 10
4.4442
 20
3.5031
 30
0.0
 10
3.8121
 20
2.5925
 30
0.0
 10
3.8121
 20
2.5925
 30
0.0
 10
3.8121
 20
2.5925
 30
0.0
 10
3.8121
 20
2.5925
 30
0.0
 10
4.4442
 20
2.5925
 30
0.0
 10
4.4442
 20
2.5925
 30
0.0
  0
SPLINE
  5
50
330
1F
100
AcDbEntity
  8
DEFAULT_1
 62
   250
100
AcDbSpline
210
0.0
220
0.0
230
1.0
 70
    11
 71
     3
 72
    84
 73
    80
 74
     0
 42
0.0000000001
 43
0.0000000001
 40
0.0
 40
0.0
 40
0.0
 40
0.0
 40
0.0476190476190476
 40
0.0476190476190476
 40
0.0476190476190476
 40
0.0476190476190476
 40
0.0952380952380952
 40
0.0952380952380952
 40
0.0952380952380952
 40
0.0952380952380952
 40
0.1428571428571428
 40
0.1428571428571428
 40
0.1428571428571428
 40
0.1428571428571428
 40
0.1904761904761905
 40
0.1904761904761905
 40
0.1904761904761905
 40
0.1904761904761905
 40
0.2380952380952381
 40
0.2380952380952381
 40
0.2380952380952381
 40
0.2380952380952381
 40
0.2857142857142857
 40
0.2857142857142857
 40
0.2857142857142857
 40
0.2857142857142857
 40
0.3333333333333333
 40
0.3333333333333333
 40
0.3333333333333333
 40
0.3333333333333333
 40
0.3809523809523809
 40
0.3809523809523809
 40
0.3809523809523809
 40
0.3809523809523809
 40
0.4285714285714285
 40
0.4285714285714285
 40
0.4285714285714285
 40
0.4285714285714285
 40
0.4761904761904762
 40
0.4761904761904762
 40
0.4761904761904762
 40
0.4761904761904762
 40
0.5238095238095238
 40
0.5238095238095238
 40
0.5238095238095238
 40
0.5238095238095238
 40
0.5714285714285714
 40
0.5714285714285714
 40
0.5714285714285714
 40
0.5714285714285714
 40
0.6190476190476191
 40
0.6190476190476191
 40
0.6190476190476191
 40
0.6190476190476191
 40
0.6666666666666666
 40
0.6666666666666666
 40
0.6666666666666666
 40
0.6666666666666666
 40
0.7142857142857143
 40
0.7142857142857143
 40
0.7142857142857143
 40
0.7142857142857143
 40
0.7619047619047619
 40
0.7619047619047619
 40
0.7619047619047619
 40
0.7619047619047619
 40
0.8095238095238095
 40
0.8095238095238095
 40
0.8095238095238095
 40
0.8095238095238095
 40
0.8571428571428571
 40
0.8571428571428571
 40
0.8571428571428571
 40
0.8571428571428571
 40
0.9047619047619048
 40
0.9047619047619048
 40
0.9047619047619048
 40
0.9047619047619048
 40
1.0
 40
1.0
 40
1.0
 40
1.0
 10
1.5483
 20
-10.3598
 30
0.0
 10
1.5483
 20
-10.3598
 30
0.0
 10
1.8675
 20
-10.2228
 30
0.0
 10
1.8675
 20
-10.2228
 30
0.0
 10
1.8675
 20
-10.2228
 30
0.0
 10
1.8675
 20
-10.2228
 30
0.0
 10
1.9422
 20
-10.3853
 30
0.0
 10
1.9422
 20
-10.3853
 30
0.0
 10
1.9422
 20
-10.3853
 30
0.0
 10
1.9422
 20
-10.3853
 30
0.0
 10
1.6074
 20
-10.5302
 30
0.0
 10
1.6074
 20
-10.5302
 30
0.0
 10
1.6074
 20
-10.5302
 30
0.0
 10
1.6293
 20
-10.6701
 30
0.0
 10
1.6339
 20
-10.7859
 30
0.0
 10
1.622
 20
-10.8774
 30
0.0
 10
1.622
 20
-10.8774
 30
0.0
 10
1.6063
 20
-10.9978
 30
0.0
 10
1.568
 20
-11.1232
 30
0.0
 10
1.5076
 20
-11.2528
 30
0.0
 10
1.5076
 20
-11.2528
 30
0.0
 10
1.4201
 20
-11.4403
 30
0.0
 10
1.3043
 20
-11.5898
 30
0.0
 10
1.1602
 20
-11.7005
 30
0.0
 10
1.1602
 20
-11.7005
 30
0.0
 10
1.0159
 20
-11.8119
 30
0.0
 10
0.8582
 20
-11.8732
 30
0.0
 10
0.6863
 20
-11.8844
 30
0.0
 10
0.6863
 20
-11.8844
 30
0.0
 10
0.5142
 20
-11.8949
 30
0.0
 10
0.3515
 20
-11.8647
 30
0.0
 10
0.1976
 20
-11.793
 30
0.0
 10
0.1976
 20
-11.793
 30
0.0
 10
0.0825
 20
-11.7393
 30
0.0
 10
-0.0141
 20
-11.6746
 30
0.0
 10
-0.0923
 20
-11.5987
 30
0.0
 10
-0.0923
 20
-11.5987
 30
0.0
 10
-0.1522
 20
-11.5402
 30
0.0
 10
-0.2135
 20
-11.4534
 30
0.0
 10
-0.2764
 20
-11.3379
 30
0.0
 10
-0.2764
 20
-11.3379
 30
0.0
 10
-0.2764
 20
-11.3379
 30
0.0
 10
-0.5957
 20
-11.475
 30
0.0
 10
-0.5957
 20
-11.475
 30
0.0
 10
-0.5957
 20
-11.475
 30
0.0
 10
-0.5957
 20
-11.475
 30
0.0
 10
-0.6704
 20
-11.3125
 30
0.0
 10
-0.6704
 20
-11.3125
 30
0.0
 10
-0.6704
 20
-11.3125
 30
0.0
 10
-0.6704
 20
-11.3125
 30
0.0
 10
-0.3358
 20
-11.1691
 30
0.0
 10
-0.3358
 20
-11.1691
 30
0.0
 10
-0.3358
 20
-11.1691
 30
0.0
 10
-0.3597
 20
-11.0069
 30
0.0
 10
-0.3648
 20
-10.8753
 30
0.0
 10
-0.3511
 20
-10.7748
 30
0.0
 10
-0.3511
 20
-10.7748
 30
0.0
 10
-0.3375
 20
-10.6742
 30
0.0
 10
-0.3022
 20
-10.5619
 30
0.0
 10
-0.2448
 20
-10.4387
 30
0.0
 10
-0.2448
 20
-10.4387
 30
0.0
 10
-0.1571
 20
-10.2508
 30
0.0
 10
-0.0415
 20
-10.1007
 30
0.0
 10
0.1021
 20
-9.9886
 30
0.0
 10
0.1021
 20
-9.9886
 30
0.0
 10
0.2457
 20
-9.8765
 30
0.0
 10
0.4024
 20
-9.8141
 30
0.0
 10
0.5734
 20
-9.8015
 30
0.0
 10
0.5734
 20
-9.8015
 30
0.0
 10
0.7437
 20
-9.789
 30
0.0
 10
0.912
 20
-9.8212
 30
0.0
 10
1.0777
 20
-9.8985
 30
0.0
 10
1.0777
 20
-9.8985
 30
0.0
 10
1.1895
 20
-9.9507
 30
0.0
 10
1.2803
 20
-10.0107
 30
0.0
 10
1.35
 20
-10.0795
 30
0.0
 10
1.35
 20
-10.0795
 30
0.0
 10
1.4198
 20
-10.1479
 30
0.0
 10
1.4861
 20
-10.2416
 30
0.0
 10
1.5483
 20
-10.3598
 30
0.0
  0
SPLINE
  5
51
330
1F
100
AcDbEntity
  8
DEFAULT_1
 62
   250
100
AcDbSpline
210
0.0
220
0.0
230
1.0
 70
    11
 71
     3
 72
    32
 73
    28
 74
     0
 42
0.0000000001
 43
0.0000000001
 40
0.0
 40
0.0
 40
0.0
 40
0.0
 40
0.125
 40
0.125
 40
0.125
 40
0.125
 40
0.25
 40
0.25
 40
0.25
 40
0.25
 40
0.375
 40
0.375
 40
0.375
 40
0.375
 40
0.5
 40
0.5
 40
0.5
 40
0.5
 40
0.625
 40
0.625
 40
0.625
 40
0.625
 40
0.75
 40
0.75
 40
0.75
 40
0.75
 40
1.0
 40
1.0
 40
1.0
 40
1.0
 10
1.3201
 20
-10.4584
 30
0.0
 10
1.2703
 20
-10.3605
 30
0.0
 10
1.2213
 20
-10.2863
 30
0.0
 10
1.1735
 20
-10.2365
 30
0.0
 10
1.1735
 20
-10.2365
 30
0.0
 10
1.125
 20
-10.1868
 30
0.0
 10
1.0613
 20
-10.1431
 30
0.0
 10
0.9824
 20
-10.1063
 30
0.0
 10
0.9824
 20
-10.1063
 30
0.0
 10
0.8
 20
-10.0212
 30
0.0
 10
0.6207
 20
-10.0129
 30
0.0
 10
0.4437
 20
-10.0809
 30
0.0
 10
0.4437
 20
-10.0809
 30
0.0
 10
0.267
 20
-10.1491
 30
0.0
 10
0.1213
 20
-10.3058
 30
0.0
 10
0.0066
 20
-10.5518
 30
0.0
 10
0.0066
 20
-10.5518
 30
0.0
 10
-0.0383
 20
-10.6481
 30
0.0
 10
-0.069
 20
-10.7382
 30
0.0
 10
-0.0855
 20
-10.8218
 30
0.0
 10
-0.0855
 20
-10.8218
 30
0.0
 10
-0.0983
 20
-10.8838
 30
0.0
 10
-0.1027
 20
-10.9653
 30
0.0
 10
-0.098
 20
-11.0666
 30
0.0
 10
-0.098
 20
-11.0666
 30
0.0
 10
-0.098
 20
-11.0666
 30
0.0
 10
1.3201
 20
-10.4584
 30
0.0
 10
1.3201
 20
-10.4584
 30
0.0
  0
SPLINE
  5
52
330
1F
100
AcDbEntity
  8
DEFAULT_1
 62
   250
100
AcDbSpline
210
0.0
220
0.0
230
1.0
 70
    11
 71
     3
 72
    28
 73
    24
 74
     0
 42
0.0000000001
 43
0.0000000001
 40
0.0
 40
0.0
 40
0.0
 40
0.0
 40
0.1428571428571428
 40
0.1428571428571428
 40
0.1428571428571428
 40
0.1428571428571428
 40
0.2857142857142857
 40
0.2857142857142857
 40
0.2857142857142857
 40
0.2857142857142857
 40
0.4285714285714285
 40
0.4285714285714285
 40
0.4285714285714285
 40
0.4285714285714285
 40
0.5714285714285714
 40
0.5714285714285714
 40
0.5714285714285714
 40
0.5714285714285714
 40
0.7142857142857143
 40
0.7142857142857143
 40
0.7142857142857143
 40
0.7142857142857143
 40
1.0
 40
1.0
 40
1.0
 40
1.0
 10
1.3624
 20
-10.6349
 30
0.0
 10
1.3624
 20
-10.6349
 30
0.0
 10
-0.0501
 20
-11.2411
 30
0.0
 10
-0.0501
 20
-11.2411
 30
0.0
 10
-0.0501
 20
-11.2411
 30
0.0
 10
-0.0106
 20
-11.3233
 30
0.0
 10
0.0315
 20
-11.3876
 30
0.0
 10
0.076
 20
-11.4337
 30
0.0
 10
0.076
 20
-11.4337
 30
0.0
 10
0.1338
 20
-11.4944
 30
0.0
 10
0.2042
 20
-11.5438
 30
0.0
 10
0.2865
 20
-11.5822
 30
0.0
 10
0.2865
 20
-11.5822
 30
0.0
 10
0.4681
 20
-11.6669
 30
0.0
 10
0.6475
 20
-11.6728
 30
0.0
 10
0.8258
 20
-11.5997
 30
0.0
 10
0.8258
 20
-11.5997
 30
0.0
 10
1.0037
 20
-11.5264
 30
0.0
 10
1.1469
 20
-11.3741
 30
0.0
 10
1.2548
 20
-11.1427
 30
0.0
 10
1.2548
 20
-11.1427
 30
0.0
 10
1.3355
 20
-10.9696
 30
0.0
 10
1.3716
 20
-10.8001
 30
0.0
 10
1.3624
 20
-10.6349
 30
0.0
  0
SPLINE
  5
53
330
1F
100
AcDbEntity
  8
DEFAULT_1
 62
   250
100
AcDbSpline
210
0.0
220
0.0
230
1.0
 70
    11
 71
     3
 72
    40
 73
    36
 74
     0
 42
0.0000000001
 43
0.0000000001
 40
0.0
 40
0.0
 40
0.0
 40
0.0
 40
0.1
 40
0.1
 40
0.1
 40
0.1
 40
0.2
 40
0.2
 40
0.2
 40
0.2
 40
0.3
 40
0.3
 40
0.3
 40
0.3
 40
0.4
 40
0.4
 40
0.4
 40
0.4
 40
0.5
 40
0.5
 40
0.5
 40
0.5
 40
0.6
 40
0.6
 40
0.6
 40
0.6
 40
0.7
 40
0.7
 40
0.7
 40
0.7
 40
0.8
 40
0.8
 40
0.8
 40
0.8
 40
1.0
 40
1.0
 40
1.0
 40
1.0
 10
2.1538
 20
-12.6673
 30
0.0
 10
2.1538
 20
-12.6673
 30
0.0
 10
1.9291
 20
-12.5626
 30
0.0
 10
1.9291
 20
-12.5626
 30
0.0
 10
1.9291
 20
-12.5626
 30
0.0
 10
1.9291
 20
-12.5626
 30
0.0
 10
2.5971
 20
-11.1302
 30
0.0
 10
2.5971
 20
-11.1302
 30
0.0
 10
2.5971
 20
-11.1302
 30
0.0
 10
2.5188
 20
-11.1565
 30
0.0
 10
2.4241
 20
-11.1751
 30
0.0
 10
2.3122
 20
-11.1858
 30
0.0
 10
2.3122
 20
-11.1858
 30
0.0
 10
2.1999
 20
-11.1962
 30
0.0
 10
2.1029
 20
-11.1982
 30
0.0
 10
2.021
 20
-11.1912
 30
0.0
 10
2.021
 20
-11.1912
 30
0.0
 10
2.021
 20
-11.1912
 30
0.0
 10
2.1222
 20
-10.9741
 30
0.0
 10
2.1222
 20
-10.9741
 30
0.0
 10
2.1222
 20
-10.9741
 30
0.0
 10
2.2756
 20
-10.9736
 30
0.0
 10
2.4191
 20
-10.9532
 30
0.0
 10
2.5524
 20
-10.9132
 30
0.0
 10
2.5524
 20
-10.9132
 30
0.0
 10
2.6856
 20
-10.8725
 30
0.0
 10
2.7904
 20
-10.8223
 30
0.0
 10
2.8666
 20
-10.7613
 30
0.0
 10
2.8666
 20
-10.7613
 30
0.0
 10
2.8666
 20
-10.7613
 30
0.0
 10
3.0112
 20
-10.8287
 30
0.0
 10
3.0112
 20
-10.8287
 30
0.0
 10
3.0112
 20
-10.8287
 30
0.0
 10
3.0112
 20
-10.8287
 30
0.0
 10
2.1538
 20
-12.6673
 30
0.0
 10
2.1538
 20
-12.6673
 30
0.0
  0
SPLINE
  5
54
330
1F
100
AcDbEntity
  8
DEFAULT_1
 62
   250
100
AcDbSpline
210
0.0
220
0.0
230
1.0
 70
    11
 71
     3
 72
    40
 73
    36
 74
     0
 42
0.0000000001
 43
0.0000000001
 40
0.0
 40
0.0
 40
0.0
 40
0.0
 40
0.1
 40
0.1
 40
0.1
 40
0.1
 40
0.2
 40
0.2
 40
0.2
 40
0.2
 40
0.3
 40
0.3
 40
0.3
 40
0.3
 40
0.4
 40
0.4
 40
0.4
 40
0.4
 40
0.5
 40
0.5
 40
0.5
 40
0.5
 40
0.6
 40
0.6
 40
0.6
 40
0.6
 40
0.7
 40
0.7
 40
0.7
 40
0.7
 40
0.8
 40
0.8
 40
0.8
 40
0.8
 40
1.0
 40
1.0
 40
1.0
 40
1.0
 10
3.3867
 20
-13.2422
 30
0.0
 10
3.3867
 20
-13.2422
 30
0.0
 10
3.162
 20
-13.1375
 30
0.0
 10
3.162
 20
-13.1375
 30
0.0
 10
3.162
 20
-13.1375
 30
0.0
 10
3.162
 20
-13.1375
 30
0.0
 10
3.8299
 20
-11.7051
 30
0.0
 10
3.8299
 20
-11.7051
 30
0.0
 10
3.8299
 20
-11.7051
 30
0.0
 10
3.7517
 20
-11.7314
 30
0.0
 10
3.6569
 20
-11.75
 30
0.0
 10
3.5451
 20
-11.7606
 30
0.0
 10
3.5451
 20
-11.7606
 30
0.0
 10
3.4327
 20
-11.771
 30
0.0
 10
3.3358
 20
-11.7731
 30
0.0
 10
3.2539
 20
-11.7661
 30
0.0
 10
3.2539
 20
-11.7661
 30
0.0
 10
3.2539
 20
-11.7661
 30
0.0
 10
3.3551
 20
-11.549
 30
0.0
 10
3.3551
 20
-11.549
 30
0.0
 10
3.3551
 20
-11.549
 30
0.0
 10
3.5085
 20
-11.5485
 30
0.0
 10
3.6519
 20
-11.5281
 30
0.0
 10
3.7852
 20
-11.4881
 30
0.0
 10
3.7852
 20
-11.4881
 30
0.0
 10
3.9184
 20
-11.4474
 30
0.0
 10
4.0233
 20
-11.3972
 30
0.0
 10
4.0995
 20
-11.3362
 30
0.0
 10
4.0995
 20
-11.3362
 30
0.0
 10
4.0995
 20
-11.3362
 30
0.0
 10
4.244
 20
-11.4036
 30
0.0
 10
4.244
 20
-11.4036
 30
0.0
 10
4.244
 20
-11.4036
 30
0.0
 10
4.244
 20
-11.4036
 30
0.0
 10
3.3867
 20
-13.2422
 30
0.0
 10
3.3867
 20
-13.2422
 30
0.0
  0
SPLINE
  5
55
330
1F
100
AcDbEntity
  8
DEFAULT_1
 62
   250
100
AcDbSpline
210
0.0
220
0.0
230
1.0
 70
    11
 71
     3
 72
    52
 73
    48
 74
     0
 42
0.0000000001
 43
0.0000000001
 40
0.0
 40
0.0
 40
0.0
 40
0.0
 40
0.0769230769230769
 40
0.0769230769230769
 40
0.0769230769230769
 40
0.0769230769230769
 40
0.1538461538461539
 40
0.1538461538461539
 40
0.1538461538461539
 40
0.1538461538461539
 40
0.2307692307692308
 40
0.2307692307692308
 40
0.2307692307692308
 40
0.2307692307692308
 40
0.3076923076923077
 40
0.3076923076923077
 40
0.3076923076923077
 40
0.3076923076923077
 40
0.3846153846153846
 40
0.3846153846153846
 40
0.3846153846153846
 40
0.3846153846153846
 40
0.4615384615384616
 40
0.4615384615384616
 40
0.4615384615384616
 40
0.4615384615384616
 40
0.5384615384615384
 40
0.5384615384615384
 40
0.5384615384615384
 40
0.5384615384615384
 40
0.6153846153846154
 40
0.6153846153846154
 40
0.6153846153846154
 40
0.6153846153846154
 40
0.6923076923076923
 40
0.6923076923076923
 40
0.6923076923076923
 40
0.6923076923076923
 40
0.7692307692307693
 40
0.7692307692307693
 40
0.7692307692307693
 40
0.7692307692307693
 40
0.8461538461538461
 40
0.8461538461538461
 40
0.8461538461538461
 40
0.8461538461538461
 40
1.0
 40
1.0
 40
1.0
 40
1.0
 10
4.3836
 20
-12.6079
 30
0.0
 10
4.4846
 20
-12.3913
 30
0.0
 10
4.5881
 20
-12.2273
 30
0.0
 10
4.6943
 20
-12.1165
 30
0.0
 10
4.6943
 20
-12.1165
 30
0.0
 10
4.8002
 20
-12.005
 30
0.0
 10
4.9142
 20
-11.9341
 30
0.0
 10
5.0355
 20
-11.9034
 30
0.0
 10
5.0355
 20
-11.9034
 30
0.0
 10
5.1567
 20
-11.8727
 30
0.0
 10
5.2838
 20
-11.8884
 30
0.0
 10
5.4167
 20
-11.9504
 30
0.0
 10
5.4167
 20
-11.9504
 30
0.0
 10
5.5152
 20
-11.9964
 30
0.0
 10
5.592
 20
-12.0565
 30
0.0
 10
5.6476
 20
-12.1308
 30
0.0
 10
5.6476
 20
-12.1308
 30
0.0
 10
5.7036
 20
-12.2046
 30
0.0
 10
5.7379
 20
-12.2902
 30
0.0
 10
5.7517
 20
-12.3874
 30
0.0
 10
5.7517
 20
-12.3874
 30
0.0
 10
5.765
 20
-12.4845
 30
0.0
 10
5.7607
 20
-12.593
 30
0.0
 10
5.7381
 20
-12.7127
 30
0.0
 10
5.7381
 20
-12.7127
 30
0.0
 10
5.7159
 20
-12.8326
 30
0.0
 10
5.6623
 20
-12.9831
 30
0.0
 10
5.5776
 20
-13.1647
 30
0.0
 10
5.5776
 20
-13.1647
 30
0.0
 10
5.4775
 20
-13.3795
 30
0.0
 10
5.3746
 20
-13.5423
 30
0.0
 10
5.269
 20
-13.6539
 30
0.0
 10
5.269
 20
-13.6539
 30
0.0
 10
5.1631
 20
-13.7654
 30
0.0
 10
5.0495
 20
-13.8365
 30
0.0
 10
4.9281
 20
-13.8676
 30
0.0
 10
4.9281
 20
-13.8676
 30
0.0
 10
4.8067
 20
-13.8986
 30
0.0
 10
4.6792
 20
-13.8828
 30
0.0
 10
4.5448
 20
-13.8201
 30
0.0
 10
4.5448
 20
-13.8201
 30
0.0
 10
4.3684
 20
-13.7378
 30
0.0
 10
4.2592
 20
-13.6101
 30
0.0
 10
4.2177
 20
-13.4366
 30
0.0
 10
4.2177
 20
-13.4366
 30
0.0
 10
4.168
 20
-13.2282
 30
0.0
 10
4.2233
 20
-12.9515
 30
0.0
 10
4.3836
 20
-12.6079
 30
0.0
  0
SPLINE
  5
56
330
1F
100
AcDbEntity
  8
DEFAULT_1
 62
   250
100
AcDbSpline
210
0.0
220
0.0
230
1.0
 70
    11
 71
     3
 72
    36
 73
    32
 74
     0
 42
0.0000000001
 43
0.0000000001
 40
0.0
 40
0.0
 40
0.0
 40
0.0
 40
0.1111111111111111
 40
0.1111111111111111
 40
0.1111111111111111
 40
0.1111111111111111
 40
0.2222222222222222
 40
0.2222222222222222
 40
0.2222222222222222
 40
0.2222222222222222
 40
0.3333333333333333
 40
0.3333333333333333
 40
0.3333333333333333
 40
0.3333333333333333
 40
0.4444444444444444
 40
0.4444444444444444
 40
0.4444444444444444
 40
0.4444444444444444
 40
0.5555555555555556
 40
0.5555555555555556
 40
0.5555555555555556
 40
0.5555555555555556
 40
0.6666666666666666
 40
0.6666666666666666
 40
0.6666666666666666
 40
0.6666666666666666
 40
0.7777777777777778
 40
0.7777777777777778
 40
0.7777777777777778
 40
0.7777777777777778
 40
1.0
 40
1.0
 40
1.0
 40
1.0
 10
4.6147
 20
-12.7157
 30
0.0
 10
4.4745
 20
-13.0162
 30
0.0
 10
4.4166
 20
-13.2326
 30
0.0
 10
4.4405
 20
-13.3651
 30
0.0
 10
4.4405
 20
-13.3651
 30
0.0
 10
4.4645
 20
-13.4972
 30
0.0
 10
4.5278
 20
-13.5875
 30
0.0
 10
4.6309
 20
-13.6356
 30
0.0
 10
4.6309
 20
-13.6356
 30
0.0
 10
4.7345
 20
-13.6839
 30
0.0
 10
4.8445
 20
-13.674
 30
0.0
 10
4.9614
 20
-13.607
 30
0.0
 10
4.9614
 20
-13.607
 30
0.0
 10
5.0782
 20
-13.54
 30
0.0
 10
5.2069
 20
-13.3566
 30
0.0
 10
5.3466
 20
-13.057
 30
0.0
 10
5.3466
 20
-13.057
 30
0.0
 10
5.4872
 20
-12.7555
 30
0.0
 10
5.5452
 20
-12.5386
 30
0.0
 10
5.5209
 20
-12.4069
 30
0.0
 10
5.5209
 20
-12.4069
 30
0.0
 10
5.4969
 20
-12.2748
 30
0.0
 10
5.4326
 20
-12.1847
 30
0.0
 10
5.3277
 20
-12.1358
 30
0.0
 10
5.3277
 20
-12.1358
 30
0.0
 10
5.2241
 20
-12.0875
 30
0.0
 10
5.1214
 20
-12.093
 30
0.0
 10
5.0188
 20
-12.1515
 30
0.0
 10
5.0188
 20
-12.1515
 30
0.0
 10
4.8898
 20
-12.2268
 30
0.0
 10
4.7548
 20
-12.4151
 30
0.0
 10
4.6147
 20
-12.7157
 30
0.0
  0
SPLINE
  5
57
330
1F
100
AcDbEntity
  8
DEFAULT_1
 62
   250
100
AcDbSpline
210
0.0
220
0.0
230
1.0
 70
    11
 71
     3
 72
    80
 73
    76
 74
     0
 42
0.0000000001
 43
0.0000000001
 40
0.0
 40
0.0
 40
0.0
 40
0.0
 40
0.05
 40
0.05
 40
0.05
 40
0.05
 40
0.1
 40
0.1
 40
0.1
 40
0.1
 40
0.15
 40
0.15
 40
0.15
 40
0.15
 40
0.2
 40
0.2
 40
0.2
 40
0.2
 40
0.25
 40
0.25
 40
0.25
 40
0.25
 40
0.3
 40
0.3
 40
0.3
 40
0.3
 40
0.35
 40
0.35
 40
0.35
 40
0.35
 40
0.4
 40
0.4
 40
0.4
 40
0.4
 40
0.45
 40
0.45
 40
0.45
 40
0.45
 40
0.5
 40
0.5
 40
0.5
 40
0.5
 40
0.55
 40
0.55
 40
0.55
 40
0.55
 40
0.6
 40
0.6
 40
0.6
 40
0.6
 40
0.65
 40
0.65
 40
0.65
 40
0.65
 40
0.7
 40
0.7
 40
0.7
 40
0.7
 40
0.75
 40
0.75
 40
0.75
 40
0.75
 40
0.8
 40
0.8
 40
0.8
 40
0.8
 40
0.85
 40
0.85
 40
0.85
 40
0.85
 40
0.9
 40
0.9
 40
0.9
 40
0.9
 40
1.0
 40
1.0
 40
1.0
 40
1.0
 10
-17.8342
 20
11.9665
 30
0.0
 10
-17.8342
 20
11.9665
 30
0.0
 10
-17.8149
 20
11.7201
 30
0.0
 10
-17.8149
 20
11.7201
 30
0.0
 10
-17.8149
 20
11.7201
 30
0.0
 10
-17.9123
 20
11.698
 30
0.0
 10
-17.9833
 20
11.6669
 30
0.0
 10
-18.027
 20
11.6265
 30
0.0
 10
-18.027
 20
11.6265
 30
0.0
 10
-18.0981
 20
11.5592
 30
0.0
 10
-18.1334
 20
11.4764
 30
0.0
 10
-18.1334
 20
11.3781
 30
0.0
 10
-18.1334
 20
11.3781
 30
0.0
 10
-18.1334
 20
11.2991
 30
0.0
 10
-18.1112
 20
11.23
 30
0.0
 10
-18.067
 20
11.1702
 30
0.0
 10
-18.067
 20
11.1702
 30
0.0
 10
-18.0101
 20
11.0921
 30
0.0
 10
-17.9269
 20
11.0305
 30
0.0
 10
-17.8177
 20
10.9854
 30
0.0
 10
-17.8177
 20
10.9854
 30
0.0
 10
-17.7086
 20
10.9407
 30
0.0
 10
-17.5529
 20
10.9172
 30
0.0
 10
-17.3507
 20
10.9153
 30
0.0
 10
-17.3507
 20
10.9153
 30
0.0
 10
-17.4414
 20
10.975
 30
0.0
 10
-17.5092
 20
11.0479
 30
0.0
 10
-17.5534
 20
11.1345
 30
0.0
 10
-17.5534
 20
11.1345
 30
0.0
 10
-17.5971
 20
11.2205
 30
0.0
 10
-17.6192
 20
11.3113
 30
0.0
 10
-17.6192
 20
11.4059
 30
0.0
 10
-17.6192
 20
11.4059
 30
0.0
 10
-17.6192
 20
11.5714
 30
0.0
 10
-17.5586
 20
11.7121
 30
0.0
 10
-17.4367
 20
11.8283
 30
0.0
 10
-17.4367
 20
11.8283
 30
0.0
 10
-17.3149
 20
11.9444
 30
0.0
 10
-17.1578
 20
12.0028
 30
0.0
 10
-16.965
 20
12.0028
 30
0.0
 10
-16.965
 20
12.0028
 30
0.0
 10
-16.838
 20
12.0028
 30
0.0
 10
-16.7204
 20
11.975
 30
0.0
 10
-16.6112
 20
11.9204
 30
0.0
 10
-16.6112
 20
11.9204
 30
0.0
 10
-16.5026
 20
11.8659
 30
0.0
 10
-16.4189
 20
11.7906
 30
0.0
 10
-16.361
 20
11.6951
 30
0.0
 10
-16.361
 20
11.6951
 30
0.0
 10
-16.3032
 20
11.5997
 30
0.0
 10
-16.2745
 20
11.4915
 30
0.0
 10
-16.2745
 20
11.3701
 30
0.0
 10
-16.2745
 20
11.3701
 30
0.0
 10
-16.2745
 20
11.1632
 30
0.0
 10
-16.3502
 20
10.9948
 30
0.0
 10
-16.5026
 20
10.8645
 30
0.0
 10
-16.5026
 20
10.8645
 30
0.0
 10
-16.6545
 20
10.7337
 30
0.0
 10
-16.9052
 20
10.6688
 30
0.0
 10
-17.2542
 20
10.6688
 30
0.0
 10
-17.2542
 20
10.6688
 30
0.0
 10
-17.6446
 20
10.6688
 30
0.0
 10
-17.9283
 20
10.7408
 30
0.0
 10
-18.1056
 20
10.8852
 30
0.0
 10
-18.1056
 20
10.8852
 30
0.0
 10
-18.2599
 20
11.0108
 30
0.0
 10
-18.3375
 20
11.1801
 30
0.0
 10
-18.3375
 20
11.3936
 30
0.0
 10
-18.3375
 20
11.3936
 30
0.0
 10
-18.3375
 20
11.5522
 30
0.0
 10
-18.2928
 20
11.6824
 30
0.0
 10
-18.2034
 20
11.784
 30
0.0
 10
-18.2034
 20
11.784
 30
0.0
 10
-18.1145
 20
11.8856
 30
0.0
 10
-17.9913
 20
11.9463
 30
0.0
 10
-17.8342
 20
11.9665
 30
0.0
  0
SPLINE
  5
58
330
1F
100
AcDbEntity
  8
DEFAULT_1
 62
   250
100
AcDbSpline
210
0.0
220
0.0
230
1.0
 70
    11
 71
     3
 72
    40
 73
    36
 74
     0
 42
0.0000000001
 43
0.0000000001
 40
0.0
 40
0.0
 40
0.0
 40
0.0
 40
0.1
 40
0.1
 40
0.1
 40
0.1
 40
0.2
 40
0.2
 40
0.2
 40
0.2
 40
0.3
 40
0.3
 40
0.3
 40
0.3
 40
0.4
 40
0.4
 40
0.4
 40
0.4
 40
0.5
 40
0.5
 40
0.5
 40
0.5
 40
0.6
 40
0.6
 40
0.6
 40
0.6
 40
0.7
 40
0.7
 40
0.7
 40
0.7
 40
0.8
 40
0.8
 40
0.8
 40
0.8
 40
1.0
 40
1.0
 40
1.0
 40
1.0
 10
-16.9636
 20
10.9538
 30
0.0
 10
-16.8779
 20
10.9538
 30
0.0
 10
-16.7961
 20
10.9722
 30
0.0
 10
-16.718
 20
11.0084
 30
0.0
 10
-16.718
 20
11.0084
 30
0.0
 10
-16.6399
 20
11.0446
 30
0.0
 10
-16.5807
 20
11.0954
 30
0.0
 10
-16.5398
 20
11.1603
 30
0.0
 10
-16.5398
 20
11.1603
 30
0.0
 10
-16.4988
 20
11.2257
 30
0.0
 10
-16.4781
 20
11.2944
 30
0.0
 10
-16.4781
 20
11.3659
 30
0.0
 10
-16.4781
 20
11.3659
 30
0.0
 10
-16.4781
 20
11.4708
 30
0.0
 10
-16.5205
 20
11.5606
 30
0.0
 10
-16.6051
 20
11.6359
 30
0.0
 10
-16.6051
 20
11.6359
 30
0.0
 10
-16.6898
 20
11.7111
 30
0.0
 10
-16.8046
 20
11.7488
 30
0.0
 10
-16.9494
 20
11.7488
 30
0.0
 10
-16.9494
 20
11.7488
 30
0.0
 10
-17.0891
 20
11.7488
 30
0.0
 10
-17.1992
 20
11.7116
 30
0.0
 10
-17.2796
 20
11.6373
 30
0.0
 10
-17.2796
 20
11.6373
 30
0.0
 10
-17.3601
 20
11.563
 30
0.0
 10
-17.4001
 20
11.4694
 30
0.0
 10
-17.4001
 20
11.3565
 30
0.0
 10
-17.4001
 20
11.3565
 30
0.0
 10
-17.4001
 20
11.2441
 30
0.0
 10
-17.3601
 20
11.149
 30
0.0
 10
-17.2796
 20
11.071
 30
0.0
 10
-17.2796
 20
11.071
 30
0.0
 10
-17.1992
 20
10.9929
 30
0.0
 10
-17.0938
 20
10.9538
 30
0.0
 10
-16.9636
 20
10.9538
 30
0.0
  0
SPLINE
  5
59
330
1F
100
AcDbEntity
  8
DEFAULT_1
 62
   250
100
AcDbSpline
210
0.0
220
0.0
230
1.0
 70
    11
 71
     3
 72
    80
 73
    76
 74
     0
 42
0.0000000001
 43
0.0000000001
 40
0.0
 40
0.0
 40
0.0
 40
0.0
 40
0.05
 40
0.05
 40
0.05
 40
0.05
 40
0.1
 40
0.1
 40
0.1
 40
0.1
 40
0.15
 40
0.15
 40
0.15
 40
0.15
 40
0.2
 40
0.2
 40
0.2
 40
0.2
 40
0.25
 40
0.25
 40
0.25
 40
0.25
 40
0.3
 40
0.3
 40
0.3
 40
0.3
 40
0.35
 40
0.35
 40
0.35
 40
0.35
 40
0.4
 40
0.4
 40
0.4
 40
0.4
 40
0.45
 40
0.45
 40
0.45
 40
0.45
 40
0.5
 40
0.5
 40
0.5
 40
0.5
 40
0.55
 40
0.55
 40
0.55
 40
0.55
 40
0.6
 40
0.6
 40
0.6
 40
0.6
 40
0.65
 40
0.65
 40
0.65
 40
0.65
 40
0.7
 40
0.7
 40
0.7
 40
0.7
 40
0.75
 40
0.75
 40
0.75
 40
0.75
 40
0.8
 40
0.8
 40
0.8
 40
0.8
 40
0.85
 40
0.85
 40
0.85
 40
0.85
 40
0.9
 40
0.9
 40
0.9
 40
0.9
 40
1.0
 40
1.0
 40
1.0
 40
1.0
 10
-17.8342
 20
13.5361
 30
0.0
 10
-17.8342
 20
13.5361
 30
0.0
 10
-17.8149
 20
13.2897
 30
0.0
 10
-17.8149
 20
13.2897
 30
0.0
 10
-17.8149
 20
13.2897
 30
0.0
 10
-17.9123
 20
13.2676
 30
0.0
 10
-17.9833
 20
13.2365
 30
0.0
 10
-18.027
 20
13.1961
 30
0.0
 10
-18.027
 20
13.1961
 30
0.0
 10
-18.0981
 20
13.1288
 30
0.0
 10
-18.1334
 20
13.046
 30
0.0
 10
-18.1334
 20
12.9477
 30
0.0
 10
-18.1334
 20
12.9477
 30
0.0
 10
-18.1334
 20
12.8687
 30
0.0
 10
-18.1112
 20
12.7996
 30
0.0
 10
-18.067
 20
12.7398
 30
0.0
 10
-18.067
 20
12.7398
 30
0.0
 10
-18.0101
 20
12.6617
 30
0.0
 10
-17.9269
 20
12.6001
 30
0.0
 10
-17.8177
 20
12.555
 30
0.0
 10
-17.8177
 20
12.555
 30
0.0
 10
-17.7086
 20
12.5103
 30
0.0
 10
-17.5529
 20
12.4868
 30
0.0
 10
-17.3507
 20
12.4849
 30
0.0
 10
-17.3507
 20
12.4849
 30
0.0
 10
-17.4414
 20
12.5446
 30
0.0
 10
-17.5092
 20
12.6175
 30
0.0
 10
-17.5534
 20
12.7041
 30
0.0
 10
-17.5534
 20
12.7041
 30
0.0
 10
-17.5971
 20
12.7901
 30
0.0
 10
-17.6192
 20
12.8809
 30
0.0
 10
-17.6192
 20
12.9755
 30
0.0
 10
-17.6192
 20
12.9755
 30
0.0
 10
-17.6192
 20
13.141
 30
0.0
 10
-17.5586
 20
13.2817
 30
0.0
 10
-17.4367
 20
13.3979
 30
0.0
 10
-17.4367
 20
13.3979
 30
0.0
 10
-17.3149
 20
13.514
 30
0.0
 10
-17.1578
 20
13.5724
 30
0.0
 10
-16.965
 20
13.5724
 30
0.0
 10
-16.965
 20
13.5724
 30
0.0
 10
-16.838
 20
13.5724
 30
0.0
 10
-16.7204
 20
13.5446
 30
0.0
 10
-16.6112
 20
13.49
 30
0.0
 10
-16.6112
 20
13.49
 30
0.0
 10
-16.5026
 20
13.4355
 30
0.0
 10
-16.4189
 20
13.3602
 30
0.0
 10
-16.361
 20
13.2647
 30
0.0
 10
-16.361
 20
13.2647
 30
0.0
 10
-16.3032
 20
13.1693
 30
0.0
 10
-16.2745
 20
13.0611
 30
0.0
 10
-16.2745
 20
12.9397
 30
0.0
 10
-16.2745
 20
12.9397
 30
0.0
 10
-16.2745
 20
12.7328
 30
0.0
 10
-16.3502
 20
12.5644
 30
0.0
 10
-16.5026
 20
12.4341
 30
0.0
 10
-16.5026
 20
12.4341
 30
0.0
 10
-16.6545
 20
12.3033
 30
0.0
 10
-16.9052
 20
12.2384
 30
0.0
 10
-17.2542
 20
12.2384
 30
0.0
 10
-17.2542
 20
12.2384
 30
0.0
 10
-17.6446
 20
12.2384
 30
0.0
 10
-17.9283
 20
12.3104
 30
0.0
 10
-18.1056
 20
12.4548
 30
0.0
 10
-18.1056
 20
12.4548
 30
0.0
 10
-18.2599
 20
12.5804
 30
0.0
 10
-18.3375
 20
12.7497
 30
0.0
 10
-18.3375
 20
12.9632
 30
0.0
 10
-18.3375
 20
12.9632
 30
0.0
 10
-18.3375
 20
13.1218
 30
0.0
 10
-18.2928
 20
13.252
 30
0.0
 10
-18.2034
 20
13.3536
 30
0.0
 10
-18.2034
 20
13.3536
 30
0.0
 10
-18.1145
 20
13.4552
 30
0.0
 10
-17.9913
 20
13.5159
 30
0.0
 10
-17.8342
 20
13.5361
 30
0.0
  0
SPLINE
  5
5A
330
1F
100
AcDbEntity
  8
DEFAULT_1
 62
   250
100
AcDbSpline
210
0.0
220
0.0
230
1.0
 70
    11
 71
     3
 72
    40
 73
    36
 74
     0
 42
0.0000000001
 43
0.0000000001
 40
0.0
 40
0.0
 40
0.0
 40
0.0
 40
0.1
 40
0.1
 40
0.1
 40
0.1
 40
0.2
 40
0.2
 40
0.2
 40
0.2
 40
0.3
 40
0.3
 40
0.3
 40
0.3
 40
0.4
 40
0.4
 40
0.4
 40
0.4
 40
0.5
 40
0.5
 40
0.5
 40
0.5
 40
0.6
 40
0.6
 40
0.6
 40
0.6
 40
0.7
 40
0.7
 40
0.7
 40
0.7
 40
0.8
 40
0.8
 40
0.8
 40
0.8
 40
1.0
 40
1.0
 40
1.0
 40
1.0
 10
-16.9636
 20
12.5234
 30
0.0
 10
-16.8779
 20
12.5234
 30
0.0
 10
-16.7961
 20
12.5418
 30
0.0
 10
-16.718
 20
12.578
 30
0.0
 10
-16.718
 20
12.578
 30
0.0
 10
-16.6399
 20
12.6142
 30
0.0
 10
-16.5807
 20
12.665
 30
0.0
 10
-16.5398
 20
12.7299
 30
0.0
 10
-16.5398
 20
12.7299
 30
0.0
 10
-16.4988
 20
12.7953
 30
0.0
 10
-16.4781
 20
12.864
 30
0.0
 10
-16.4781
 20
12.9355
 30
0.0
 10
-16.4781
 20
12.9355
 30
0.0
 10
-16.4781
 20
13.0404
 30
0.0
 10
-16.5205
 20
13.1302
 30
0.0
 10
-16.6051
 20
13.2055
 30
0.0
 10
-16.6051
 20
13.2055
 30
0.0
 10
-16.6898
 20
13.2807
 30
0.0
 10
-16.8046
 20
13.3184
 30
0.0
 10
-16.9494
 20
13.3184
 30
0.0
 10
-16.9494
 20
13.3184
 30
0.0
 10
-17.0891
 20
13.3184
 30
0.0
 10
-17.1992
 20
13.2812
 30
0.0
 10
-17.2796
 20
13.2069
 30
0.0
 10
-17.2796
 20
13.2069
 30
0.0
 10
-17.3601
 20
13.1326
 30
0.0
 10
-17.4001
 20
13.039
 30
0.0
 10
-17.4001
 20
12.9261
 30
0.0
 10
-17.4001
 20
12.9261
 30
0.0
 10
-17.4001
 20
12.8137
 30
0.0
 10
-17.3601
 20
12.7186
 30
0.0
 10
-17.2796
 20
12.6406
 30
0.0
 10
-17.2796
 20
12.6406
 30
0.0
 10
-17.1992
 20
12.5625
 30
0.0
 10
-17.0938
 20
12.5234
 30
0.0
 10
-16.9636
 20
12.5234
 30
0.0
  0
SPLINE
  5
5B
330
1F
100
AcDbEntity
  8
DEFAULT_1
 62
   250
100
AcDbSpline
210
0.0
220
0.0
230
1.0
 70
    11
 71
     3
 72
    40
 73
    36
 74
     0
 42
0.0000000001
 43
0.0000000001
 40
0.0
 40
0.0
 40
0.0
 40
0.0
 40
0.1
 40
0.1
 40
0.1
 40
0.1
 40
0.2
 40
0.2
 40
0.2
 40
0.2
 40
0.3
 40
0.3
 40
0.3
 40
0.3
 40
0.4
 40
0.4
 40
0.4
 40
0.4
 40
0.5
 40
0.5
 40
0.5
 40
0.5
 40
0.6
 40
0.6
 40
0.6
 40
0.6
 40
0.7
 40
0.7
 40
0.7
 40
0.7
 40
0.8
 40
0.8
 40
0.8
 40
0.8
 40
1.0
 40
1.0
 40
1.0
 40
1.0
 10
-16.3088
 20
13.9524
 30
0.0
 10
-16.3088
 20
13.9524
 30
0.0
 10
-16.5915
 20
13.9524
 30
0.0
 10
-16.5915
 20
13.9524
 30
0.0
 10
-16.5915
 20
13.9524
 30
0.0
 10
-16.5915
 20
13.9524
 30
0.0
 10
-16.5915
 20
14.2351
 30
0.0
 10
-16.5915
 20
14.2351
 30
0.0
 10
-16.5915
 20
14.2351
 30
0.0
 10
-16.5915
 20
14.2351
 30
0.0
 10
-16.3088
 20
14.2351
 30
0.0
 10
-16.3088
 20
14.2351
 30
0.0
 10
-16.3088
 20
14.2351
 30
0.0
 10
-16.2048
 20
14.2351
 30
0.0
 10
-16.1211
 20
14.2168
 30
0.0
 10
-16.0572
 20
14.1801
 30
0.0
 10
-16.0572
 20
14.1801
 30
0.0
 10
-15.9937
 20
14.1429
 30
0.0
 10
-15.9443
 20
14.0846
 30
0.0
 10
-15.909
 20
14.0051
 30
0.0
 10
-15.909
 20
14.0051
 30
0.0
 10
-15.909
 20
14.0051
 30
0.0
 10
-16.0153
 20
13.9359
 30
0.0
 10
-16.0153
 20
13.9359
 30
0.0
 10
-16.0153
 20
13.9359
 30
0.0
 10
-16.0383
 20
13.9882
 30
0.0
 10
-16.0722
 20
14.0267
 30
0.0
 10
-16.1164
 20
14.0517
 30
0.0
 10
-16.1164
 20
14.0517
 30
0.0
 10
-16.1611
 20
14.0766
 30
0.0
 10
-16.2251
 20
14.0902
 30
0.0
 10
-16.3088
 20
14.093
 30
0.0
 10
-16.3088
 20
14.093
 30
0.0
 10
-16.3088
 20
14.093
 30
0.0
 10
-16.3088
 20
13.9524
 30
0.0
 10
-16.3088
 20
13.9524
 30
0.0
  0
SPLINE
  5
5C
330
1F
100
AcDbEntity
  8
DEFAULT_1
 62
   250
100
AcDbSpline
210
0.0
220
0.0
230
1.0
 70
    11
 71
     3
 72
    92
 73
    88
 74
     0
 42
0.0000000001
 43
0.0000000001
 40
0.0
 40
0.0
 40
0.0
 40
0.0
 40
0.0434782608695652
 40
0.0434782608695652
 40
0.0434782608695652
 40
0.0434782608695652
 40
0.0869565217391304
 40
0.0869565217391304
 40
0.0869565217391304
 40
0.0869565217391304
 40
0.1304347826086956
 40
0.1304347826086956
 40
0.1304347826086956
 40
0.1304347826086956
 40
0.1739130434782609
 40
0.1739130434782609
 40
0.1739130434782609
 40
0.1739130434782609
 40
0.2173913043478261
 40
0.2173913043478261
 40
0.2173913043478261
 40
0.2173913043478261
 40
0.2608695652173913
 40
0.2608695652173913
 40
0.2608695652173913
 40
0.2608695652173913
 40
0.3043478260869565
 40
0.3043478260869565
 40
0.3043478260869565
 40
0.3043478260869565
 40
0.3478260869565217
 40
0.3478260869565217
 40
0.3478260869565217
 40
0.3478260869565217
 40
0.391304347826087
 40
0.391304347826087
 40
0.391304347826087
 40
0.391304347826087
 40
0.4347826086956522
 40
0.4347826086956522
 40
0.4347826086956522
 40
0.4347826086956522
 40
0.4782608695652174
 40
0.4782608695652174
 40
0.4782608695652174
 40
0.4782608695652174
 40
0.5217391304347826
 40
0.5217391304347826
 40
0.5217391304347826
 40
0.5217391304347826
 40
0.5652173913043478
 40
0.5652173913043478
 40
0.5652173913043478
 40
0.5652173913043478
 40
0.6086956521739131
 40
0.6086956521739131
 40
0.6086956521739131
 40
0.6086956521739131
 40
0.6521739130434783
 40
0.6521739130434783
 40
0.6521739130434783
 40
0.6521739130434783
 40
0.6956521739130435
 40
0.6956521739130435
 40
0.6956521739130435
 40
0.6956521739130435
 40
0.7391304347826086
 40
0.7391304347826086
 40
0.7391304347826086
 40
0.7391304347826086
 40
0.782608695652174
 40
0.782608695652174
 40
0.782608695652174
 40
0.782608695652174
 40
0.8260869565217391
 40
0.8260869565217391
 40
0.8260869565217391
 40
0.8260869565217391
 40
0.8695652173913043
 40
0.8695652173913043
 40
0.8695652173913043
 40
0.8695652173913043
 40
0.9130434782608695
 40
0.9130434782608695
 40
0.9130434782608695
 40
0.9130434782608695
 40
1.0
 40
1.0
 40
1.0
 40
1.0
 10
-16.838
 20
14.6029
 30
0.0
 10
-16.838
 20
14.6029
 30
0.0
 10
-16.8601
 20
14.8635
 30
0.0
 10
-16.8601
 20
14.8635
 30
0.0
 10
-16.8601
 20
14.8635
 30
0.0
 10
-16.7331
 20
14.8828
 30
0.0
 10
-16.6381
 20
14.9275
 30
0.0
 10
-16.5741
 20
14.9976
 30
0.0
 10
-16.5741
 20
14.9976
 30
0.0
 10
-16.5101
 20
15.0681
 30
0.0
 10
-16.4781
 20
15.1528
 30
0.0
 10
-16.4781
 20
15.252
 30
0.0
 10
-16.4781
 20
15.252
 30
0.0
 10
-16.4781
 20
15.3715
 30
0.0
 10
-16.5233
 20
15.4726
 30
0.0
 10
-16.6131
 20
15.5549
 30
0.0
 10
-16.6131
 20
15.5549
 30
0.0
 10
-16.7034
 20
15.6377
 30
0.0
 10
-16.8229
 20
15.6791
 30
0.0
 10
-16.9715
 20
15.6791
 30
0.0
 10
-16.9715
 20
15.6791
 30
0.0
 10
-17.1131
 20
15.6791
 30
0.0
 10
-17.2246
 20
15.6396
 30
0.0
 10
-17.3064
 20
15.5601
 30
0.0
 10
-17.3064
 20
15.5601
 30
0.0
 10
-17.3883
 20
15.4806
 30
0.0
 10
-17.4292
 20
15.3767
 30
0.0
 10
-17.4292
 20
15.2478
 30
0.0
 10
-17.4292
 20
15.2478
 30
0.0
 10
-17.4292
 20
15.1678
 30
0.0
 10
-17.4109
 20
15.0959
 30
0.0
 10
-17.3747
 20
15.0314
 30
0.0
 10
-17.3747
 20
15.0314
 30
0.0
 10
-17.3384
 20
14.967
 30
0.0
 10
-17.2914
 20
14.9167
 30
0.0
 10
-17.2335
 20
14.88
 30
0.0
 10
-17.2335
 20
14.88
 30
0.0
 10
-17.2335
 20
14.88
 30
0.0
 10
-17.2636
 20
14.6471
 30
0.0
 10
-17.2636
 20
14.6471
 30
0.0
 10
-17.2636
 20
14.6471
 30
0.0
 10
-17.2636
 20
14.6471
 30
0.0
 10
-18.3013
 20
14.8428
 30
0.0
 10
-18.3013
 20
14.8428
 30
0.0
 10
-18.3013
 20
14.8428
 30
0.0
 10
-18.3013
 20
14.8428
 30
0.0
 10
-18.3013
 20
15.8475
 30
0.0
 10
-18.3013
 20
15.8475
 30
0.0
 10
-18.3013
 20
15.8475
 30
0.0
 10
-18.3013
 20
15.8475
 30
0.0
 10
-18.0642
 20
15.8475
 30
0.0
 10
-18.0642
 20
15.8475
 30
0.0
 10
-18.0642
 20
15.8475
 30
0.0
 10
-18.0642
 20
15.8475
 30
0.0
 10
-18.0642
 20
15.0413
 30
0.0
 10
-18.0642
 20
15.0413
 30
0.0
 10
-18.0642
 20
15.0413
 30
0.0
 10
-18.0642
 20
15.0413
 30
0.0
 10
-17.5214
 20
14.9322
 30
0.0
 10
-17.5214
 20
14.9322
 30
0.0
 10
-17.5214
 20
14.9322
 30
0.0
 10
-17.6061
 20
15.0535
 30
0.0
 10
-17.6484
 20
15.181
 30
0.0
 10
-17.6484
 20
15.3141
 30
0.0
 10
-17.6484
 20
15.3141
 30
0.0
 10
-17.6484
 20
15.4905
 30
0.0
 10
-17.5873
 20
15.6391
 30
0.0
 10
-17.465
 20
15.7605
 30
0.0
 10
-17.465
 20
15.7605
 30
0.0
 10
-17.3427
 20
15.8818
 30
0.0
 10
-17.1856
 20
15.9425
 30
0.0
 10
-16.9937
 20
15.9425
 30
0.0
 10
-16.9937
 20
15.9425
 30
0.0
 10
-16.8107
 20
15.9425
 30
0.0
 10
-16.6526
 20
15.8889
 30
0.0
 10
-16.5195
 20
15.7826
 30
0.0
 10
-16.5195
 20
15.7826
 30
0.0
 10
-16.3563
 20
15.6528
 30
0.0
 10
-16.2745
 20
15.4759
 30
0.0
 10
-16.2745
 20
15.252
 30
0.0
 10
-16.2745
 20
15.252
 30
0.0
 10
-16.2745
 20
15.0681
 30
0.0
 10
-16.3257
 20
14.9181
 30
0.0
 10
-16.4287
 20
14.8019
 30
0.0
 10
-16.4287
 20
14.8019
 30
0.0
 10
-16.5318
 20
14.6857
 30
0.0
 10
-16.6682
 20
14.6194
 30
0.0
 10
-16.838
 20
14.6029
 30
0.0
  0
SPLINE
  5
5D
330
1F
100
AcDbEntity
  8
DEFAULT_1
 62
   250
100
AcDbSpline
210
0.0
220
0.0
230
1.0
 70
    11
 71
     3
 72
    20
 73
    16
 74
     0
 42
0.0000000001
 43
0.0000000001
 40
0.0
 40
0.0
 40
0.0
 40
0.0
 40
0.2
 40
0.2
 40
0.2
 40
0.2
 40
0.4
 40
0.4
 40
0.4
 40
0.4
 40
0.6
 40
0.6
 40
0.6
 40
0.6
 40
1.0
 40
1.0
 40
1.0
 40
1.0
 10
12.0891
 20
24.9245
 30
0.0
 10
12.0891
 20
24.9245
 30
0.0
 10
14.5891
 20
24.5716
 30
0.0
 10
14.5891
 20
24.5716
 30
0.0
 10
14.5891
 20
24.5716
 30
0.0
 10
14.5891
 20
24.5716
 30
0.0
 10
14.5891
 20
24.4933
 30
0.0
 10
14.5891
 20
24.4933
 30
0.0
 10
14.5891
 20
24.4933
 30
0.0
 10
14.5891
 20
24.4933
 30
0.0
 10
12.0891
 20
24.117
 30
0.0
 10
12.0891
 20
24.117
 30
0.0
 10
12.0891
 20
24.117
 30
0.0
 10
12.0891
 20
24.117
 30
0.0
 10
12.0891
 20
24.9245
 30
0.0
 10
12.0891
 20
24.9245
 30
0.0
  0
SPLINE
  5
5E
330
1F
100
AcDbEntity
  8
DEFAULT_1
 62
   250
100
AcDbSpline
210
0.0
220
0.0
230
1.0
 70
    11
 71
     3
 72
    20
 73
    16
 74
     0
 42
0.0000000001
 43
0.0000000001
 40
0.0
 40
0.0
 40
0.0
 40
0.0
 40
0.2
 40
0.2
 40
0.2
 40
0.2
 40
0.4
 40
0.4
 40
0.4
 40
0.4
 40
0.6
 40
0.6
 40
0.6
 40
0.6
 40
1.0
 40
1.0
 40
1.0
 40
1.0
 10
11.8855
 20
1.8125
 30
0.0
 10
11.8855
 20
1.8125
 30
0.0
 10
14.3855
 20
1.4596
 30
0.0
 10
14.3855
 20
1.4596
 30
0.0
 10
14.3855
 20
1.4596
 30
0.0
 10
14.3855
 20
1.4596
 30
0.0
 10
14.3855
 20
1.3813
 30
0.0
 10
14.3855
 20
1.3813
 30
0.0
 10
14.3855
 20
1.3813
 30
0.0
 10
14.3855
 20
1.3813
 30
0.0
 10
11.8855
 20
1.005
 30
0.0
 10
11.8855
 20
1.005
 30
0.0
 10
11.8855
 20
1.005
 30
0.0
 10
11.8855
 20
1.005
 30
0.0
 10
11.8855
 20
1.8125
 30
0.0
 10
11.8855
 20
1.8125
 30
0.0
  0
SPLINE
  5
5F
330
1F
100
AcDbEntity
  8
DEFAULT_1
 62
   250
100
AcDbSpline
210
0.0
220
0.0
230
1.0
 70
    11
 71
     3
 72
    20
 73
    16
 74
     0
 42
0.0000000001
 43
0.0000000001
 40
0.0
 40
0.0
 40
0.0
 40
0.0
 40
0.2
 40
0.2
 40
0.2
 40
0.2
 40
0.4
 40
0.4
 40
0.4
 40
0.4
 40
0.6
 40
0.6
 40
0.6
 40
0.6
 40
1.0
 40
1.0
 40
1.0
 40
1.0
 10
-12.1145
 20
-6.2943
 30
0.0
 10
-12.1145
 20
-6.2943
 30
0.0
 10
-9.9979
 20
-7.6707
 30
0.0
 10
-9.9979
 20
-7.6707
 30
0.0
 10
-9.9979
 20
-7.6707
 30
0.0
 10
-9.9979
 20
-7.6707
 30
0.0
 10
-10.031
 20
-7.7417
 30
0.0
 10
-10.031
 20
-7.7417
 30
0.0
 10
-10.031
 20
-7.7417
 30
0.0
 10
-10.031
 20
-7.7417
 30
0.0
 10
-12.4558
 20
-7.0262
 30
0.0
 10
-12.4558
 20
-7.0262
 30
0.0
 10
-12.4558
 20
-7.0262
 30
0.0
 10
-12.4558
 20
-7.0262
 30
0.0
 10
-12.1145
 20
-6.2943
 30
0.0
 10
-12.1145
 20
-6.2943
 30
0.0
  0
SPLINE
  5
60
330
1F
100
AcDbEntity
  8
DEFAULT_1
 62
   250
100
AcDbSpline
210
0.0
220
0.0
230
1.0
 70
    11
 71
     3
 72
    20
 73
    16
 74
     0
 42
0.0000000001
 43
0.0000000001
 40
0.0
 40
0.0
 40
0.0
 40
0.0
 40
0.2
 40
0.2
 40
0.2
 40
0.2
 40
0.4
 40
0.4
 40
0.4
 40
0.4
 40
0.6
 40
0.6
 40
0.6
 40
0.6
 40
1.0
 40
1.0
 40
1.0
 40
1.0
 10
-15.9313
 20
18.4073
 30
0.0
 10
-15.9313
 20
18.4073
 30
0.0
 10
-15.5784
 20
20.9073
 30
0.0
 10
-15.5784
 20
20.9073
 30
0.0
 10
-15.5784
 20
20.9073
 30
0.0
 10
-15.5784
 20
20.9073
 30
0.0
 10
-15.5001
 20
20.9073
 30
0.0
 10
-15.5001
 20
20.9073
 30
0.0
 10
-15.5001
 20
20.9073
 30
0.0
 10
-15.5001
 20
20.9073
 30
0.0
 10
-15.1238
 20
18.4073
 30
0.0
 10
-15.1238
 20
18.4073
 30
0.0
 10
-15.1238
 20
18.4073
 30
0.0
 10
-15.1238
 20
18.4073
 30
0.0
 10
-15.9313
 20
18.4073
 30
0.0
 10
-15.9313
 20
18.4073
 30
0.0
  0
SPLINE
  5
61
330
1F
100
AcDbEntity
  8
DEFAULT_1
 62
   250
100
AcDbSpline
210
0.0
220
0.0
230
1.0
 70
    11
 71
     3
 72
    20
 73
    16
 74
     0
 42
0.0000000001
 43
0.0000000001
 40
0.0
 40
0.0
 40
0.0
 40
0.0
 40
0.2
 40
0.2
 40
0.2
 40
0.2
 40
0.4
 40
0.4
 40
0.4
 40
0.4
 40
0.6
 40
0.6
 40
0.6
 40
0.6
 40
1.0
 40
1.0
 40
1.0
 40
1.0
 10
-7.9809
 20
24.1375
 30
0.0
 10
-7.9809
 20
24.1375
 30
0.0
 10
-10.4809
 20
24.4904
 30
0.0
 10
-10.4809
 20
24.4904
 30
0.0
 10
-10.4809
 20
24.4904
 30
0.0
 10
-10.4809
 20
24.4904
 30
0.0
 10
-10.4809
 20
24.5687
 30
0.0
 10
-10.4809
 20
24.5687
 30
0.0
 10
-10.4809
 20
24.5687
 30
0.0
 10
-10.4809
 20
24.5687
 30
0.0
 10
-7.9809
 20
24.945
 30
0.0
 10
-7.9809
 20
24.945
 30
0.0
 10
-7.9809
 20
24.945
 30
0.0
 10
-7.9809
 20
24.945
 30
0.0
 10
-7.9809
 20
24.1375
 30
0.0
 10
-7.9809
 20
24.1375
 30
0.0
  0
SPLINE
  5
62
330
1F
100
AcDbEntity
  8
DEFAULT_1
 62
   250
100
AcDbSpline
210
0.0
220
0.0
230
1.0
 70
    11
 71
     3
 72
    20
 73
    16
 74
     0
 42
0.0000000001
 43
0.0000000001
 40
0.0
 40
0.0
 40
0.0
 40
0.0
 40
0.2
 40
0.2
 40
0.2
 40
0.2
 40
0.4
 40
0.4
 40
0.4
 40
0.4
 40
0.6
 40
0.6
 40
0.6
 40
0.6
 40
1.0
 40
1.0
 40
1.0
 40
1.0
 10
-7.8317
 20
1.0366
 30
0.0
 10
-7.8317
 20
1.0366
 30
0.0
 10
-10.3317
 20
1.3895
 30
0.0
 10
-10.3317
 20
1.3895
 30
0.0
 10
-10.3317
 20
1.3895
 30
0.0
 10
-10.3317
 20
1.3895
 30
0.0
 10
-10.3317
 20
1.4678
 30
0.0
 10
-10.3317
 20
1.4678
 30
0.0
 10
-10.3317
 20
1.4678
 30
0.0
 10
-10.3317
 20
1.4678
 30
0.0
 10
-7.8317
 20
1.8441
 30
0.0
 10
-7.8317
 20
1.8441
 30
0.0
 10
-7.8317
 20
1.8441
 30
0.0
 10
-7.8317
 20
1.8441
 30
0.0
 10
-7.8317
 20
1.0366
 30
0.0
 10
-7.8317
 20
1.0366
 30
0.0
  0
SPLINE
  5
63
330
1F
100
AcDbEntity
  8
DEFAULT_1
 62
   250
100
AcDbSpline
210
0.0
220
0.0
230
1.0
 70
    11
 71
     3
 72
    20
 73
    16
 74
     0
 42
0.0000000001
 43
0.0000000001
 40
0.0
 40
0.0
 40
0.0
 40
0.0
 40
0.2
 40
0.2
 40
0.2
 40
0.2
 40
0.4
 40
0.4
 40
0.4
 40
0.4
 40
0.6
 40
0.6
 40
0.6
 40
0.6
 40
1.0
 40
1.0
 40
1.0
 40
1.0
 10
16.2104
 20
-20.3387
 30
0.0
 10
16.2104
 20
-20.3387
 30
0.0
 10
14.0937
 20
-18.9623
 30
0.0
 10
14.0937
 20
-18.9623
 30
0.0
 10
14.0937
 20
-18.9623
 30
0.0
 10
14.0937
 20
-18.9623
 30
0.0
 10
14.1268
 20
-18.8913
 30
0.0
 10
14.1268
 20
-18.8913
 30
0.0
 10
14.1268
 20
-18.8913
 30
0.0
 10
14.1268
 20
-18.8913
 30
0.0
 10
16.5516
 20
-19.6068
 30
0.0
 10
16.5516
 20
-19.6068
 30
0.0
 10
16.5516
 20
-19.6068
 30
0.0
 10
16.5516
 20
-19.6068
 30
0.0
 10
16.2104
 20
-20.3387
 30
0.0
 10
16.2104
 20
-20.3387
 30
0.0
  0
SPLINE
  5
64
330
1F
100
AcDbEntity
  8
DEFAULT_1
 62
   250
100
AcDbSpline
210
0.0
220
0.0
230
1.0
 70
    11
 71
     3
 72
    20
 73
    16
 74
     0
 42
0.0000000001
 43
0.0000000001
 40
0.0
 40
0.0
 40
0.0
 40
0.0
 40
0.2
 40
0.2
 40
0.2
 40
0.2
 40
0.4
 40
0.4
 40
0.4
 40
0.4
 40
0.6
 40
0.6
 40
0.6
 40
0.6
 40
1.0
 40
1.0
 40
1.0
 40
1.0
 10
-15.1113
 20
7.6309
 30
0.0
 10
-15.1113
 20
7.6309
 30
0.0
 10
-15.4642
 20
5.1309
 30
0.0
 10
-15.4642
 20
5.1309
 30
0.0
 10
-15.4642
 20
5.1309
 30
0.0
 10
-15.4642
 20
5.1309
 30
0.0
 10
-15.5425
 20
5.1309
 30
0.0
 10
-15.5425
 20
5.1309
 30
0.0
 10
-15.5425
 20
5.1309
 30
0.0
 10
-15.5425
 20
5.1309
 30
0.0
 10
-15.9188
 20
7.6309
 30
0.0
 10
-15.9188
 20
7.6309
 30
0.0
 10
-15.9188
 20
7.6309
 30
0.0
 10
-15.9188
 20
7.6309
 30
0.0
 10
-15.1113
 20
7.6309
 30
0.0
 10
-15.1113
 20
7.6309
 30
0.0
  0
SPLINE
  5
65
330
1F
100
AcDbEntity
  8
DEFAULT_1
100
AcDbSpline
210
0.0
220
0.0
230
1.0
 70
    24
 71
     3
 72
     8
 73
     4
 74
     0
 42
0.0000000001
 43
0.0000000001
 40
0.0
 40
0.0
 40
0.0
 40
0.0
 40
1.0
 40
1.0
 40
1.0
 40
1.0
 10
-15.5261
 20
5.0319
 30
0.0
 10
-15.5261
 20
5.0319
 30
0.0
 10
-15.5261
 20
20.9922
 30
0.0
 10
-15.5261
 20
20.9922
 30
0.0
  0
SPLINE
  5
66
330
1F
100
AcDbEntity
  8
DEFAULT_1
100
AcDbSpline
210
0.0
220
0.0
230
1.0
 70
    24
 71
     3
 72
     8
 73
     4
 74
     0
 42
0.0000000001
 43
0.0000000001
 40
0.0
 40
0.0
 40
0.0
 40
0.0
 40
1.0
 40
1.0
 40
1.0
 40
1.0
 10
-10.5434
 20
18.1121
 30
0.0
 10
-10.5434
 20
18.1121
 30
0.0
 10
-10.5434
 20
25.0161
 30
0.0
 10
-10.5434
 20
25.0161
 30
0.0
  0
SPLINE
  5
67
330
1F
100
AcDbEntity
  8
DEFAULT_1
100
AcDbSpline
210
0.0
220
0.0
230
1.0
 70
    24
 71
     3
 72
     8
 73
     4
 74
     0
 42
0.0000000001
 43
0.0000000001
 40
0.0
 40
0.0
 40
0.0
 40
0.0
 40
1.0
 40
1.0
 40
1.0
 40
1.0
 10
-10.3874
 20
5.8387
 30
0.0
 10
-10.3874
 20
5.8387
 30
0.0
 10
-10.3874
 20
0.9249
 30
0.0
 10
-10.3874
 20
0.9249
 30
0.0
  0
SPLINE
  5
68
330
1F
100
AcDbEntity
  8
DEFAULT_1
100
AcDbSpline
210
0.0
220
0.0
230
1.0
 70
    24
 71
     3
 72
     8
 73
     4
 74
     0
 42
0.0000000001
 43
0.0000000001
 40
0.0
 40
0.0
 40
0.0
 40
0.0
 40
1.0
 40
1.0
 40
1.0
 40
1.0
 10
-10.3874
 20
1.4049
 30
0.0
 10
-10.3874
 20
1.4049
 30
0.0
 10
14.5011
 20
1.4049
 30
0.0
 10
14.5011
 20
1.4049
 30
0.0
  0
SPLINE
  5
69
330
1F
100
AcDbEntity
  8
DEFAULT_1
100
AcDbSpline
210
0.0
220
0.0
230
1.0
 70
    24
 71
     3
 72
     8
 73
     4
 74
     0
 42
0.0000000001
 43
0.0000000001
 40
0.0
 40
0.0
 40
0.0
 40
0.0
 40
1.0
 40
1.0
 40
1.0
 40
1.0
 10
-10.0633
 20
5.0319
 30
0.0
 10
-10.0633
 20
5.0319
 30
0.0
 10
-16.0061
 20
5.0319
 30
0.0
 10
-16.0061
 20
5.0319
 30
0.0
  0
SPLINE
  5
6A
330
1F
100
AcDbEntity
  8
DEFAULT_1
100
AcDbSpline
210
0.0
220
0.0
230
1.0
 70
    24
 71
     3
 72
     8
 73
     4
 74
     0
 42
0.0000000001
 43
0.0000000001
 40
0.0
 40
0.0
 40
0.0
 40
0.0
 40
1.0
 40
1.0
 40
1.0
 40
1.0
 10
-11.1434
 20
20.9922
 30
0.0
 10
-11.1434
 20
20.9922
 30
0.0
 10
-16.0061
 20
20.9922
 30
0.0
 10
-16.0061
 20
20.9922
 30
0.0
  0
SPLINE
  5
6B
330
1F
100
AcDbEntity
  8
DEFAULT_1
100
AcDbSpline
210
0.0
220
0.0
230
1.0
 70
    24
 71
     3
 72
     8
 73
     4
 74
     0
 42
0.0000000001
 43
0.0000000001
 40
0.0
 40
0.0
 40
0.0
 40
0.0
 40
1.0
 40
1.0
 40
1.0
 40
1.0
 10
14.5011
 20
5.8387
 30
0.0
 10
14.5011
 20
5.8387
 30
0.0
 10
14.5011
 20
0.9249
 30
0.0
 10
14.5011
 20
0.9249
 30
0.0
  0
SPLINE
  5
6C
330
1F
100
AcDbEntity
  8
DEFAULT_1
100
AcDbSpline
210
0.0
220
0.0
230
1.0
 70
    24
 71
     3
 72
     8
 73
     4
 74
     0
 42
0.0000000001
 43
0.0000000001
 40
0.0
 40
0.0
 40
0.0
 40
0.0
 40
1.0
 40
1.0
 40
1.0
 40
1.0
 10
-10.5434
 20
24.5361
 30
0.0
 10
-10.5434
 20
24.5361
 30
0.0
 10
14.6571
 20
24.5361
 30
0.0
 10
14.6571
 20
24.5361
 30
0.0
  0
SPLINE
  5
6D
330
1F
100
AcDbEntity
  8
DEFAULT_1
100
AcDbSpline
210
0.0
220
0.0
230
1.0
 70
    24
 71
     3
 72
     8
 73
     4
 74
     0
 42
0.0000000001
 43
0.0000000001
 40
0.0
 40
0.0
 40
0.0
 40
0.0
 40
1.0
 40
1.0
 40
1.0
 40
1.0
 10
14.6571
 20
18.1121
 30
0.0
 10
14.6571
 20
18.1121
 30
0.0
 10
14.6571
 20
25.0161
 30
0.0
 10
14.6571
 20
25.0161
 30
0.0
  0
SPLINE
  5
6E
330
1F
100
AcDbEntity
  8
DEFAULT_1
100
AcDbSpline
210
0.0
220
0.0
230
1.0
 70
    24
 71
     3
 72
     8
 73
     4
 74
     0
 42
0.0000000001
 43
0.0000000001
 40
0.0
 40
0.0
 40
0.0
 40
0.0
 40
1.0
 40
1.0
 40
1.0
 40
1.0
 10
-16.9311
 20
-4.5215
 30
0.0
 10
-16.9311
 20
-4.5215
 30
0.0
 10
17.5161
 20
-20.4939
 30
0.0
 10
17.5161
 20
-20.4939
 30
0.0
  0
SPLINE
  5
6F
330
1F
100
AcDbEntity
  8
DEFAULT_1
100
AcDbSpline
210
0.0
220
0.0
230
1.0
 70
    24
 71
     3
 72
     8
 73
     4
 74
     0
 42
0.0000000001
 43
0.0000000001
 40
0.0
 40
0.0
 40
0.0
 40
0.0
 40
1.0
 40
1.0
 40
1.0
 40
1.0
 10
-11.1434
 20
20.667
 30
0.0
 10
-11.1434
 20
20.667
 30
0.0
 10
-10.8183
 20
20.9922
 30
0.0
 10
-10.8183
 20
20.9922
 30
0.0
  0
SPLINE
  5
70
330
1F
100
AcDbEntity
  8
DEFAULT_1
100
AcDbSpline
210
0.0
220
0.0
230
1.0
 70
    24
 71
     3
 72
     8
 73
     4
 74
     0
 42
0.0000000001
 43
0.0000000001
 40
0.0
 40
0.0
 40
0.0
 40
0.0
 40
1.0
 40
1.0
 40
1.0
 40
1.0
 10
-11.1434
 20
20.2943
 30
0.0
 10
-11.1434
 20
20.2943
 30
0.0
 10
-10.6544
 20
20.7833
 30
0.0
 10
-10.6544
 20
20.7833
 30
0.0
  0
SPLINE
  5
71
330
1F
100
AcDbEntity
  8
DEFAULT_1
100
AcDbSpline
210
0.0
220
0.0
230
1.0
 70
    24
 71
     3
 72
     8
 73
     4
 74
     0
 42
0.0000000001
 43
0.0000000001
 40
0.0
 40
0.0
 40
0.0
 40
0.0
 40
1.0
 40
1.0
 40
1.0
 40
1.0
 10
-11.1434
 20
19.9216
 30
0.0
 10
-11.1434
 20
19.9216
 30
0.0
 10
-10.5642
 20
20.5008
 30
0.0
 10
-10.5642
 20
20.5008
 30
0.0
  0
SPLINE
  5
72
330
1F
100
AcDbEntity
  8
DEFAULT_1
100
AcDbSpline
210
0.0
220
0.0
230
1.0
 70
    24
 71
     3
 72
     8
 73
     4
 74
     0
 42
0.0000000001
 43
0.0000000001
 40
0.0
 40
0.0
 40
0.0
 40
0.0
 40
1.0
 40
1.0
 40
1.0
 40
1.0
 10
-11.1434
 20
19.5489
 30
0.0
 10
-11.1434
 20
19.5489
 30
0.0
 10
-10.561
 20
20.1313
 30
0.0
 10
-10.561
 20
20.1313
 30
0.0
  0
SPLINE
  5
73
330
1F
100
AcDbEntity
  8
DEFAULT_1
100
AcDbSpline
210
0.0
220
0.0
230
1.0
 70
    24
 71
     3
 72
     8
 73
     4
 74
     0
 42
0.0000000001
 43
0.0000000001
 40
0.0
 40
0.0
 40
0.0
 40
0.0
 40
1.0
 40
1.0
 40
1.0
 40
1.0
 10
-11.1434
 20
19.1763
 30
0.0
 10
-11.1434
 20
19.1763
 30
0.0
 10
-10.5578
 20
19.7619
 30
0.0
 10
-10.5578
 20
19.7619
 30
0.0
  0
SPLINE
  5
74
330
1F
100
AcDbEntity
  8
DEFAULT_1
100
AcDbSpline
210
0.0
220
0.0
230
1.0
 70
    24
 71
     3
 72
     8
 73
     4
 74
     0
 42
0.0000000001
 43
0.0000000001
 40
0.0
 40
0.0
 40
0.0
 40
0.0
 40
1.0
 40
1.0
 40
1.0
 40
1.0
 10
-11.1434
 20
18.8035
 30
0.0
 10
-11.1434
 20
18.8035
 30
0.0
 10
-10.5545
 20
19.3924
 30
0.0
 10
-10.5545
 20
19.3924
 30
0.0
  0
SPLINE
  5
75
330
1F
100
AcDbEntity
  8
DEFAULT_1
100
AcDbSpline
210
0.0
220
0.0
230
1.0
 70
    24
 71
     3
 72
     8
 73
     4
 74
     0
 42
0.0000000001
 43
0.0000000001
 40
0.0
 40
0.0
 40
0.0
 40
0.0
 40
1.0
 40
1.0
 40
1.0
 40
1.0
 10
-11.1434
 20
18.4309
 30
0.0
 10
-11.1434
 20
18.4309
 30
0.0
 10
-10.5513
 20
19.0229
 30
0.0
 10
-10.5513
 20
19.0229
 30
0.0
  0
SPLINE
  5
76
330
1F
100
AcDbEntity
  8
DEFAULT_1
100
AcDbSpline
210
0.0
220
0.0
230
1.0
 70
    24
 71
     3
 72
     8
 73
     4
 74
     0
 42
0.0000000001
 43
0.0000000001
 40
0.0
 40
0.0
 40
0.0
 40
0.0
 40
1.0
 40
1.0
 40
1.0
 40
1.0
 10
-11.1434
 20
18.0581
 30
0.0
 10
-11.1434
 20
18.0581
 30
0.0
 10
-10.5481
 20
18.6534
 30
0.0
 10
-10.5481
 20
18.6534
 30
0.0
  0
SPLINE
  5
77
330
1F
100
AcDbEntity
  8
DEFAULT_1
100
AcDbSpline
210
0.0
220
0.0
230
1.0
 70
    24
 71
     3
 72
     8
 73
     4
 74
     0
 42
0.0000000001
 43
0.0000000001
 40
0.0
 40
0.0
 40
0.0
 40
0.0
 40
1.0
 40
1.0
 40
1.0
 40
1.0
 10
-11.1434
 20
17.6855
 30
0.0
 10
-11.1434
 20
17.6855
 30
0.0
 10
-10.5449
 20
18.284
 30
0.0
 10
-10.5449
 20
18.284
 30
0.0
  0
SPLINE
  5
78
330
1F
100
AcDbEntity
  8
DEFAULT_1
100
AcDbSpline
210
0.0
220
0.0
230
1.0
 70
    24
 71
     3
 72
     8
 73
     4
 74
     0
 42
0.0000000001
 43
0.0000000001
 40
0.0
 40
0.0
 40
0.0
 40
0.0
 40
1.0
 40
1.0
 40
1.0
 40
1.0
 10
-10.9345
 20
17.5217
 30
0.0
 10
-10.9345
 20
17.5217
 30
0.0
 10
-10.344
 20
18.1121
 30
0.0
 10
-10.344
 20
18.1121
 30
0.0
  0
SPLINE
  5
79
330
1F
100
AcDbEntity
  8
DEFAULT_1
100
AcDbSpline
210
0.0
220
0.0
230
1.0
 70
    24
 71
     3
 72
     8
 73
     4
 74
     0
 42
0.0000000001
 43
0.0000000001
 40
0.0
 40
0.0
 40
0.0
 40
0.0
 40
1.0
 40
1.0
 40
1.0
 40
1.0
 10
-10.5682
 20
17.5152
 30
0.0
 10
-10.5682
 20
17.5152
 30
0.0
 10
-9.9713
 20
18.1121
 30
0.0
 10
-9.9713
 20
18.1121
 30
0.0
  0
SPLINE
  5
7A
330
1F
100
AcDbEntity
  8
DEFAULT_1
100
AcDbSpline
210
0.0
220
0.0
230
1.0
 70
    24
 71
     3
 72
     8
 73
     4
 74
     0
 42
0.0000000001
 43
0.0000000001
 40
0.0
 40
0.0
 40
0.0
 40
0.0
 40
1.0
 40
1.0
 40
1.0
 40
1.0
 10
-10.3874
 20
17.3234
 30
0.0
 10
-10.3874
 20
17.3234
 30
0.0
 10
-9.7386
 20
17.9721
 30
0.0
 10
-9.7386
 20
17.9721
 30
0.0
  0
SPLINE
  5
7B
330
1F
100
AcDbEntity
  8
DEFAULT_1
100
AcDbSpline
210
0.0
220
0.0
230
1.0
 70
    24
 71
     3
 72
     8
 73
     4
 74
     0
 42
0.0000000001
 43
0.0000000001
 40
0.0
 40
0.0
 40
0.0
 40
0.0
 40
1.0
 40
1.0
 40
1.0
 40
1.0
 10
-10.3874
 20
16.9507
 30
0.0
 10
-10.3874
 20
16.9507
 30
0.0
 10
-9.7367
 20
17.6014
 30
0.0
 10
-9.7367
 20
17.6014
 30
0.0
  0
SPLINE
  5
7C
330
1F
100
AcDbEntity
  8
DEFAULT_1
100
AcDbSpline
210
0.0
220
0.0
230
1.0
 70
    24
 71
     3
 72
     8
 73
     4
 74
     0
 42
0.0000000001
 43
0.0000000001
 40
0.0
 40
0.0
 40
0.0
 40
0.0
 40
1.0
 40
1.0
 40
1.0
 40
1.0
 10
-10.3874
 20
16.578
 30
0.0
 10
-10.3874
 20
16.578
 30
0.0
 10
-9.7347
 20
17.2306
 30
0.0
 10
-9.7347
 20
17.2306
 30
0.0
  0
SPLINE
  5
7D
330
1F
100
AcDbEntity
  8
DEFAULT_1
100
AcDbSpline
210
0.0
220
0.0
230
1.0
 70
    24
 71
     3
 72
     8
 73
     4
 74
     0
 42
0.0000000001
 43
0.0000000001
 40
0.0
 40
0.0
 40
0.0
 40
0.0
 40
1.0
 40
1.0
 40
1.0
 40
1.0
 10
-10.3874
 20
16.2053
 30
0.0
 10
-10.3874
 20
16.2053
 30
0.0
 10
-9.7328
 20
16.8598
 30
0.0
 10
-9.7328
 20
16.8598
 30
0.0
  0
SPLINE
  5
7E
330
1F
100
AcDbEntity
  8
DEFAULT_1
100
AcDbSpline
210
0.0
220
0.0
230
1.0
 70
    24
 71
     3
 72
     8
 73
     4
 74
     0
 42
0.0000000001
 43
0.0000000001
 40
0.0
 40
0.0
 40
0.0
 40
0.0
 40
1.0
 40
1.0
 40
1.0
 40
1.0
 10
-10.3874
 20
15.8326
 30
0.0
 10
-10.3874
 20
15.8326
 30
0.0
 10
-9.7308
 20
16.4891
 30
0.0
 10
-9.7308
 20
16.4891
 30
0.0
  0
SPLINE
  5
7F
330
1F
100
AcDbEntity
  8
DEFAULT_1
100
AcDbSpline
210
0.0
220
0.0
230
1.0
 70
    24
 71
     3
 72
     8
 73
     4
 74
     0
 42
0.0000000001
 43
0.0000000001
 40
0.0
 40
0.0
 40
0.0
 40
0.0
 40
1.0
 40
1.0
 40
1.0
 40
1.0
 10
-10.3874
 20
15.4599
 30
0.0
 10
-10.3874
 20
15.4599
 30
0.0
 10
-9.7289
 20
16.1183
 30
0.0
 10
-9.7289
 20
16.1183
 30
0.0
  0
SPLINE
  5
80
330
1F
100
AcDbEntity
  8
DEFAULT_1
100
AcDbSpline
210
0.0
220
0.0
230
1.0
 70
    24
 71
     3
 72
     8
 73
     4
 74
     0
 42
0.0000000001
 43
0.0000000001
 40
0.0
 40
0.0
 40
0.0
 40
0.0
 40
1.0
 40
1.0
 40
1.0
 40
1.0
 10
-10.11
 20
15.3646
 30
0.0
 10
-10.11
 20
15.3646
 30
0.0
 10
-9.727
 20
15.7476
 30
0.0
 10
-9.727
 20
15.7476
 30
0.0
  0
SPLINE
  5
81
330
1F
100
AcDbEntity
  8
DEFAULT_1
100
AcDbSpline
210
0.0
220
0.0
230
1.0
 70
    24
 71
     3
 72
     8
 73
     4
 74
     0
 42
0.0000000001
 43
0.0000000001
 40
0.0
 40
0.0
 40
0.0
 40
0.0
 40
1.0
 40
1.0
 40
1.0
 40
1.0
 10
-10.0633
 20
15.0385
 30
0.0
 10
-10.0633
 20
15.0385
 30
0.0
 10
-9.725
 20
15.3768
 30
0.0
 10
-9.725
 20
15.3768
 30
0.0
  0
SPLINE
  5
82
330
1F
100
AcDbEntity
  8
DEFAULT_1
100
AcDbSpline
210
0.0
220
0.0
230
1.0
 70
    24
 71
     3
 72
     8
 73
     4
 74
     0
 42
0.0000000001
 43
0.0000000001
 40
0.0
 40
0.0
 40
0.0
 40
0.0
 40
1.0
 40
1.0
 40
1.0
 40
1.0
 10
-10.2793
 20
14.4499
 30
0.0
 10
-10.2793
 20
14.4499
 30
0.0
 10
-9.7231
 20
15.006
 30
0.0
 10
-9.7231
 20
15.006
 30
0.0
  0
SPLINE
  5
83
330
1F
100
AcDbEntity
  8
DEFAULT_1
100
AcDbSpline
210
0.0
220
0.0
230
1.0
 70
    24
 71
     3
 72
     8
 73
     4
 74
     0
 42
0.0000000001
 43
0.0000000001
 40
0.0
 40
0.0
 40
0.0
 40
0.0
 40
1.0
 40
1.0
 40
1.0
 40
1.0
 10
-10.0633
 20
14.2931
 30
0.0
 10
-10.0633
 20
14.2931
 30
0.0
 10
-9.7212
 20
14.6353
 30
0.0
 10
-9.7212
 20
14.6353
 30
0.0
  0
SPLINE
  5
84
330
1F
100
AcDbEntity
  8
DEFAULT_1
100
AcDbSpline
210
0.0
220
0.0
230
1.0
 70
    24
 71
     3
 72
     8
 73
     4
 74
     0
 42
0.0000000001
 43
0.0000000001
 40
0.0
 40
0.0
 40
0.0
 40
0.0
 40
1.0
 40
1.0
 40
1.0
 40
1.0
 10
-10.3874
 20
13.5964
 30
0.0
 10
-10.3874
 20
13.5964
 30
0.0
 10
-10.2387
 20
13.7451
 30
0.0
 10
-10.2387
 20
13.7451
 30
0.0
  0
SPLINE
  5
85
330
1F
100
AcDbEntity
  8
DEFAULT_1
100
AcDbSpline
210
0.0
220
0.0
230
1.0
 70
    24
 71
     3
 72
     8
 73
     4
 74
     0
 42
0.0000000001
 43
0.0000000001
 40
0.0
 40
0.0
 40
0.0
 40
0.0
 40
1.0
 40
1.0
 40
1.0
 40
1.0
 10
-10.0633
 20
13.9204
 30
0.0
 10
-10.0633
 20
13.9204
 30
0.0
 10
-9.7192
 20
14.2645
 30
0.0
 10
-9.7192
 20
14.2645
 30
0.0
  0
SPLINE
  5
86
330
1F
100
AcDbEntity
  8
DEFAULT_1
100
AcDbSpline
210
0.0
220
0.0
230
1.0
 70
    24
 71
     3
 72
     8
 73
     4
 74
     0
 42
0.0000000001
 43
0.0000000001
 40
0.0
 40
0.0
 40
0.0
 40
0.0
 40
1.0
 40
1.0
 40
1.0
 40
1.0
 10
-10.1546
 20
13.4565
 30
0.0
 10
-10.1546
 20
13.4565
 30
0.0
 10
-9.7173
 20
13.8938
 30
0.0
 10
-9.7173
 20
13.8938
 30
0.0
  0
SPLINE
  5
87
330
1F
100
AcDbEntity
  8
DEFAULT_1
100
AcDbSpline
210
0.0
220
0.0
230
1.0
 70
    24
 71
     3
 72
     8
 73
     4
 74
     0
 42
0.0000000001
 43
0.0000000001
 40
0.0
 40
0.0
 40
0.0
 40
0.0
 40
1.0
 40
1.0
 40
1.0
 40
1.0
 10
-10.0633
 20
13.175
 30
0.0
 10
-10.0633
 20
13.175
 30
0.0
 10
-9.7153
 20
13.523
 30
0.0
 10
-9.7153
 20
13.523
 30
0.0
  0
SPLINE
  5
88
330
1F
100
AcDbEntity
  8
DEFAULT_1
100
AcDbSpline
210
0.0
220
0.0
230
1.0
 70
    24
 71
     3
 72
     8
 73
     4
 74
     0
 42
0.0000000001
 43
0.0000000001
 40
0.0
 40
0.0
 40
0.0
 40
0.0
 40
1.0
 40
1.0
 40
1.0
 40
1.0
 10
-10.3238
 20
12.5418
 30
0.0
 10
-10.3238
 20
12.5418
 30
0.0
 10
-9.7134
 20
13.1523
 30
0.0
 10
-9.7134
 20
13.1523
 30
0.0
  0
SPLINE
  5
89
330
1F
100
AcDbEntity
  8
DEFAULT_1
100
AcDbSpline
210
0.0
220
0.0
230
1.0
 70
    24
 71
     3
 72
     8
 73
     4
 74
     0
 42
0.0000000001
 43
0.0000000001
 40
0.0
 40
0.0
 40
0.0
 40
0.0
 40
1.0
 40
1.0
 40
1.0
 40
1.0
 10
-10.0633
 20
12.4296
 30
0.0
 10
-10.0633
 20
12.4296
 30
0.0
 10
-9.7115
 20
12.7815
 30
0.0
 10
-9.7115
 20
12.7815
 30
0.0
  0
SPLINE
  5
8A
330
1F
100
AcDbEntity
  8
DEFAULT_1
100
AcDbSpline
210
0.0
220
0.0
230
1.0
 70
    24
 71
     3
 72
     8
 73
     4
 74
     0
 42
0.0000000001
 43
0.0000000001
 40
0.0
 40
0.0
 40
0.0
 40
0.0
 40
1.0
 40
1.0
 40
1.0
 40
1.0
 10
-10.0633
 20
12.0569
 30
0.0
 10
-10.0633
 20
12.0569
 30
0.0
 10
-9.7095
 20
12.4107
 30
0.0
 10
-9.7095
 20
12.4107
 30
0.0
  0
SPLINE
  5
8B
330
1F
100
AcDbEntity
  8
DEFAULT_1
100
AcDbSpline
210
0.0
220
0.0
230
1.0
 70
    24
 71
     3
 72
     8
 73
     4
 74
     0
 42
0.0000000001
 43
0.0000000001
 40
0.0
 40
0.0
 40
0.0
 40
0.0
 40
1.0
 40
1.0
 40
1.0
 40
1.0
 10
-10.1991
 20
11.5484
 30
0.0
 10
-10.1991
 20
11.5484
 30
0.0
 10
-9.7076
 20
12.04
 30
0.0
 10
-9.7076
 20
12.04
 30
0.0
  0
SPLINE
  5
8C
330
1F
100
AcDbEntity
  8
DEFAULT_1
100
AcDbSpline
210
0.0
220
0.0
230
1.0
 70
    24
 71
     3
 72
     8
 73
     4
 74
     0
 42
0.0000000001
 43
0.0000000001
 40
0.0
 40
0.0
 40
0.0
 40
0.0
 40
1.0
 40
1.0
 40
1.0
 40
1.0
 10
-10.0633
 20
11.3115
 30
0.0
 10
-10.0633
 20
11.3115
 30
0.0
 10
-9.7056
 20
11.6692
 30
0.0
 10
-9.7056
 20
11.6692
 30
0.0
  0
SPLINE
  5
8D
330
1F
100
AcDbEntity
  8
DEFAULT_1
100
AcDbSpline
210
0.0
220
0.0
230
1.0
 70
    24
 71
     3
 72
     8
 73
     4
 74
     0
 42
0.0000000001
 43
0.0000000001
 40
0.0
 40
0.0
 40
0.0
 40
0.0
 40
1.0
 40
1.0
 40
1.0
 40
1.0
 10
-10.3684
 20
10.6337
 30
0.0
 10
-10.3684
 20
10.6337
 30
0.0
 10
-10.1
 20
10.9022
 30
0.0
 10
-10.1
 20
10.9022
 30
0.0
  0
SPLINE
  5
8E
330
1F
100
AcDbEntity
  8
DEFAULT_1
100
AcDbSpline
210
0.0
220
0.0
230
1.0
 70
    24
 71
     3
 72
     8
 73
     4
 74
     0
 42
0.0000000001
 43
0.0000000001
 40
0.0
 40
0.0
 40
0.0
 40
0.0
 40
1.0
 40
1.0
 40
1.0
 40
1.0
 10
-10.0633
 20
10.9388
 30
0.0
 10
-10.0633
 20
10.9388
 30
0.0
 10
-9.7037
 20
11.2985
 30
0.0
 10
-9.7037
 20
11.2985
 30
0.0
  0
SPLINE
  5
8F
330
1F
100
AcDbEntity
  8
DEFAULT_1
100
AcDbSpline
210
0.0
220
0.0
230
1.0
 70
    24
 71
     3
 72
     8
 73
     4
 74
     0
 42
0.0000000001
 43
0.0000000001
 40
0.0
 40
0.0
 40
0.0
 40
0.0
 40
1.0
 40
1.0
 40
1.0
 40
1.0
 10
-10.0745
 20
10.555
 30
0.0
 10
-10.0745
 20
10.555
 30
0.0
 10
-9.7018
 20
10.9277
 30
0.0
 10
-9.7018
 20
10.9277
 30
0.0
  0
SPLINE
  5
90
330
1F
100
AcDbEntity
  8
DEFAULT_1
100
AcDbSpline
210
0.0
220
0.0
230
1.0
 70
    24
 71
     3
 72
     8
 73
     4
 74
     0
 42
0.0000000001
 43
0.0000000001
 40
0.0
 40
0.0
 40
0.0
 40
0.0
 40
1.0
 40
1.0
 40
1.0
 40
1.0
 10
-10.0633
 20
10.1934
 30
0.0
 10
-10.0633
 20
10.1934
 30
0.0
 10
-9.6998
 20
10.5569
 30
0.0
 10
-9.6998
 20
10.5569
 30
0.0
  0
SPLINE
  5
91
330
1F
100
AcDbEntity
  8
DEFAULT_1
100
AcDbSpline
210
0.0
220
0.0
230
1.0
 70
    24
 71
     3
 72
     8
 73
     4
 74
     0
 42
0.0000000001
 43
0.0000000001
 40
0.0
 40
0.0
 40
0.0
 40
0.0
 40
1.0
 40
1.0
 40
1.0
 40
1.0
 10
-10.2437
 20
9.6403
 30
0.0
 10
-10.2437
 20
9.6403
 30
0.0
 10
-9.6979
 20
10.1862
 30
0.0
 10
-9.6979
 20
10.1862
 30
0.0
  0
SPLINE
  5
92
330
1F
100
AcDbEntity
  8
DEFAULT_1
100
AcDbSpline
210
0.0
220
0.0
230
1.0
 70
    24
 71
     3
 72
     8
 73
     4
 74
     0
 42
0.0000000001
 43
0.0000000001
 40
0.0
 40
0.0
 40
0.0
 40
0.0
 40
1.0
 40
1.0
 40
1.0
 40
1.0
 10
-10.0633
 20
9.448
 30
0.0
 10
-10.0633
 20
9.448
 30
0.0
 10
-9.6959
 20
9.8154
 30
0.0
 10
-9.6959
 20
9.8154
 30
0.0
  0
SPLINE
  5
93
330
1F
100
AcDbEntity
  8
DEFAULT_1
100
AcDbSpline
210
0.0
220
0.0
230
1.0
 70
    24
 71
     3
 72
     8
 73
     4
 74
     0
 42
0.0000000001
 43
0.0000000001
 40
0.0
 40
0.0
 40
0.0
 40
0.0
 40
1.0
 40
1.0
 40
1.0
 40
1.0
 10
-10.3874
 20
8.7513
 30
0.0
 10
-10.3874
 20
8.7513
 30
0.0
 10
-10.1772
 20
8.9614
 30
0.0
 10
-10.1772
 20
8.9614
 30
0.0
  0
SPLINE
  5
94
330
1F
100
AcDbEntity
  8
DEFAULT_1
100
AcDbSpline
210
0.0
220
0.0
230
1.0
 70
    24
 71
     3
 72
     8
 73
     4
 74
     0
 42
0.0000000001
 43
0.0000000001
 40
0.0
 40
0.0
 40
0.0
 40
0.0
 40
1.0
 40
1.0
 40
1.0
 40
1.0
 10
-10.0633
 20
9.0753
 30
0.0
 10
-10.0633
 20
9.0753
 30
0.0
 10
-9.694
 20
9.4447
 30
0.0
 10
-9.694
 20
9.4447
 30
0.0
  0
SPLINE
  5
95
330
1F
100
AcDbEntity
  8
DEFAULT_1
100
AcDbSpline
210
0.0
220
0.0
230
1.0
 70
    24
 71
     3
 72
     8
 73
     4
 74
     0
 42
0.0000000001
 43
0.0000000001
 40
0.0
 40
0.0
 40
0.0
 40
0.0
 40
1.0
 40
1.0
 40
1.0
 40
1.0
 10
-10.1191
 20
8.6469
 30
0.0
 10
-10.1191
 20
8.6469
 30
0.0
 10
-9.692
 20
9.0739
 30
0.0
 10
-9.692
 20
9.0739
 30
0.0
  0
SPLINE
  5
96
330
1F
100
AcDbEntity
  8
DEFAULT_1
100
AcDbSpline
210
0.0
220
0.0
230
1.0
 70
    24
 71
     3
 72
     8
 73
     4
 74
     0
 42
0.0000000001
 43
0.0000000001
 40
0.0
 40
0.0
 40
0.0
 40
0.0
 40
1.0
 40
1.0
 40
1.0
 40
1.0
 10
-10.0633
 20
8.3299
 30
0.0
 10
-10.0633
 20
8.3299
 30
0.0
 10
-9.6901
 20
8.7032
 30
0.0
 10
-9.6901
 20
8.7032
 30
0.0
  0
SPLINE
  5
97
330
1F
100
AcDbEntity
  8
DEFAULT_1
100
AcDbSpline
210
0.0
220
0.0
230
1.0
 70
    24
 71
     3
 72
     8
 73
     4
 74
     0
 42
0.0000000001
 43
0.0000000001
 40
0.0
 40
0.0
 40
0.0
 40
0.0
 40
1.0
 40
1.0
 40
1.0
 40
1.0
 10
-10.2883
 20
7.7322
 30
0.0
 10
-10.2883
 20
7.7322
 30
0.0
 10
-9.6882
 20
8.3324
 30
0.0
 10
-9.6882
 20
8.3324
 30
0.0
  0
SPLINE
  5
98
330
1F
100
AcDbEntity
  8
DEFAULT_1
100
AcDbSpline
210
0.0
220
0.0
230
1.0
 70
    24
 71
     3
 72
     8
 73
     4
 74
     0
 42
0.0000000001
 43
0.0000000001
 40
0.0
 40
0.0
 40
0.0
 40
0.0
 40
1.0
 40
1.0
 40
1.0
 40
1.0
 10
-10.0633
 20
7.5845
 30
0.0
 10
-10.0633
 20
7.5845
 30
0.0
 10
-9.6862
 20
7.9616
 30
0.0
 10
-9.6862
 20
7.9616
 30
0.0
  0
SPLINE
  5
99
330
1F
100
AcDbEntity
  8
DEFAULT_1
100
AcDbSpline
210
0.0
220
0.0
230
1.0
 70
    24
 71
     3
 72
     8
 73
     4
 74
     0
 42
0.0000000001
 43
0.0000000001
 40
0.0
 40
0.0
 40
0.0
 40
0.0
 40
1.0
 40
1.0
 40
1.0
 40
1.0
 10
-10.3874
 20
6.8878
 30
0.0
 10
-10.3874
 20
6.8878
 30
0.0
 10
-10.2544
 20
7.0207
 30
0.0
 10
-10.2544
 20
7.0207
 30
0.0
  0
SPLINE
  5
9A
330
1F
100
AcDbEntity
  8
DEFAULT_1
100
AcDbSpline
210
0.0
220
0.0
230
1.0
 70
    24
 71
     3
 72
     8
 73
     4
 74
     0
 42
0.0000000001
 43
0.0000000001
 40
0.0
 40
0.0
 40
0.0
 40
0.0
 40
1.0
 40
1.0
 40
1.0
 40
1.0
 10
-10.0633
 20
7.2118
 30
0.0
 10
-10.0633
 20
7.2118
 30
0.0
 10
-9.6843
 20
7.5909
 30
0.0
 10
-9.6843
 20
7.5909
 30
0.0
  0
SPLINE
  5
9B
330
1F
100
AcDbEntity
  8
DEFAULT_1
100
AcDbSpline
210
0.0
220
0.0
230
1.0
 70
    24
 71
     3
 72
     8
 73
     4
 74
     0
 42
0.0000000001
 43
0.0000000001
 40
0.0
 40
0.0
 40
0.0
 40
0.0
 40
1.0
 40
1.0
 40
1.0
 40
1.0
 10
-10.1637
 20
6.7388
 30
0.0
 10
-10.1637
 20
6.7388
 30
0.0
 10
-9.6823
 20
7.2201
 30
0.0
 10
-9.6823
 20
7.2201
 30
0.0
  0
SPLINE
  5
9C
330
1F
100
AcDbEntity
  8
DEFAULT_1
100
AcDbSpline
210
0.0
220
0.0
230
1.0
 70
    24
 71
     3
 72
     8
 73
     4
 74
     0
 42
0.0000000001
 43
0.0000000001
 40
0.0
 40
0.0
 40
0.0
 40
0.0
 40
1.0
 40
1.0
 40
1.0
 40
1.0
 10
-10.0633
 20
6.4664
 30
0.0
 10
-10.0633
 20
6.4664
 30
0.0
 10
-9.6804
 20
6.8494
 30
0.0
 10
-9.6804
 20
6.8494
 30
0.0
  0
SPLINE
  5
9D
330
1F
100
AcDbEntity
  8
DEFAULT_1
100
AcDbSpline
210
0.0
220
0.0
230
1.0
 70
    24
 71
     3
 72
     8
 73
     4
 74
     0
 42
0.0000000001
 43
0.0000000001
 40
0.0
 40
0.0
 40
0.0
 40
0.0
 40
1.0
 40
1.0
 40
1.0
 40
1.0
 10
-10.3329
 20
5.8242
 30
0.0
 10
-10.3329
 20
5.8242
 30
0.0
 10
-9.6784
 20
6.4787
 30
0.0
 10
-9.6784
 20
6.4787
 30
0.0
  0
SPLINE
  5
9E
330
1F
100
AcDbEntity
  8
DEFAULT_1
100
AcDbSpline
210
0.0
220
0.0
230
1.0
 70
    24
 71
     3
 72
     8
 73
     4
 74
     0
 42
0.0000000001
 43
0.0000000001
 40
0.0
 40
0.0
 40
0.0
 40
0.0
 40
1.0
 40
1.0
 40
1.0
 40
1.0
 10
-10.0633
 20
5.721
 30
0.0
 10
-10.0633
 20
5.721
 30
0.0
 10
-9.6765
 20
6.1078
 30
0.0
 10
-9.6765
 20
6.1078
 30
0.0
  0
SPLINE
  5
9F
330
1F
100
AcDbEntity
  8
DEFAULT_1
100
AcDbSpline
210
0.0
220
0.0
230
1.0
 70
    24
 71
     3
 72
     8
 73
     4
 74
     0
 42
0.0000000001
 43
0.0000000001
 40
0.0
 40
0.0
 40
0.0
 40
0.0
 40
1.0
 40
1.0
 40
1.0
 40
1.0
 10
-10.0633
 20
5.3483
 30
0.0
 10
-10.0633
 20
5.3483
 30
0.0
 10
-9.6746
 20
5.7371
 30
0.0
 10
-9.6746
 20
5.7371
 30
0.0
  0
SPLINE
  5
A0
330
1F
100
AcDbEntity
  8
DEFAULT_1
100
AcDbSpline
210
0.0
220
0.0
230
1.0
 70
    24
 71
     3
 72
     8
 73
     4
 74
     0
 42
0.0000000001
 43
0.0000000001
 40
0.0
 40
0.0
 40
0.0
 40
0.0
 40
1.0
 40
1.0
 40
1.0
 40
1.0
 10
-10.0071
 20
5.0319
 30
0.0
 10
-10.0071
 20
5.0319
 30
0.0
 10
-9.6726
 20
5.3664
 30
0.0
 10
-9.6726
 20
5.3664
 30
0.0
  0
SPLINE
  5
A1
330
1F
100
AcDbEntity
  8
DEFAULT_1
100
AcDbSpline
210
0.0
220
0.0
230
1.0
 70
    24
 71
     3
 72
     8
 73
     4
 74
     0
 42
0.0000000001
 43
0.0000000001
 40
0.0
 40
0.0
 40
0.0
 40
0.0
 40
1.0
 40
1.0
 40
1.0
 40
1.0
 10
14.677
 20
20.3985
 30
0.0
 10
14.677
 20
20.3985
 30
0.0
 10
15.2571
 20
20.9786
 30
0.0
 10
15.2571
 20
20.9786
 30
0.0
  0
SPLINE
  5
A2
330
1F
100
AcDbEntity
  8
DEFAULT_1
100
AcDbSpline
210
0.0
220
0.0
230
1.0
 70
    24
 71
     3
 72
     8
 73
     4
 74
     0
 42
0.0000000001
 43
0.0000000001
 40
0.0
 40
0.0
 40
0.0
 40
0.0
 40
1.0
 40
1.0
 40
1.0
 40
1.0
 10
14.6737
 20
20.0226
 30
0.0
 10
14.6737
 20
20.0226
 30
0.0
 10
15.2571
 20
20.6059
 30
0.0
 10
15.2571
 20
20.6059
 30
0.0
  0
SPLINE
  5
A3
330
1F
100
AcDbEntity
  8
DEFAULT_1
100
AcDbSpline
210
0.0
220
0.0
230
1.0
 70
    24
 71
     3
 72
     8
 73
     4
 74
     0
 42
0.0000000001
 43
0.0000000001
 40
0.0
 40
0.0
 40
0.0
 40
0.0
 40
1.0
 40
1.0
 40
1.0
 40
1.0
 10
14.6705
 20
19.6466
 30
0.0
 10
14.6705
 20
19.6466
 30
0.0
 10
15.2571
 20
20.2332
 30
0.0
 10
15.2571
 20
20.2332
 30
0.0
  0
SPLINE
  5
A4
330
1F
100
AcDbEntity
  8
DEFAULT_1
100
AcDbSpline
210
0.0
220
0.0
230
1.0
 70
    24
 71
     3
 72
     8
 73
     4
 74
     0
 42
0.0000000001
 43
0.0000000001
 40
0.0
 40
0.0
 40
0.0
 40
0.0
 40
1.0
 40
1.0
 40
1.0
 40
1.0
 10
14.6672
 20
19.2706
 30
0.0
 10
14.6672
 20
19.2706
 30
0.0
 10
15.2571
 20
19.8605
 30
0.0
 10
15.2571
 20
19.8605
 30
0.0
  0
SPLINE
  5
A5
330
1F
100
AcDbEntity
  8
DEFAULT_1
100
AcDbSpline
210
0.0
220
0.0
230
1.0
 70
    24
 71
     3
 72
     8
 73
     4
 74
     0
 42
0.0000000001
 43
0.0000000001
 40
0.0
 40
0.0
 40
0.0
 40
0.0
 40
1.0
 40
1.0
 40
1.0
 40
1.0
 10
14.6639
 20
18.8946
 30
0.0
 10
14.6639
 20
18.8946
 30
0.0
 10
15.2571
 20
19.4878
 30
0.0
 10
15.2571
 20
19.4878
 30
0.0
  0
SPLINE
  5
A6
330
1F
100
AcDbEntity
  8
DEFAULT_1
100
AcDbSpline
210
0.0
220
0.0
230
1.0
 70
    24
 71
     3
 72
     8
 73
     4
 74
     0
 42
0.0000000001
 43
0.0000000001
 40
0.0
 40
0.0
 40
0.0
 40
0.0
 40
1.0
 40
1.0
 40
1.0
 40
1.0
 10
13.8509
 20
17.709
 30
0.0
 10
13.8509
 20
17.709
 30
0.0
 10
14.2541
 20
18.1121
 30
0.0
 10
14.2541
 20
18.1121
 30
0.0
  0
SPLINE
  5
A7
330
1F
100
AcDbEntity
  8
DEFAULT_1
100
AcDbSpline
210
0.0
220
0.0
230
1.0
 70
    24
 71
     3
 72
     8
 73
     4
 74
     0
 42
0.0000000001
 43
0.0000000001
 40
0.0
 40
0.0
 40
0.0
 40
0.0
 40
1.0
 40
1.0
 40
1.0
 40
1.0
 10
14.6606
 20
18.5186
 30
0.0
 10
14.6606
 20
18.5186
 30
0.0
 10
15.2571
 20
19.1151
 30
0.0
 10
15.2571
 20
19.1151
 30
0.0
  0
SPLINE
  5
A8
330
1F
100
AcDbEntity
  8
DEFAULT_1
100
AcDbSpline
210
0.0
220
0.0
230
1.0
 70
    24
 71
     3
 72
     8
 73
     4
 74
     0
 42
0.0000000001
 43
0.0000000001
 40
0.0
 40
0.0
 40
0.0
 40
0.0
 40
1.0
 40
1.0
 40
1.0
 40
1.0
 10
13.849
 20
17.3343
 30
0.0
 10
13.849
 20
17.3343
 30
0.0
 10
14.6268
 20
18.1121
 30
0.0
 10
14.6268
 20
18.1121
 30
0.0
  0
SPLINE
  5
A9
330
1F
100
AcDbEntity
  8
DEFAULT_1
100
AcDbSpline
210
0.0
220
0.0
230
1.0
 70
    24
 71
     3
 72
     8
 73
     4
 74
     0
 42
0.0000000001
 43
0.0000000001
 40
0.0
 40
0.0
 40
0.0
 40
0.0
 40
1.0
 40
1.0
 40
1.0
 40
1.0
 10
14.6573
 20
18.1427
 30
0.0
 10
14.6573
 20
18.1427
 30
0.0
 10
15.2571
 20
18.7424
 30
0.0
 10
15.2571
 20
18.7424
 30
0.0
  0
SPLINE
  5
AA
330
1F
100
AcDbEntity
  8
DEFAULT_1
100
AcDbSpline
210
0.0
220
0.0
230
1.0
 70
    24
 71
     3
 72
     8
 73
     4
 74
     0
 42
0.0000000001
 43
0.0000000001
 40
0.0
 40
0.0
 40
0.0
 40
0.0
 40
1.0
 40
1.0
 40
1.0
 40
1.0
 10
13.847
 20
16.9596
 30
0.0
 10
13.847
 20
16.9596
 30
0.0
 10
15.2571
 20
18.3697
 30
0.0
 10
15.2571
 20
18.3697
 30
0.0
  0
SPLINE
  5
AB
330
1F
100
AcDbEntity
  8
DEFAULT_1
100
AcDbSpline
210
0.0
220
0.0
230
1.0
 70
    24
 71
     3
 72
     8
 73
     4
 74
     0
 42
0.0000000001
 43
0.0000000001
 40
0.0
 40
0.0
 40
0.0
 40
0.0
 40
1.0
 40
1.0
 40
1.0
 40
1.0
 10
13.845
 20
16.585
 30
0.0
 10
13.845
 20
16.585
 30
0.0
 10
14.5011
 20
17.241
 30
0.0
 10
14.5011
 20
17.241
 30
0.0
  0
SPLINE
  5
AC
330
1F
100
AcDbEntity
  8
DEFAULT_1
100
AcDbSpline
210
0.0
220
0.0
230
1.0
 70
    24
 71
     3
 72
     8
 73
     4
 74
     0
 42
0.0000000001
 43
0.0000000001
 40
0.0
 40
0.0
 40
0.0
 40
0.0
 40
1.0
 40
1.0
 40
1.0
 40
1.0
 10
14.777
 20
17.5169
 30
0.0
 10
14.777
 20
17.5169
 30
0.0
 10
15.2571
 20
17.997
 30
0.0
 10
15.2571
 20
17.997
 30
0.0
  0
SPLINE
  5
AD
330
1F
100
AcDbEntity
  8
DEFAULT_1
100
AcDbSpline
210
0.0
220
0.0
230
1.0
 70
    24
 71
     3
 72
     8
 73
     4
 74
     0
 42
0.0000000001
 43
0.0000000001
 40
0.0
 40
0.0
 40
0.0
 40
0.0
 40
1.0
 40
1.0
 40
1.0
 40
1.0
 10
13.8431
 20
16.2103
 30
0.0
 10
13.8431
 20
16.2103
 30
0.0
 10
14.5011
 20
16.8683
 30
0.0
 10
14.5011
 20
16.8683
 30
0.0
  0
SPLINE
  5
AE
330
1F
100
AcDbEntity
  8
DEFAULT_1
100
AcDbSpline
210
0.0
220
0.0
230
1.0
 70
    24
 71
     3
 72
     8
 73
     4
 74
     0
 42
0.0000000001
 43
0.0000000001
 40
0.0
 40
0.0
 40
0.0
 40
0.0
 40
1.0
 40
1.0
 40
1.0
 40
1.0
 10
15.1563
 20
17.5235
 30
0.0
 10
15.1563
 20
17.5235
 30
0.0
 10
15.2571
 20
17.6243
 30
0.0
 10
15.2571
 20
17.6243
 30
0.0
  0
SPLINE
  5
AF
330
1F
100
AcDbEntity
  8
DEFAULT_1
100
AcDbSpline
210
0.0
220
0.0
230
1.0
 70
    24
 71
     3
 72
     8
 73
     4
 74
     0
 42
0.0000000001
 43
0.0000000001
 40
0.0
 40
0.0
 40
0.0
 40
0.0
 40
1.0
 40
1.0
 40
1.0
 40
1.0
 10
13.8411
 20
15.8356
 30
0.0
 10
13.8411
 20
15.8356
 30
0.0
 10
14.5011
 20
16.4956
 30
0.0
 10
14.5011
 20
16.4956
 30
0.0
  0
SPLINE
  5
B0
330
1F
100
AcDbEntity
  8
DEFAULT_1
100
AcDbSpline
210
0.0
220
0.0
230
1.0
 70
    24
 71
     3
 72
     8
 73
     4
 74
     0
 42
0.0000000001
 43
0.0000000001
 40
0.0
 40
0.0
 40
0.0
 40
0.0
 40
1.0
 40
1.0
 40
1.0
 40
1.0
 10
13.8391
 20
15.461
 30
0.0
 10
13.8391
 20
15.461
 30
0.0
 10
14.5011
 20
16.1229
 30
0.0
 10
14.5011
 20
16.1229
 30
0.0
  0
SPLINE
  5
B1
330
1F
100
AcDbEntity
  8
DEFAULT_1
100
AcDbSpline
210
0.0
220
0.0
230
1.0
 70
    24
 71
     3
 72
     8
 73
     4
 74
     0
 42
0.0000000001
 43
0.0000000001
 40
0.0
 40
0.0
 40
0.0
 40
0.0
 40
1.0
 40
1.0
 40
1.0
 40
1.0
 10
13.8372
 20
15.0863
 30
0.0
 10
13.8372
 20
15.0863
 30
0.0
 10
14.5011
 20
15.7502
 30
0.0
 10
14.5011
 20
15.7502
 30
0.0
  0
SPLINE
  5
B2
330
1F
100
AcDbEntity
  8
DEFAULT_1
100
AcDbSpline
210
0.0
220
0.0
230
1.0
 70
    24
 71
     3
 72
     8
 73
     4
 74
     0
 42
0.0000000001
 43
0.0000000001
 40
0.0
 40
0.0
 40
0.0
 40
0.0
 40
1.0
 40
1.0
 40
1.0
 40
1.0
 10
13.8353
 20
14.7117
 30
0.0
 10
13.8353
 20
14.7117
 30
0.0
 10
14.1771
 20
15.0535
 30
0.0
 10
14.1771
 20
15.0535
 30
0.0
  0
SPLINE
  5
B3
330
1F
100
AcDbEntity
  8
DEFAULT_1
100
AcDbSpline
210
0.0
220
0.0
230
1.0
 70
    24
 71
     3
 72
     8
 73
     4
 74
     0
 42
0.0000000001
 43
0.0000000001
 40
0.0
 40
0.0
 40
0.0
 40
0.0
 40
1.0
 40
1.0
 40
1.0
 40
1.0
 10
13.8333
 20
14.337
 30
0.0
 10
13.8333
 20
14.337
 30
0.0
 10
14.2333
 20
14.737
 30
0.0
 10
14.2333
 20
14.737
 30
0.0
  0
SPLINE
  5
B4
330
1F
100
AcDbEntity
  8
DEFAULT_1
100
AcDbSpline
210
0.0
220
0.0
230
1.0
 70
    24
 71
     3
 72
     8
 73
     4
 74
     0
 42
0.0000000001
 43
0.0000000001
 40
0.0
 40
0.0
 40
0.0
 40
0.0
 40
1.0
 40
1.0
 40
1.0
 40
1.0
 10
13.8313
 20
13.9624
 30
0.0
 10
13.8313
 20
13.9624
 30
0.0
 10
14.1771
 20
14.3081
 30
0.0
 10
14.1771
 20
14.3081
 30
0.0
  0
SPLINE
  5
B5
330
1F
100
AcDbEntity
  8
DEFAULT_1
100
AcDbSpline
210
0.0
220
0.0
230
1.0
 70
    24
 71
     3
 72
     8
 73
     4
 74
     0
 42
0.0000000001
 43
0.0000000001
 40
0.0
 40
0.0
 40
0.0
 40
0.0
 40
1.0
 40
1.0
 40
1.0
 40
1.0
 10
14.2917
 20
14.4228
 30
0.0
 10
14.2917
 20
14.4228
 30
0.0
 10
14.5011
 20
14.6321
 30
0.0
 10
14.5011
 20
14.6321
 30
0.0
  0
SPLINE
  5
B6
330
1F
100
AcDbEntity
  8
DEFAULT_1
100
AcDbSpline
210
0.0
220
0.0
230
1.0
 70
    24
 71
     3
 72
     8
 73
     4
 74
     0
 42
0.0000000001
 43
0.0000000001
 40
0.0
 40
0.0
 40
0.0
 40
0.0
 40
1.0
 40
1.0
 40
1.0
 40
1.0
 10
13.8293
 20
13.5877
 30
0.0
 10
13.8293
 20
13.5877
 30
0.0
 10
14.1771
 20
13.9354
 30
0.0
 10
14.1771
 20
13.9354
 30
0.0
  0
SPLINE
  5
B7
330
1F
100
AcDbEntity
  8
DEFAULT_1
100
AcDbSpline
210
0.0
220
0.0
230
1.0
 70
    24
 71
     3
 72
     8
 73
     4
 74
     0
 42
0.0000000001
 43
0.0000000001
 40
0.0
 40
0.0
 40
0.0
 40
0.0
 40
1.0
 40
1.0
 40
1.0
 40
1.0
 10
13.8274
 20
13.213
 30
0.0
 10
13.8274
 20
13.213
 30
0.0
 10
14.3579
 20
13.7436
 30
0.0
 10
14.3579
 20
13.7436
 30
0.0
  0
SPLINE
  5
B8
330
1F
100
AcDbEntity
  8
DEFAULT_1
100
AcDbSpline
210
0.0
220
0.0
230
1.0
 70
    24
 71
     3
 72
     8
 73
     4
 74
     0
 42
0.0000000001
 43
0.0000000001
 40
0.0
 40
0.0
 40
0.0
 40
0.0
 40
1.0
 40
1.0
 40
1.0
 40
1.0
 10
13.8254
 20
12.8384
 30
0.0
 10
13.8254
 20
12.8384
 30
0.0
 10
14.1771
 20
13.19
 30
0.0
 10
14.1771
 20
13.19
 30
0.0
  0
SPLINE
  5
B9
330
1F
100
AcDbEntity
  8
DEFAULT_1
100
AcDbSpline
210
0.0
220
0.0
230
1.0
 70
    24
 71
     3
 72
     8
 73
     4
 74
     0
 42
0.0000000001
 43
0.0000000001
 40
0.0
 40
0.0
 40
0.0
 40
0.0
 40
1.0
 40
1.0
 40
1.0
 40
1.0
 10
13.8234
 20
12.4637
 30
0.0
 10
13.8234
 20
12.4637
 30
0.0
 10
14.1887
 20
12.8289
 30
0.0
 10
14.1887
 20
12.8289
 30
0.0
  0
SPLINE
  5
BA
330
1F
100
AcDbEntity
  8
DEFAULT_1
100
AcDbSpline
210
0.0
220
0.0
230
1.0
 70
    24
 71
     3
 72
     8
 73
     4
 74
     0
 42
0.0000000001
 43
0.0000000001
 40
0.0
 40
0.0
 40
0.0
 40
0.0
 40
1.0
 40
1.0
 40
1.0
 40
1.0
 10
13.8215
 20
12.089
 30
0.0
 10
13.8215
 20
12.089
 30
0.0
 10
14.1771
 20
12.4446
 30
0.0
 10
14.1771
 20
12.4446
 30
0.0
  0
SPLINE
  5
BB
330
1F
100
AcDbEntity
  8
DEFAULT_1
100
AcDbSpline
210
0.0
220
0.0
230
1.0
 70
    24
 71
     3
 72
     8
 73
     4
 74
     0
 42
0.0000000001
 43
0.0000000001
 40
0.0
 40
0.0
 40
0.0
 40
0.0
 40
1.0
 40
1.0
 40
1.0
 40
1.0
 10
14.2145
 20
12.4821
 30
0.0
 10
14.2145
 20
12.4821
 30
0.0
 10
14.4826
 20
12.7502
 30
0.0
 10
14.4826
 20
12.7502
 30
0.0
  0
SPLINE
  5
BC
330
1F
100
AcDbEntity
  8
DEFAULT_1
100
AcDbSpline
210
0.0
220
0.0
230
1.0
 70
    24
 71
     3
 72
     8
 73
     4
 74
     0
 42
0.0000000001
 43
0.0000000001
 40
0.0
 40
0.0
 40
0.0
 40
0.0
 40
1.0
 40
1.0
 40
1.0
 40
1.0
 10
13.8196
 20
11.7144
 30
0.0
 10
13.8196
 20
11.7144
 30
0.0
 10
14.1771
 20
12.0719
 30
0.0
 10
14.1771
 20
12.0719
 30
0.0
  0
SPLINE
  5
BD
330
1F
100
AcDbEntity
  8
DEFAULT_1
100
AcDbSpline
210
0.0
220
0.0
230
1.0
 70
    24
 71
     3
 72
     8
 73
     4
 74
     0
 42
0.0000000001
 43
0.0000000001
 40
0.0
 40
0.0
 40
0.0
 40
0.0
 40
1.0
 40
1.0
 40
1.0
 40
1.0
 10
13.8176
 20
11.3397
 30
0.0
 10
13.8176
 20
11.3397
 30
0.0
 10
14.3133
 20
11.8355
 30
0.0
 10
14.3133
 20
11.8355
 30
0.0
  0
SPLINE
  5
BE
330
1F
100
AcDbEntity
  8
DEFAULT_1
100
AcDbSpline
210
0.0
220
0.0
230
1.0
 70
    24
 71
     3
 72
     8
 73
     4
 74
     0
 42
0.0000000001
 43
0.0000000001
 40
0.0
 40
0.0
 40
0.0
 40
0.0
 40
1.0
 40
1.0
 40
1.0
 40
1.0
 10
13.8156
 20
10.965
 30
0.0
 10
13.8156
 20
10.965
 30
0.0
 10
14.1771
 20
11.3265
 30
0.0
 10
14.1771
 20
11.3265
 30
0.0
  0
SPLINE
  5
BF
330
1F
100
AcDbEntity
  8
DEFAULT_1
100
AcDbSpline
210
0.0
220
0.0
230
1.0
 70
    24
 71
     3
 72
     8
 73
     4
 74
     0
 42
0.0000000001
 43
0.0000000001
 40
0.0
 40
0.0
 40
0.0
 40
0.0
 40
1.0
 40
1.0
 40
1.0
 40
1.0
 10
14.4305
 20
11.5799
 30
0.0
 10
14.4305
 20
11.5799
 30
0.0
 10
14.5011
 20
11.6505
 30
0.0
 10
14.5011
 20
11.6505
 30
0.0
  0
SPLINE
  5
C0
330
1F
100
AcDbEntity
  8
DEFAULT_1
100
AcDbSpline
210
0.0
220
0.0
230
1.0
 70
    24
 71
     3
 72
     8
 73
     4
 74
     0
 42
0.0000000001
 43
0.0000000001
 40
0.0
 40
0.0
 40
0.0
 40
0.0
 40
1.0
 40
1.0
 40
1.0
 40
1.0
 10
13.8137
 20
10.5904
 30
0.0
 10
13.8137
 20
10.5904
 30
0.0
 10
14.1771
 20
10.9538
 30
0.0
 10
14.1771
 20
10.9538
 30
0.0
  0
SPLINE
  5
C1
330
1F
100
AcDbEntity
  8
DEFAULT_1
100
AcDbSpline
210
0.0
220
0.0
230
1.0
 70
    24
 71
     3
 72
     8
 73
     4
 74
     0
 42
0.0000000001
 43
0.0000000001
 40
0.0
 40
0.0
 40
0.0
 40
0.0
 40
1.0
 40
1.0
 40
1.0
 40
1.0
 10
13.8117
 20
10.2158
 30
0.0
 10
13.8117
 20
10.2158
 30
0.0
 10
14.438
 20
10.8421
 30
0.0
 10
14.438
 20
10.8421
 30
0.0
  0
SPLINE
  5
C2
330
1F
100
AcDbEntity
  8
DEFAULT_1
100
AcDbSpline
210
0.0
220
0.0
230
1.0
 70
    24
 71
     3
 72
     8
 73
     4
 74
     0
 42
0.0000000001
 43
0.0000000001
 40
0.0
 40
0.0
 40
0.0
 40
0.0
 40
1.0
 40
1.0
 40
1.0
 40
1.0
 10
13.8097
 20
9.8411
 30
0.0
 10
13.8097
 20
9.8411
 30
0.0
 10
14.1771
 20
10.2084
 30
0.0
 10
14.1771
 20
10.2084
 30
0.0
  0
SPLINE
  5
C3
330
1F
100
AcDbEntity
  8
DEFAULT_1
100
AcDbSpline
210
0.0
220
0.0
230
1.0
 70
    24
 71
     3
 72
     8
 73
     4
 74
     0
 42
0.0000000001
 43
0.0000000001
 40
0.0
 40
0.0
 40
0.0
 40
0.0
 40
1.0
 40
1.0
 40
1.0
 40
1.0
 10
13.8077
 20
9.4664
 30
0.0
 10
13.8077
 20
9.4664
 30
0.0
 10
14.2687
 20
9.9274
 30
0.0
 10
14.2687
 20
9.9274
 30
0.0
  0
SPLINE
  5
C4
330
1F
100
AcDbEntity
  8
DEFAULT_1
100
AcDbSpline
210
0.0
220
0.0
230
1.0
 70
    24
 71
     3
 72
     8
 73
     4
 74
     0
 42
0.0000000001
 43
0.0000000001
 40
0.0
 40
0.0
 40
0.0
 40
0.0
 40
1.0
 40
1.0
 40
1.0
 40
1.0
 10
13.8058
 20
9.0918
 30
0.0
 10
13.8058
 20
9.0918
 30
0.0
 10
14.1771
 20
9.463
 30
0.0
 10
14.1771
 20
9.463
 30
0.0
  0
SPLINE
  5
C5
330
1F
100
AcDbEntity
  8
DEFAULT_1
100
AcDbSpline
210
0.0
220
0.0
230
1.0
 70
    24
 71
     3
 72
     8
 73
     4
 74
     0
 42
0.0000000001
 43
0.0000000001
 40
0.0
 40
0.0
 40
0.0
 40
0.0
 40
1.0
 40
1.0
 40
1.0
 40
1.0
 10
14.3532
 20
9.6392
 30
0.0
 10
14.3532
 20
9.6392
 30
0.0
 10
14.5011
 20
9.787
 30
0.0
 10
14.5011
 20
9.787
 30
0.0
  0
SPLINE
  5
C6
330
1F
100
AcDbEntity
  8
DEFAULT_1
100
AcDbSpline
210
0.0
220
0.0
230
1.0
 70
    24
 71
     3
 72
     8
 73
     4
 74
     0
 42
0.0000000001
 43
0.0000000001
 40
0.0
 40
0.0
 40
0.0
 40
0.0
 40
1.0
 40
1.0
 40
1.0
 40
1.0
 10
13.8039
 20
8.7171
 30
0.0
 10
13.8039
 20
8.7171
 30
0.0
 10
14.1771
 20
9.0903
 30
0.0
 10
14.1771
 20
9.0903
 30
0.0
  0
SPLINE
  5
C7
330
1F
100
AcDbEntity
  8
DEFAULT_1
100
AcDbSpline
210
0.0
220
0.0
230
1.0
 70
    24
 71
     3
 72
     8
 73
     4
 74
     0
 42
0.0000000001
 43
0.0000000001
 40
0.0
 40
0.0
 40
0.0
 40
0.0
 40
1.0
 40
1.0
 40
1.0
 40
1.0
 10
13.8019
 20
8.3424
 30
0.0
 10
13.8019
 20
8.3424
 30
0.0
 10
14.3935
 20
8.934
 30
0.0
 10
14.3935
 20
8.934
 30
0.0
  0
SPLINE
  5
C8
330
1F
100
AcDbEntity
  8
DEFAULT_1
100
AcDbSpline
210
0.0
220
0.0
230
1.0
 70
    24
 71
     3
 72
     8
 73
     4
 74
     0
 42
0.0000000001
 43
0.0000000001
 40
0.0
 40
0.0
 40
0.0
 40
0.0
 40
1.0
 40
1.0
 40
1.0
 40
1.0
 10
13.7999
 20
7.9678
 30
0.0
 10
13.7999
 20
7.9678
 30
0.0
 10
14.1771
 20
8.3449
 30
0.0
 10
14.1771
 20
8.3449
 30
0.0
  0
SPLINE
  5
C9
330
1F
100
AcDbEntity
  8
DEFAULT_1
100
AcDbSpline
210
0.0
220
0.0
230
1.0
 70
    24
 71
     3
 72
     8
 73
     4
 74
     0
 42
0.0000000001
 43
0.0000000001
 40
0.0
 40
0.0
 40
0.0
 40
0.0
 40
1.0
 40
1.0
 40
1.0
 40
1.0
 10
13.798
 20
7.5931
 30
0.0
 10
13.798
 20
7.5931
 30
0.0
 10
14.2242
 20
8.0193
 30
0.0
 10
14.2242
 20
8.0193
 30
0.0
  0
SPLINE
  5
CA
330
1F
100
AcDbEntity
  8
DEFAULT_1
100
AcDbSpline
210
0.0
220
0.0
230
1.0
 70
    24
 71
     3
 72
     8
 73
     4
 74
     0
 42
0.0000000001
 43
0.0000000001
 40
0.0
 40
0.0
 40
0.0
 40
0.0
 40
1.0
 40
1.0
 40
1.0
 40
1.0
 10
13.796
 20
7.2184
 30
0.0
 10
13.796
 20
7.2184
 30
0.0
 10
14.1771
 20
7.5995
 30
0.0
 10
14.1771
 20
7.5995
 30
0.0
  0
SPLINE
  5
CB
330
1F
100
AcDbEntity
  8
DEFAULT_1
100
AcDbSpline
210
0.0
220
0.0
230
1.0
 70
    24
 71
     3
 72
     8
 73
     4
 74
     0
 42
0.0000000001
 43
0.0000000001
 40
0.0
 40
0.0
 40
0.0
 40
0.0
 40
1.0
 40
1.0
 40
1.0
 40
1.0
 10
14.276
 20
7.6984
 30
0.0
 10
14.276
 20
7.6984
 30
0.0
 10
14.5011
 20
7.9235
 30
0.0
 10
14.5011
 20
7.9235
 30
0.0
  0
SPLINE
  5
CC
330
1F
100
AcDbEntity
  8
DEFAULT_1
100
AcDbSpline
210
0.0
220
0.0
230
1.0
 70
    24
 71
     3
 72
     8
 73
     4
 74
     0
 42
0.0000000001
 43
0.0000000001
 40
0.0
 40
0.0
 40
0.0
 40
0.0
 40
1.0
 40
1.0
 40
1.0
 40
1.0
 10
13.794
 20
6.8438
 30
0.0
 10
13.794
 20
6.8438
 30
0.0
 10
14.1771
 20
7.2268
 30
0.0
 10
14.1771
 20
7.2268
 30
0.0
  0
SPLINE
  5
CD
330
1F
100
AcDbEntity
  8
DEFAULT_1
100
AcDbSpline
210
0.0
220
0.0
230
1.0
 70
    24
 71
     3
 72
     8
 73
     4
 74
     0
 42
0.0000000001
 43
0.0000000001
 40
0.0
 40
0.0
 40
0.0
 40
0.0
 40
1.0
 40
1.0
 40
1.0
 40
1.0
 10
13.7921
 20
6.4691
 30
0.0
 10
13.7921
 20
6.4691
 30
0.0
 10
14.3488
 20
7.0259
 30
0.0
 10
14.3488
 20
7.0259
 30
0.0
  0
SPLINE
  5
CE
330
1F
100
AcDbEntity
  8
DEFAULT_1
100
AcDbSpline
210
0.0
220
0.0
230
1.0
 70
    24
 71
     3
 72
     8
 73
     4
 74
     0
 42
0.0000000001
 43
0.0000000001
 40
0.0
 40
0.0
 40
0.0
 40
0.0
 40
1.0
 40
1.0
 40
1.0
 40
1.0
 10
13.7901
 20
6.0945
 30
0.0
 10
13.7901
 20
6.0945
 30
0.0
 10
14.1771
 20
6.4814
 30
0.0
 10
14.1771
 20
6.4814
 30
0.0
  0
SPLINE
  5
CF
330
1F
100
AcDbEntity
  8
DEFAULT_1
100
AcDbSpline
210
0.0
220
0.0
230
1.0
 70
    24
 71
     3
 72
     8
 73
     4
 74
     0
 42
0.0000000001
 43
0.0000000001
 40
0.0
 40
0.0
 40
0.0
 40
0.0
 40
1.0
 40
1.0
 40
1.0
 40
1.0
 10
13.7882
 20
5.7198
 30
0.0
 10
13.7882
 20
5.7198
 30
0.0
 10
14.1796
 20
6.1113
 30
0.0
 10
14.1796
 20
6.1113
 30
0.0
  0
SPLINE
  5
D0
330
1F
100
AcDbEntity
  8
DEFAULT_1
100
AcDbSpline
210
0.0
220
0.0
230
1.0
 70
    24
 71
     3
 72
     8
 73
     4
 74
     0
 42
0.0000000001
 43
0.0000000001
 40
0.0
 40
0.0
 40
0.0
 40
0.0
 40
1.0
 40
1.0
 40
1.0
 40
1.0
 10
13.7862
 20
5.3452
 30
0.0
 10
13.7862
 20
5.3452
 30
0.0
 10
14.1771
 20
5.736
 30
0.0
 10
14.1771
 20
5.736
 30
0.0
  0
SPLINE
  5
D1
330
1F
100
AcDbEntity
  8
DEFAULT_1
100
AcDbSpline
210
0.0
220
0.0
230
1.0
 70
    24
 71
     3
 72
     8
 73
     4
 74
     0
 42
0.0000000001
 43
0.0000000001
 40
0.0
 40
0.0
 40
0.0
 40
0.0
 40
1.0
 40
1.0
 40
1.0
 40
1.0
 10
14.1988
 20
5.7577
 30
0.0
 10
14.1988
 20
5.7577
 30
0.0
 10
14.4735
 20
6.0325
 30
0.0
 10
14.4735
 20
6.0325
 30
0.0
  0
SPLINE
  5
D2
330
1F
100
AcDbEntity
  8
DEFAULT_1
100
AcDbSpline
210
0.0
220
0.0
230
1.0
 70
    24
 71
     3
 72
     8
 73
     4
 74
     0
 42
0.0000000001
 43
0.0000000001
 40
0.0
 40
0.0
 40
0.0
 40
0.0
 40
1.0
 40
1.0
 40
1.0
 40
1.0
 10
13.8456
 20
5.0319
 30
0.0
 10
13.8456
 20
5.0319
 30
0.0
 10
14.1771
 20
5.3633
 30
0.0
 10
14.1771
 20
5.3633
 30
0.0
  0
SPLINE
  5
D3
330
1F
100
AcDbEntity
  8
DEFAULT_1
100
AcDbSpline
210
0.0
220
0.0
230
1.0
 70
    24
 71
     3
 72
     8
 73
     4
 74
     0
 42
0.0000000001
 43
0.0000000001
 40
0.0
 40
0.0
 40
0.0
 40
0.0
 40
1.0
 40
1.0
 40
1.0
 40
1.0
 10
-10.5653
 20
20.6322
 30
0.0
 10
-10.5653
 20
20.6322
 30
0.0
 10
-10.5434
 20
18.1121
 30
0.0
 10
-10.5434
 20
18.1121
 30
0.0
  0
SPLINE
  5
D4
330
1F
100
AcDbEntity
  8
DEFAULT_1
100
AcDbSpline
210
0.0
220
0.0
230
1.0
 70
    24
 71
     3
 72
     8
 73
     4
 74
     0
 42
0.0000000001
 43
0.0000000001
 40
0.0
 40
0.0
 40
0.0
 40
0.0
 40
1.0
 40
1.0
 40
1.0
 40
1.0
 10
-11.1434
 20
20.9922
 30
0.0
 10
-11.1434
 20
20.9922
 30
0.0
 10
-11.1434
 20
17.5253
 30
0.0
 10
-11.1434
 20
17.5253
 30
0.0
  0
SPLINE
  5
D5
330
1F
100
AcDbEntity
  8
DEFAULT_1
100
AcDbSpline
210
0.0
220
0.0
230
1.0
 70
    24
 71
     3
 72
     8
 73
     4
 74
     0
 42
0.0000000001
 43
0.0000000001
 40
0.0
 40
0.0
 40
0.0
 40
0.0
 40
1.0
 40
1.0
 40
1.0
 40
1.0
 10
-10.3874
 20
17.5121
 30
0.0
 10
-10.3874
 20
17.5121
 30
0.0
 10
-10.3874
 20
15.4389
 30
0.0
 10
-10.3874
 20
15.4389
 30
0.0
  0
SPLINE
  5
D6
330
1F
100
AcDbEntity
  8
DEFAULT_1
100
AcDbSpline
210
0.0
220
0.0
230
1.0
 70
    24
 71
     3
 72
     8
 73
     4
 74
     0
 42
0.0000000001
 43
0.0000000001
 40
0.0
 40
0.0
 40
0.0
 40
0.0
 40
1.0
 40
1.0
 40
1.0
 40
1.0
 10
-10.3874
 20
14.6652
 30
0.0
 10
-10.3874
 20
14.6652
 30
0.0
 10
-10.3874
 20
14.4789
 30
0.0
 10
-10.3874
 20
14.4789
 30
0.0
  0
SPLINE
  5
D7
330
1F
100
AcDbEntity
  8
DEFAULT_1
100
AcDbSpline
210
0.0
220
0.0
230
1.0
 70
    24
 71
     3
 72
     8
 73
     4
 74
     0
 42
0.0000000001
 43
0.0000000001
 40
0.0
 40
0.0
 40
0.0
 40
0.0
 40
1.0
 40
1.0
 40
1.0
 40
1.0
 10
-10.3874
 20
13.7052
 30
0.0
 10
-10.3874
 20
13.7052
 30
0.0
 10
-10.3874
 20
13.5189
 30
0.0
 10
-10.3874
 20
13.5189
 30
0.0
  0
SPLINE
  5
D8
330
1F
100
AcDbEntity
  8
DEFAULT_1
100
AcDbSpline
210
0.0
220
0.0
230
1.0
 70
    24
 71
     3
 72
     8
 73
     4
 74
     0
 42
0.0000000001
 43
0.0000000001
 40
0.0
 40
0.0
 40
0.0
 40
0.0
 40
1.0
 40
1.0
 40
1.0
 40
1.0
 10
-10.3874
 20
12.7452
 30
0.0
 10
-10.3874
 20
12.7452
 30
0.0
 10
-10.3874
 20
12.5588
 30
0.0
 10
-10.3874
 20
12.5588
 30
0.0
  0
SPLINE
  5
D9
330
1F
100
AcDbEntity
  8
DEFAULT_1
100
AcDbSpline
210
0.0
220
0.0
230
1.0
 70
    24
 71
     3
 72
     8
 73
     4
 74
     0
 42
0.0000000001
 43
0.0000000001
 40
0.0
 40
0.0
 40
0.0
 40
0.0
 40
1.0
 40
1.0
 40
1.0
 40
1.0
 10
-10.3874
 20
11.7852
 30
0.0
 10
-10.3874
 20
11.7852
 30
0.0
 10
-10.3874
 20
11.5988
 30
0.0
 10
-10.3874
 20
11.5988
 30
0.0
  0
SPLINE
  5
DA
330
1F
100
AcDbEntity
  8
DEFAULT_1
100
AcDbSpline
210
0.0
220
0.0
230
1.0
 70
    24
 71
     3
 72
     8
 73
     4
 74
     0
 42
0.0000000001
 43
0.0000000001
 40
0.0
 40
0.0
 40
0.0
 40
0.0
 40
1.0
 40
1.0
 40
1.0
 40
1.0
 10
-10.3874
 20
10.8252
 30
0.0
 10
-10.3874
 20
10.8252
 30
0.0
 10
-10.3874
 20
10.6388
 30
0.0
 10
-10.3874
 20
10.6388
 30
0.0
  0
SPLINE
  5
DB
330
1F
100
AcDbEntity
  8
DEFAULT_1
100
AcDbSpline
210
0.0
220
0.0
230
1.0
 70
    24
 71
     3
 72
     8
 73
     4
 74
     0
 42
0.0000000001
 43
0.0000000001
 40
0.0
 40
0.0
 40
0.0
 40
0.0
 40
1.0
 40
1.0
 40
1.0
 40
1.0
 10
-10.3874
 20
9.8652
 30
0.0
 10
-10.3874
 20
9.8652
 30
0.0
 10
-10.3874
 20
9.6788
 30
0.0
 10
-10.3874
 20
9.6788
 30
0.0
  0
SPLINE
  5
DC
330
1F
100
AcDbEntity
  8
DEFAULT_1
100
AcDbSpline
210
0.0
220
0.0
230
1.0
 70
    24
 71
     3
 72
     8
 73
     4
 74
     0
 42
0.0000000001
 43
0.0000000001
 40
0.0
 40
0.0
 40
0.0
 40
0.0
 40
1.0
 40
1.0
 40
1.0
 40
1.0
 10
-10.3874
 20
8.9051
 30
0.0
 10
-10.3874
 20
8.9051
 30
0.0
 10
-10.3874
 20
8.7188
 30
0.0
 10
-10.3874
 20
8.7188
 30
0.0
  0
SPLINE
  5
DD
330
1F
100
AcDbEntity
  8
DEFAULT_1
100
AcDbSpline
210
0.0
220
0.0
230
1.0
 70
    24
 71
     3
 72
     8
 73
     4
 74
     0
 42
0.0000000001
 43
0.0000000001
 40
0.0
 40
0.0
 40
0.0
 40
0.0
 40
1.0
 40
1.0
 40
1.0
 40
1.0
 10
-10.3874
 20
7.9451
 30
0.0
 10
-10.3874
 20
7.9451
 30
0.0
 10
-10.3874
 20
7.7587
 30
0.0
 10
-10.3874
 20
7.7587
 30
0.0
  0
SPLINE
  5
DE
330
1F
100
AcDbEntity
  8
DEFAULT_1
100
AcDbSpline
210
0.0
220
0.0
230
1.0
 70
    24
 71
     3
 72
     8
 73
     4
 74
     0
 42
0.0000000001
 43
0.0000000001
 40
0.0
 40
0.0
 40
0.0
 40
0.0
 40
1.0
 40
1.0
 40
1.0
 40
1.0
 10
-10.3874
 20
6.9851
 30
0.0
 10
-10.3874
 20
6.9851
 30
0.0
 10
-10.3874
 20
6.7987
 30
0.0
 10
-10.3874
 20
6.7987
 30
0.0
  0
SPLINE
  5
DF
330
1F
100
AcDbEntity
  8
DEFAULT_1
100
AcDbSpline
210
0.0
220
0.0
230
1.0
 70
    24
 71
     3
 72
     8
 73
     4
 74
     0
 42
0.0000000001
 43
0.0000000001
 40
0.0
 40
0.0
 40
0.0
 40
0.0
 40
1.0
 40
1.0
 40
1.0
 40
1.0
 10
-10.3874
 20
6.0251
 30
0.0
 10
-10.3874
 20
6.0251
 30
0.0
 10
-10.3874
 20
5.8387
 30
0.0
 10
-10.3874
 20
5.8387
 30
0.0
  0
SPLINE
  5
E0
330
1F
100
AcDbEntity
  8
DEFAULT_1
100
AcDbSpline
210
0.0
220
0.0
230
1.0
 70
    24
 71
     3
 72
     8
 73
     4
 74
     0
 42
0.0000000001
 43
0.0000000001
 40
0.0
 40
0.0
 40
0.0
 40
0.0
 40
1.0
 40
1.0
 40
1.0
 40
1.0
 10
-9.7393
 20
18.1121
 30
0.0
 10
-9.7393
 20
18.1121
 30
0.0
 10
-9.6711
 20
5.0799
 30
0.0
 10
-9.6711
 20
5.0799
 30
0.0
  0
SPLINE
  5
E1
330
1F
100
AcDbEntity
  8
DEFAULT_1
100
AcDbSpline
210
0.0
220
0.0
230
1.0
 70
    24
 71
     3
 72
     8
 73
     4
 74
     0
 42
0.0000000001
 43
0.0000000001
 40
0.0
 40
0.0
 40
0.0
 40
0.0
 40
1.0
 40
1.0
 40
1.0
 40
1.0
 10
-10.0633
 20
15.3521
 30
0.0
 10
-10.0633
 20
15.3521
 30
0.0
 10
-10.0633
 20
14.7521
 30
0.0
 10
-10.0633
 20
14.7521
 30
0.0
  0
SPLINE
  5
E2
330
1F
100
AcDbEntity
  8
DEFAULT_1
100
AcDbSpline
210
0.0
220
0.0
230
1.0
 70
    24
 71
     3
 72
     8
 73
     4
 74
     0
 42
0.0000000001
 43
0.0000000001
 40
0.0
 40
0.0
 40
0.0
 40
0.0
 40
1.0
 40
1.0
 40
1.0
 40
1.0
 10
-10.0633
 20
14.3921
 30
0.0
 10
-10.0633
 20
14.3921
 30
0.0
 10
-10.0633
 20
13.7921
 30
0.0
 10
-10.0633
 20
13.7921
 30
0.0
  0
SPLINE
  5
E3
330
1F
100
AcDbEntity
  8
DEFAULT_1
100
AcDbSpline
210
0.0
220
0.0
230
1.0
 70
    24
 71
     3
 72
     8
 73
     4
 74
     0
 42
0.0000000001
 43
0.0000000001
 40
0.0
 40
0.0
 40
0.0
 40
0.0
 40
1.0
 40
1.0
 40
1.0
 40
1.0
 10
-10.0633
 20
13.4321
 30
0.0
 10
-10.0633
 20
13.4321
 30
0.0
 10
-10.0633
 20
12.832
 30
0.0
 10
-10.0633
 20
12.832
 30
0.0
  0
SPLINE
  5
E4
330
1F
100
AcDbEntity
  8
DEFAULT_1
100
AcDbSpline
210
0.0
220
0.0
230
1.0
 70
    24
 71
     3
 72
     8
 73
     4
 74
     0
 42
0.0000000001
 43
0.0000000001
 40
0.0
 40
0.0
 40
0.0
 40
0.0
 40
1.0
 40
1.0
 40
1.0
 40
1.0
 10
-10.0633
 20
12.472
 30
0.0
 10
-10.0633
 20
12.472
 30
0.0
 10
-10.0633
 20
11.872
 30
0.0
 10
-10.0633
 20
11.872
 30
0.0
  0
SPLINE
  5
E5
330
1F
100
AcDbEntity
  8
DEFAULT_1
100
AcDbSpline
210
0.0
220
0.0
230
1.0
 70
    24
 71
     3
 72
     8
 73
     4
 74
     0
 42
0.0000000001
 43
0.0000000001
 40
0.0
 40
0.0
 40
0.0
 40
0.0
 40
1.0
 40
1.0
 40
1.0
 40
1.0
 10
-10.0633
 20
11.512
 30
0.0
 10
-10.0633
 20
11.512
 30
0.0
 10
-10.0633
 20
10.912
 30
0.0
 10
-10.0633
 20
10.912
 30
0.0
  0
SPLINE
  5
E6
330
1F
100
AcDbEntity
  8
DEFAULT_1
100
AcDbSpline
210
0.0
220
0.0
230
1.0
 70
    24
 71
     3
 72
     8
 73
     4
 74
     0
 42
0.0000000001
 43
0.0000000001
 40
0.0
 40
0.0
 40
0.0
 40
0.0
 40
1.0
 40
1.0
 40
1.0
 40
1.0
 10
-10.0633
 20
10.552
 30
0.0
 10
-10.0633
 20
10.552
 30
0.0
 10
-10.0633
 20
9.952
 30
0.0
 10
-10.0633
 20
9.952
 30
0.0
  0
SPLINE
  5
E7
330
1F
100
AcDbEntity
  8
DEFAULT_1
100
AcDbSpline
210
0.0
220
0.0
230
1.0
 70
    24
 71
     3
 72
     8
 73
     4
 74
     0
 42
0.0000000001
 43
0.0000000001
 40
0.0
 40
0.0
 40
0.0
 40
0.0
 40
1.0
 40
1.0
 40
1.0
 40
1.0
 10
-10.0633
 20
9.592
 30
0.0
 10
-10.0633
 20
9.592
 30
0.0
 10
-10.0633
 20
8.992
 30
0.0
 10
-10.0633
 20
8.992
 30
0.0
  0
SPLINE
  5
E8
330
1F
100
AcDbEntity
  8
DEFAULT_1
100
AcDbSpline
210
0.0
220
0.0
230
1.0
 70
    24
 71
     3
 72
     8
 73
     4
 74
     0
 42
0.0000000001
 43
0.0000000001
 40
0.0
 40
0.0
 40
0.0
 40
0.0
 40
1.0
 40
1.0
 40
1.0
 40
1.0
 10
-10.0633
 20
8.632
 30
0.0
 10
-10.0633
 20
8.632
 30
0.0
 10
-10.0633
 20
8.032
 30
0.0
 10
-10.0633
 20
8.032
 30
0.0
  0
SPLINE
  5
E9
330
1F
100
AcDbEntity
  8
DEFAULT_1
100
AcDbSpline
210
0.0
220
0.0
230
1.0
 70
    24
 71
     3
 72
     8
 73
     4
 74
     0
 42
0.0000000001
 43
0.0000000001
 40
0.0
 40
0.0
 40
0.0
 40
0.0
 40
1.0
 40
1.0
 40
1.0
 40
1.0
 10
-10.0633
 20
7.672
 30
0.0
 10
-10.0633
 20
7.672
 30
0.0
 10
-10.0633
 20
7.0719
 30
0.0
 10
-10.0633
 20
7.0719
 30
0.0
  0
SPLINE
  5
EA
330
1F
100
AcDbEntity
  8
DEFAULT_1
100
AcDbSpline
210
0.0
220
0.0
230
1.0
 70
    24
 71
     3
 72
     8
 73
     4
 74
     0
 42
0.0000000001
 43
0.0000000001
 40
0.0
 40
0.0
 40
0.0
 40
0.0
 40
1.0
 40
1.0
 40
1.0
 40
1.0
 10
-10.0633
 20
6.7119
 30
0.0
 10
-10.0633
 20
6.7119
 30
0.0
 10
-10.0633
 20
6.1119
 30
0.0
 10
-10.0633
 20
6.1119
 30
0.0
  0
SPLINE
  5
EB
330
1F
100
AcDbEntity
  8
DEFAULT_1
100
AcDbSpline
210
0.0
220
0.0
230
1.0
 70
    24
 71
     3
 72
     8
 73
     4
 74
     0
 42
0.0000000001
 43
0.0000000001
 40
0.0
 40
0.0
 40
0.0
 40
0.0
 40
1.0
 40
1.0
 40
1.0
 40
1.0
 10
-10.0633
 20
5.7519
 30
0.0
 10
-10.0633
 20
5.7519
 30
0.0
 10
-10.0633
 20
5.0319
 30
0.0
 10
-10.0633
 20
5.0319
 30
0.0
  0
SPLINE
  5
EC
330
1F
100
AcDbEntity
  8
DEFAULT_1
100
AcDbSpline
210
0.0
220
0.0
230
1.0
 70
    24
 71
     3
 72
     8
 73
     4
 74
     0
 42
0.0000000001
 43
0.0000000001
 40
0.0
 40
0.0
 40
0.0
 40
0.0
 40
1.0
 40
1.0
 40
1.0
 40
1.0
 10
14.1771
 20
5.7519
 30
0.0
 10
14.1771
 20
5.7519
 30
0.0
 10
14.5011
 20
5.8387
 30
0.0
 10
14.5011
 20
5.8387
 30
0.0
  0
SPLINE
  5
ED
330
1F
100
AcDbEntity
  8
DEFAULT_1
100
AcDbSpline
210
0.0
220
0.0
230
1.0
 70
    24
 71
     3
 72
     8
 73
     4
 74
     0
 42
0.0000000001
 43
0.0000000001
 40
0.0
 40
0.0
 40
0.0
 40
0.0
 40
1.0
 40
1.0
 40
1.0
 40
1.0
 10
-10.0633
 20
5.7519
 30
0.0
 10
-10.0633
 20
5.7519
 30
0.0
 10
-10.3874
 20
5.8387
 30
0.0
 10
-10.3874
 20
5.8387
 30
0.0
  0
SPLINE
  5
EE
330
1F
100
AcDbEntity
  8
DEFAULT_1
100
AcDbSpline
210
0.0
220
0.0
230
1.0
 70
    24
 71
     3
 72
     8
 73
     4
 74
     0
 42
0.0000000001
 43
0.0000000001
 40
0.0
 40
0.0
 40
0.0
 40
0.0
 40
1.0
 40
1.0
 40
1.0
 40
1.0
 10
14.5011
 20
6.7987
 30
0.0
 10
14.5011
 20
6.7987
 30
0.0
 10
14.1771
 20
6.7119
 30
0.0
 10
14.1771
 20
6.7119
 30
0.0
  0
SPLINE
  5
EF
330
1F
100
AcDbEntity
  8
DEFAULT_1
100
AcDbSpline
210
0.0
220
0.0
230
1.0
 70
    24
 71
     3
 72
     8
 73
     4
 74
     0
 42
0.0000000001
 43
0.0000000001
 40
0.0
 40
0.0
 40
0.0
 40
0.0
 40
1.0
 40
1.0
 40
1.0
 40
1.0
 10
-10.3874
 20
6.7987
 30
0.0
 10
-10.3874
 20
6.7987
 30
0.0
 10
-10.0633
 20
6.7119
 30
0.0
 10
-10.0633
 20
6.7119
 30
0.0
  0
SPLINE
  5
F0
330
1F
100
AcDbEntity
  8
DEFAULT_1
100
AcDbSpline
210
0.0
220
0.0
230
1.0
 70
    24
 71
     3
 72
     8
 73
     4
 74
     0
 42
0.0000000001
 43
0.0000000001
 40
0.0
 40
0.0
 40
0.0
 40
0.0
 40
1.0
 40
1.0
 40
1.0
 40
1.0
 10
14.5011
 20
7.7587
 30
0.0
 10
14.5011
 20
7.7587
 30
0.0
 10
14.1771
 20
7.672
 30
0.0
 10
14.1771
 20
7.672
 30
0.0
  0
SPLINE
  5
F1
330
1F
100
AcDbEntity
  8
DEFAULT_1
100
AcDbSpline
210
0.0
220
0.0
230
1.0
 70
    24
 71
     3
 72
     8
 73
     4
 74
     0
 42
0.0000000001
 43
0.0000000001
 40
0.0
 40
0.0
 40
0.0
 40
0.0
 40
1.0
 40
1.0
 40
1.0
 40
1.0
 10
-10.3874
 20
7.7587
 30
0.0
 10
-10.3874
 20
7.7587
 30
0.0
 10
-10.0633
 20
7.672
 30
0.0
 10
-10.0633
 20
7.672
 30
0.0
  0
SPLINE
  5
F2
330
1F
100
AcDbEntity
  8
DEFAULT_1
100
AcDbSpline
210
0.0
220
0.0
230
1.0
 70
    24
 71
     3
 72
     8
 73
     4
 74
     0
 42
0.0000000001
 43
0.0000000001
 40
0.0
 40
0.0
 40
0.0
 40
0.0
 40
1.0
 40
1.0
 40
1.0
 40
1.0
 10
-10.3874
 20
11.7329
 30
0.0
 10
-10.3874
 20
11.7329
 30
0.0
 10
-10.3159
 20
11.8043
 30
0.0
 10
-10.3159
 20
11.8043
 30
0.0
  0
SPLINE
  5
F3
330
1F
100
AcDbEntity
  8
DEFAULT_1
100
AcDbSpline
210
0.0
220
0.0
230
1.0
 70
    24
 71
     3
 72
     8
 73
     4
 74
     0
 42
0.0000000001
 43
0.0000000001
 40
0.0
 40
0.0
 40
0.0
 40
0.0
 40
1.0
 40
1.0
 40
1.0
 40
1.0
 10
-10.3874
 20
10.8011
 30
0.0
 10
-10.3874
 20
10.8011
 30
0.0
 10
-10.3545
 20
10.834
 30
0.0
 10
-10.3545
 20
10.834
 30
0.0
  0
SPLINE
  5
F4
330
1F
100
AcDbEntity
  8
DEFAULT_1
100
AcDbSpline
210
0.0
220
0.0
230
1.0
 70
    24
 71
     3
 72
     8
 73
     4
 74
     0
 42
0.0000000001
 43
0.0000000001
 40
0.0
 40
0.0
 40
0.0
 40
0.0
 40
1.0
 40
1.0
 40
1.0
 40
1.0
 10
14.5011
 20
8.7188
 30
0.0
 10
14.5011
 20
8.7188
 30
0.0
 10
14.1771
 20
8.632
 30
0.0
 10
14.1771
 20
8.632
 30
0.0
  0
SPLINE
  5
F5
330
1F
100
AcDbEntity
  8
DEFAULT_1
100
AcDbSpline
210
0.0
220
0.0
230
1.0
 70
    24
 71
     3
 72
     8
 73
     4
 74
     0
 42
0.0000000001
 43
0.0000000001
 40
0.0
 40
0.0
 40
0.0
 40
0.0
 40
1.0
 40
1.0
 40
1.0
 40
1.0
 10
14.1771
 20
5.0319
 30
0.0
 10
14.1771
 20
5.0319
 30
0.0
 10
2.3569
 20
5.0319
 30
0.0
 10
2.3569
 20
5.0319
 30
0.0
  0
SPLINE
  5
F6
330
1F
100
AcDbEntity
  8
DEFAULT_1
100
AcDbSpline
210
0.0
220
0.0
230
1.0
 70
    24
 71
     3
 72
     8
 73
     4
 74
     0
 42
0.0000000001
 43
0.0000000001
 40
0.0
 40
0.0
 40
0.0
 40
0.0
 40
1.0
 40
1.0
 40
1.0
 40
1.0
 10
1.7569
 20
5.0319
 30
0.0
 10
1.7569
 20
5.0319
 30
0.0
 10
-10.0633
 20
5.0319
 30
0.0
 10
-10.0633
 20
5.0319
 30
0.0
  0
SPLINE
  5
F7
330
1F
100
AcDbEntity
  8
DEFAULT_1
100
AcDbSpline
210
0.0
220
0.0
230
1.0
 70
    24
 71
     3
 72
     8
 73
     4
 74
     0
 42
0.0000000001
 43
0.0000000001
 40
0.0
 40
0.0
 40
0.0
 40
0.0
 40
1.0
 40
1.0
 40
1.0
 40
1.0
 10
13.7848
 20
5.0799
 30
0.0
 10
13.7848
 20
5.0799
 30
0.0
 10
2.3566
 20
5.0799
 30
0.0
 10
2.3566
 20
5.0799
 30
0.0
  0
SPLINE
  5
F8
330
1F
100
AcDbEntity
  8
DEFAULT_1
100
AcDbSpline
210
0.0
220
0.0
230
1.0
 70
    24
 71
     3
 72
     8
 73
     4
 74
     0
 42
0.0000000001
 43
0.0000000001
 40
0.0
 40
0.0
 40
0.0
 40
0.0
 40
1.0
 40
1.0
 40
1.0
 40
1.0
 10
1.7571
 20
5.0799
 30
0.0
 10
1.7571
 20
5.0799
 30
0.0
 10
-9.6711
 20
5.0799
 30
0.0
 10
-9.6711
 20
5.0799
 30
0.0
  0
SPLINE
  5
F9
330
1F
100
AcDbEntity
  8
DEFAULT_1
100
AcDbSpline
210
0.0
220
0.0
230
1.0
 70
    24
 71
     3
 72
     8
 73
     4
 74
     0
 42
0.0000000001
 43
0.0000000001
 40
0.0
 40
0.0
 40
0.0
 40
0.0
 40
1.0
 40
1.0
 40
1.0
 40
1.0
 10
-10.3874
 20
8.7188
 30
0.0
 10
-10.3874
 20
8.7188
 30
0.0
 10
-10.0633
 20
8.632
 30
0.0
 10
-10.0633
 20
8.632
 30
0.0
  0
SPLINE
  5
FA
330
1F
100
AcDbEntity
  8
DEFAULT_1
100
AcDbSpline
210
0.0
220
0.0
230
1.0
 70
    24
 71
     3
 72
     8
 73
     4
 74
     0
 42
0.0000000001
 43
0.0000000001
 40
0.0
 40
0.0
 40
0.0
 40
0.0
 40
1.0
 40
1.0
 40
1.0
 40
1.0
 10
14.5011
 20
9.6788
 30
0.0
 10
14.5011
 20
9.6788
 30
0.0
 10
14.1771
 20
9.592
 30
0.0
 10
14.1771
 20
9.592
 30
0.0
  0
SPLINE
  5
FB
330
1F
100
AcDbEntity
  8
DEFAULT_1
100
AcDbSpline
210
0.0
220
0.0
230
1.0
 70
    24
 71
     3
 72
     8
 73
     4
 74
     0
 42
0.0000000001
 43
0.0000000001
 40
0.0
 40
0.0
 40
0.0
 40
0.0
 40
1.0
 40
1.0
 40
1.0
 40
1.0
 10
-10.3874
 20
9.6788
 30
0.0
 10
-10.3874
 20
9.6788
 30
0.0
 10
-10.0633
 20
9.592
 30
0.0
 10
-10.0633
 20
9.592
 30
0.0
  0
SPLINE
  5
FC
330
1F
100
AcDbEntity
  8
DEFAULT_1
100
AcDbSpline
210
0.0
220
0.0
230
1.0
 70
    24
 71
     3
 72
     8
 73
     4
 74
     0
 42
0.0000000001
 43
0.0000000001
 40
0.0
 40
0.0
 40
0.0
 40
0.0
 40
1.0
 40
1.0
 40
1.0
 40
1.0
 10
-10.5653
 20
20.6322
 30
0.0
 10
-10.5653
 20
20.6322
 30
0.0
 10
-10.7774
 20
20.9922
 30
0.0
 10
-10.7774
 20
20.9922
 30
0.0
  0
SPLINE
  5
FD
330
1F
100
AcDbEntity
  8
DEFAULT_1
100
AcDbSpline
210
0.0
220
0.0
230
1.0
 70
    24
 71
     3
 72
     8
 73
     4
 74
     0
 42
0.0000000001
 43
0.0000000001
 40
0.0
 40
0.0
 40
0.0
 40
0.0
 40
1.0
 40
1.0
 40
1.0
 40
1.0
 10
14.5011
 20
10.6388
 30
0.0
 10
14.5011
 20
10.6388
 30
0.0
 10
14.1771
 20
10.552
 30
0.0
 10
14.1771
 20
10.552
 30
0.0
  0
SPLINE
  5
FE
330
1F
100
AcDbEntity
  8
DEFAULT_1
100
AcDbSpline
210
0.0
220
0.0
230
1.0
 70
    24
 71
     3
 72
     8
 73
     4
 74
     0
 42
0.0000000001
 43
0.0000000001
 40
0.0
 40
0.0
 40
0.0
 40
0.0
 40
1.0
 40
1.0
 40
1.0
 40
1.0
 10
-10.3874
 20
10.6388
 30
0.0
 10
-10.3874
 20
10.6388
 30
0.0
 10
-10.0633
 20
10.552
 30
0.0
 10
-10.0633
 20
10.552
 30
0.0
  0
SPLINE
  5
FF
330
1F
100
AcDbEntity
  8
DEFAULT_1
100
AcDbSpline
210
0.0
220
0.0
230
1.0
 70
    24
 71
     3
 72
     8
 73
     4
 74
     0
 42
0.0000000001
 43
0.0000000001
 40
0.0
 40
0.0
 40
0.0
 40
0.0
 40
1.0
 40
1.0
 40
1.0
 40
1.0
 10
14.5011
 20
11.5988
 30
0.0
 10
14.5011
 20
11.5988
 30
0.0
 10
14.1771
 20
11.512
 30
0.0
 10
14.1771
 20
11.512
 30
0.0
  0
SPLINE
  5
100
330
1F
100
AcDbEntity
  8
DEFAULT_1
100
AcDbSpline
210
0.0
220
0.0
230
1.0
 70
    24
 71
     3
 72
     8
 73
     4
 74
     0
 42
0.0000000001
 43
0.0000000001
 40
0.0
 40
0.0
 40
0.0
 40
0.0
 40
1.0
 40
1.0
 40
1.0
 40
1.0
 10
-10.3874
 20
11.5988
 30
0.0
 10
-10.3874
 20
11.5988
 30
0.0
 10
-10.0633
 20
11.512
 30
0.0
 10
-10.0633
 20
11.512
 30
0.0
  0
SPLINE
  5
101
330
1F
100
AcDbEntity
  8
DEFAULT_1
100
AcDbSpline
210
0.0
220
0.0
230
1.0
 70
    24
 71
     3
 72
     8
 73
     4
 74
     0
 42
0.0000000001
 43
0.0000000001
 40
0.0
 40
0.0
 40
0.0
 40
0.0
 40
1.0
 40
1.0
 40
1.0
 40
1.0
 10
14.5011
 20
12.5588
 30
0.0
 10
14.5011
 20
12.5588
 30
0.0
 10
14.1771
 20
12.472
 30
0.0
 10
14.1771
 20
12.472
 30
0.0
  0
SPLINE
  5
102
330
1F
100
AcDbEntity
  8
DEFAULT_1
100
AcDbSpline
210
0.0
220
0.0
230
1.0
 70
    24
 71
     3
 72
     8
 73
     4
 74
     0
 42
0.0000000001
 43
0.0000000001
 40
0.0
 40
0.0
 40
0.0
 40
0.0
 40
1.0
 40
1.0
 40
1.0
 40
1.0
 10
-10.0633
 20
6.1119
 30
0.0
 10
-10.0633
 20
6.1119
 30
0.0
 10
-10.3874
 20
6.0251
 30
0.0
 10
-10.3874
 20
6.0251
 30
0.0
  0
SPLINE
  5
103
330
1F
100
AcDbEntity
  8
DEFAULT_1
100
AcDbSpline
210
0.0
220
0.0
230
1.0
 70
    24
 71
     3
 72
     8
 73
     4
 74
     0
 42
0.0000000001
 43
0.0000000001
 40
0.0
 40
0.0
 40
0.0
 40
0.0
 40
1.0
 40
1.0
 40
1.0
 40
1.0
 10
-10.3874
 20
12.5588
 30
0.0
 10
-10.3874
 20
12.5588
 30
0.0
 10
-10.0633
 20
12.472
 30
0.0
 10
-10.0633
 20
12.472
 30
0.0
  0
SPLINE
  5
104
330
1F
100
AcDbEntity
  8
DEFAULT_1
100
AcDbSpline
210
0.0
220
0.0
230
1.0
 70
    24
 71
     3
 72
     8
 73
     4
 74
     0
 42
0.0000000001
 43
0.0000000001
 40
0.0
 40
0.0
 40
0.0
 40
0.0
 40
1.0
 40
1.0
 40
1.0
 40
1.0
 10
14.1771
 20
6.1119
 30
0.0
 10
14.1771
 20
6.1119
 30
0.0
 10
14.5011
 20
6.0251
 30
0.0
 10
14.5011
 20
6.0251
 30
0.0
  0
SPLINE
  5
105
330
1F
100
AcDbEntity
  8
DEFAULT_1
100
AcDbSpline
210
0.0
220
0.0
230
1.0
 70
    24
 71
     3
 72
     8
 73
     4
 74
     0
 42
0.0000000001
 43
0.0000000001
 40
0.0
 40
0.0
 40
0.0
 40
0.0
 40
1.0
 40
1.0
 40
1.0
 40
1.0
 10
-9.6711
 20
5.0799
 30
0.0
 10
-9.6711
 20
5.0799
 30
0.0
 10
-9.7189
 20
5.0319
 30
0.0
 10
-9.7189
 20
5.0319
 30
0.0
  0
SPLINE
  5
106
330
1F
100
AcDbEntity
  8
DEFAULT_1
100
AcDbSpline
210
0.0
220
0.0
230
1.0
 70
    24
 71
     3
 72
     8
 73
     4
 74
     0
 42
0.0000000001
 43
0.0000000001
 40
0.0
 40
0.0
 40
0.0
 40
0.0
 40
1.0
 40
1.0
 40
1.0
 40
1.0
 10
14.5011
 20
13.5189
 30
0.0
 10
14.5011
 20
13.5189
 30
0.0
 10
14.1771
 20
13.4321
 30
0.0
 10
14.1771
 20
13.4321
 30
0.0
  0
SPLINE
  5
107
330
1F
100
AcDbEntity
  8
DEFAULT_1
100
AcDbSpline
210
0.0
220
0.0
230
1.0
 70
    24
 71
     3
 72
     8
 73
     4
 74
     0
 42
0.0000000001
 43
0.0000000001
 40
0.0
 40
0.0
 40
0.0
 40
0.0
 40
1.0
 40
1.0
 40
1.0
 40
1.0
 10
-10.0633
 20
7.0719
 30
0.0
 10
-10.0633
 20
7.0719
 30
0.0
 10
-10.3874
 20
6.9851
 30
0.0
 10
-10.3874
 20
6.9851
 30
0.0
  0
SPLINE
  5
108
330
1F
100
AcDbEntity
  8
DEFAULT_1
100
AcDbSpline
210
0.0
220
0.0
230
1.0
 70
    24
 71
     3
 72
     8
 73
     4
 74
     0
 42
0.0000000001
 43
0.0000000001
 40
0.0
 40
0.0
 40
0.0
 40
0.0
 40
1.0
 40
1.0
 40
1.0
 40
1.0
 10
-10.3874
 20
13.5189
 30
0.0
 10
-10.3874
 20
13.5189
 30
0.0
 10
-10.0633
 20
13.4321
 30
0.0
 10
-10.0633
 20
13.4321
 30
0.0
  0
SPLINE
  5
109
330
1F
100
AcDbEntity
  8
DEFAULT_1
100
AcDbSpline
210
0.0
220
0.0
230
1.0
 70
    24
 71
     3
 72
     8
 73
     4
 74
     0
 42
0.0000000001
 43
0.0000000001
 40
0.0
 40
0.0
 40
0.0
 40
0.0
 40
1.0
 40
1.0
 40
1.0
 40
1.0
 10
14.1771
 20
7.0719
 30
0.0
 10
14.1771
 20
7.0719
 30
0.0
 10
14.5011
 20
6.9851
 30
0.0
 10
14.5011
 20
6.9851
 30
0.0
  0
SPLINE
  5
10A
330
1F
100
AcDbEntity
  8
DEFAULT_1
100
AcDbSpline
210
0.0
220
0.0
230
1.0
 70
    24
 71
     3
 72
     8
 73
     4
 74
     0
 42
0.0000000001
 43
0.0000000001
 40
0.0
 40
0.0
 40
0.0
 40
0.0
 40
1.0
 40
1.0
 40
1.0
 40
1.0
 10
14.5011
 20
14.4789
 30
0.0
 10
14.5011
 20
14.4789
 30
0.0
 10
14.1771
 20
14.3921
 30
0.0
 10
14.1771
 20
14.3921
 30
0.0
  0
SPLINE
  5
10B
330
1F
100
AcDbEntity
  8
DEFAULT_1
100
AcDbSpline
210
0.0
220
0.0
230
1.0
 70
    24
 71
     3
 72
     8
 73
     4
 74
     0
 42
0.0000000001
 43
0.0000000001
 40
0.0
 40
0.0
 40
0.0
 40
0.0
 40
1.0
 40
1.0
 40
1.0
 40
1.0
 10
-10.0633
 20
8.032
 30
0.0
 10
-10.0633
 20
8.032
 30
0.0
 10
-10.3874
 20
7.9451
 30
0.0
 10
-10.3874
 20
7.9451
 30
0.0
  0
SPLINE
  5
10C
330
1F
100
AcDbEntity
  8
DEFAULT_1
100
AcDbSpline
210
0.0
220
0.0
230
1.0
 70
    24
 71
     3
 72
     8
 73
     4
 74
     0
 42
0.0000000001
 43
0.0000000001
 40
0.0
 40
0.0
 40
0.0
 40
0.0
 40
1.0
 40
1.0
 40
1.0
 40
1.0
 10
-10.3874
 20
14.4789
 30
0.0
 10
-10.3874
 20
14.4789
 30
0.0
 10
-10.0633
 20
14.3921
 30
0.0
 10
-10.0633
 20
14.3921
 30
0.0
  0
SPLINE
  5
10D
330
1F
100
AcDbEntity
  8
DEFAULT_1
100
AcDbSpline
210
0.0
220
0.0
230
1.0
 70
    24
 71
     3
 72
     8
 73
     4
 74
     0
 42
0.0000000001
 43
0.0000000001
 40
0.0
 40
0.0
 40
0.0
 40
0.0
 40
1.0
 40
1.0
 40
1.0
 40
1.0
 10
14.1771
 20
8.032
 30
0.0
 10
14.1771
 20
8.032
 30
0.0
 10
14.5011
 20
7.9451
 30
0.0
 10
14.5011
 20
7.9451
 30
0.0
  0
SPLINE
  5
10E
330
1F
100
AcDbEntity
  8
DEFAULT_1
100
AcDbSpline
210
0.0
220
0.0
230
1.0
 70
    24
 71
     3
 72
     8
 73
     4
 74
     0
 42
0.0000000001
 43
0.0000000001
 40
0.0
 40
0.0
 40
0.0
 40
0.0
 40
1.0
 40
1.0
 40
1.0
 40
1.0
 10
14.5011
 20
15.4389
 30
0.0
 10
14.5011
 20
15.4389
 30
0.0
 10
14.1771
 20
15.3521
 30
0.0
 10
14.1771
 20
15.3521
 30
0.0
  0
SPLINE
  5
10F
330
1F
100
AcDbEntity
  8
DEFAULT_1
100
AcDbSpline
210
0.0
220
0.0
230
1.0
 70
    24
 71
     3
 72
     8
 73
     4
 74
     0
 42
0.0000000001
 43
0.0000000001
 40
0.0
 40
0.0
 40
0.0
 40
0.0
 40
1.0
 40
1.0
 40
1.0
 40
1.0
 10
-10.0633
 20
8.992
 30
0.0
 10
-10.0633
 20
8.992
 30
0.0
 10
-10.3874
 20
8.9051
 30
0.0
 10
-10.3874
 20
8.9051
 30
0.0
  0
SPLINE
  5
110
330
1F
100
AcDbEntity
  8
DEFAULT_1
100
AcDbSpline
210
0.0
220
0.0
230
1.0
 70
    24
 71
     3
 72
     8
 73
     4
 74
     0
 42
0.0000000001
 43
0.0000000001
 40
0.0
 40
0.0
 40
0.0
 40
0.0
 40
1.0
 40
1.0
 40
1.0
 40
1.0
 10
-10.3874
 20
15.4389
 30
0.0
 10
-10.3874
 20
15.4389
 30
0.0
 10
-10.0633
 20
15.3521
 30
0.0
 10
-10.0633
 20
15.3521
 30
0.0
  0
SPLINE
  5
111
330
1F
100
AcDbEntity
  8
DEFAULT_1
100
AcDbSpline
210
0.0
220
0.0
230
1.0
 70
    24
 71
     3
 72
     8
 73
     4
 74
     0
 42
0.0000000001
 43
0.0000000001
 40
0.0
 40
0.0
 40
0.0
 40
0.0
 40
1.0
 40
1.0
 40
1.0
 40
1.0
 10
14.1771
 20
8.992
 30
0.0
 10
14.1771
 20
8.992
 30
0.0
 10
14.5011
 20
8.9051
 30
0.0
 10
14.5011
 20
8.9051
 30
0.0
  0
SPLINE
  5
112
330
1F
100
AcDbEntity
  8
DEFAULT_1
100
AcDbSpline
210
0.0
220
0.0
230
1.0
 70
    24
 71
     3
 72
     8
 73
     4
 74
     0
 42
0.0000000001
 43
0.0000000001
 40
0.0
 40
0.0
 40
0.0
 40
0.0
 40
1.0
 40
1.0
 40
1.0
 40
1.0
 10
-10.0633
 20
9.952
 30
0.0
 10
-10.0633
 20
9.952
 30
0.0
 10
-10.3874
 20
9.8652
 30
0.0
 10
-10.3874
 20
9.8652
 30
0.0
  0
SPLINE
  5
113
330
1F
100
AcDbEntity
  8
DEFAULT_1
100
AcDbSpline
210
0.0
220
0.0
230
1.0
 70
    24
 71
     3
 72
     8
 73
     4
 74
     0
 42
0.0000000001
 43
0.0000000001
 40
0.0
 40
0.0
 40
0.0
 40
0.0
 40
1.0
 40
1.0
 40
1.0
 40
1.0
 10
-10.0633
 20
10.912
 30
0.0
 10
-10.0633
 20
10.912
 30
0.0
 10
-10.3874
 20
10.8252
 30
0.0
 10
-10.3874
 20
10.8252
 30
0.0
  0
SPLINE
  5
114
330
1F
100
AcDbEntity
  8
DEFAULT_1
100
AcDbSpline
210
0.0
220
0.0
230
1.0
 70
    24
 71
     3
 72
     8
 73
     4
 74
     0
 42
0.0000000001
 43
0.0000000001
 40
0.0
 40
0.0
 40
0.0
 40
0.0
 40
1.0
 40
1.0
 40
1.0
 40
1.0
 10
14.1771
 20
9.952
 30
0.0
 10
14.1771
 20
9.952
 30
0.0
 10
14.5011
 20
9.8652
 30
0.0
 10
14.5011
 20
9.8652
 30
0.0
  0
SPLINE
  5
115
330
1F
100
AcDbEntity
  8
DEFAULT_1
100
AcDbSpline
210
0.0
220
0.0
230
1.0
 70
    24
 71
     3
 72
     8
 73
     4
 74
     0
 42
0.0000000001
 43
0.0000000001
 40
0.0
 40
0.0
 40
0.0
 40
0.0
 40
1.0
 40
1.0
 40
1.0
 40
1.0
 10
14.1771
 20
10.912
 30
0.0
 10
14.1771
 20
10.912
 30
0.0
 10
14.5011
 20
10.8252
 30
0.0
 10
14.5011
 20
10.8252
 30
0.0
  0
SPLINE
  5
116
330
1F
100
AcDbEntity
  8
DEFAULT_1
100
AcDbSpline
210
0.0
220
0.0
230
1.0
 70
    24
 71
     3
 72
     8
 73
     4
 74
     0
 42
0.0000000001
 43
0.0000000001
 40
0.0
 40
0.0
 40
0.0
 40
0.0
 40
1.0
 40
1.0
 40
1.0
 40
1.0
 10
-10.0633
 20
11.872
 30
0.0
 10
-10.0633
 20
11.872
 30
0.0
 10
-10.3874
 20
11.7852
 30
0.0
 10
-10.3874
 20
11.7852
 30
0.0
  0
SPLINE
  5
117
330
1F
100
AcDbEntity
  8
DEFAULT_1
100
AcDbSpline
210
0.0
220
0.0
230
1.0
 70
    24
 71
     3
 72
     8
 73
     4
 74
     0
 42
0.0000000001
 43
0.0000000001
 40
0.0
 40
0.0
 40
0.0
 40
0.0
 40
1.0
 40
1.0
 40
1.0
 40
1.0
 10
1.8812
 20
15.1121
 30
0.0
 10
1.8812
 20
15.1121
 30
0.0
 10
2.2324
 20
15.1121
 30
0.0
 10
2.2324
 20
15.1121
 30
0.0
  0
SPLINE
  5
118
330
1F
100
AcDbEntity
  8
DEFAULT_1
100
AcDbSpline
210
0.0
220
0.0
230
1.0
 70
    24
 71
     3
 72
     8
 73
     4
 74
     0
 42
0.0000000001
 43
0.0000000001
 40
0.0
 40
0.0
 40
0.0
 40
0.0
 40
1.0
 40
1.0
 40
1.0
 40
1.0
 10
14.1771
 20
11.872
 30
0.0
 10
14.1771
 20
11.872
 30
0.0
 10
14.5011
 20
11.7852
 30
0.0
 10
14.5011
 20
11.7852
 30
0.0
  0
SPLINE
  5
119
330
1F
100
AcDbEntity
  8
DEFAULT_1
100
AcDbSpline
210
0.0
220
0.0
230
1.0
 70
    24
 71
     3
 72
     8
 73
     4
 74
     0
 42
0.0000000001
 43
0.0000000001
 40
0.0
 40
0.0
 40
0.0
 40
0.0
 40
1.0
 40
1.0
 40
1.0
 40
1.0
 10
-10.0633
 20
12.832
 30
0.0
 10
-10.0633
 20
12.832
 30
0.0
 10
-10.3874
 20
12.7452
 30
0.0
 10
-10.3874
 20
12.7452
 30
0.0
  0
SPLINE
  5
11A
330
1F
100
AcDbEntity
  8
DEFAULT_1
100
AcDbSpline
210
0.0
220
0.0
230
1.0
 70
    24
 71
     3
 72
     8
 73
     4
 74
     0
 42
0.0000000001
 43
0.0000000001
 40
0.0
 40
0.0
 40
0.0
 40
0.0
 40
1.0
 40
1.0
 40
1.0
 40
1.0
 10
14.1771
 20
12.832
 30
0.0
 10
14.1771
 20
12.832
 30
0.0
 10
14.5011
 20
12.7452
 30
0.0
 10
14.5011
 20
12.7452
 30
0.0
  0
SPLINE
  5
11B
330
1F
100
AcDbEntity
  8
DEFAULT_1
100
AcDbSpline
210
0.0
220
0.0
230
1.0
 70
    24
 71
     3
 72
     8
 73
     4
 74
     0
 42
0.0000000001
 43
0.0000000001
 40
0.0
 40
0.0
 40
0.0
 40
0.0
 40
1.0
 40
1.0
 40
1.0
 40
1.0
 10
13.7848
 20
5.0799
 30
0.0
 10
13.7848
 20
5.0799
 30
0.0
 10
13.8326
 20
5.0319
 30
0.0
 10
13.8326
 20
5.0319
 30
0.0
  0
SPLINE
  5
11C
330
1F
100
AcDbEntity
  8
DEFAULT_1
100
AcDbSpline
210
0.0
220
0.0
230
1.0
 70
    24
 71
     3
 72
     8
 73
     4
 74
     0
 42
0.0000000001
 43
0.0000000001
 40
0.0
 40
0.0
 40
0.0
 40
0.0
 40
1.0
 40
1.0
 40
1.0
 40
1.0
 10
14.8813
 20
20.9755
 30
0.0
 10
14.8813
 20
20.9755
 30
0.0
 10
14.8979
 20
20.9922
 30
0.0
 10
14.8979
 20
20.9922
 30
0.0
  0
SPLINE
  5
11D
330
1F
100
AcDbEntity
  8
DEFAULT_1
100
AcDbSpline
210
0.0
220
0.0
230
1.0
 70
    24
 71
     3
 72
     8
 73
     4
 74
     0
 42
0.0000000001
 43
0.0000000001
 40
0.0
 40
0.0
 40
0.0
 40
0.0
 40
1.0
 40
1.0
 40
1.0
 40
1.0
 10
-10.0633
 20
13.7921
 30
0.0
 10
-10.0633
 20
13.7921
 30
0.0
 10
-10.3874
 20
13.7052
 30
0.0
 10
-10.3874
 20
13.7052
 30
0.0
  0
SPLINE
  5
11E
330
1F
100
AcDbEntity
  8
DEFAULT_1
100
AcDbSpline
210
0.0
220
0.0
230
1.0
 70
    24
 71
     3
 72
     8
 73
     4
 74
     0
 42
0.0000000001
 43
0.0000000001
 40
0.0
 40
0.0
 40
0.0
 40
0.0
 40
1.0
 40
1.0
 40
1.0
 40
1.0
 10
14.1771
 20
13.7921
 30
0.0
 10
14.1771
 20
13.7921
 30
0.0
 10
14.5011
 20
13.7052
 30
0.0
 10
14.5011
 20
13.7052
 30
0.0
  0
SPLINE
  5
11F
330
1F
100
AcDbEntity
  8
DEFAULT_1
100
AcDbSpline
210
0.0
220
0.0
230
1.0
 70
    24
 71
     3
 72
     8
 73
     4
 74
     0
 42
0.0000000001
 43
0.0000000001
 40
0.0
 40
0.0
 40
0.0
 40
0.0
 40
1.0
 40
1.0
 40
1.0
 40
1.0
 10
13.8529
 20
18.0836
 30
0.0
 10
13.8529
 20
18.0836
 30
0.0
 10
13.8814
 20
18.1121
 30
0.0
 10
13.8814
 20
18.1121
 30
0.0
  0
SPLINE
  5
120
330
1F
100
AcDbEntity
  8
DEFAULT_1
100
AcDbSpline
210
0.0
220
0.0
230
1.0
 70
    24
 71
     3
 72
     8
 73
     4
 74
     0
 42
0.0000000001
 43
0.0000000001
 40
0.0
 40
0.0
 40
0.0
 40
0.0
 40
1.0
 40
1.0
 40
1.0
 40
1.0
 10
-10.0633
 20
14.7521
 30
0.0
 10
-10.0633
 20
14.7521
 30
0.0
 10
-10.3874
 20
14.6652
 30
0.0
 10
-10.3874
 20
14.6652
 30
0.0
  0
SPLINE
  5
121
330
1F
100
AcDbEntity
  8
DEFAULT_1
100
AcDbSpline
210
0.0
220
0.0
230
1.0
 70
    24
 71
     3
 72
     8
 73
     4
 74
     0
 42
0.0000000001
 43
0.0000000001
 40
0.0
 40
0.0
 40
0.0
 40
0.0
 40
1.0
 40
1.0
 40
1.0
 40
1.0
 10
15.2571
 20
17.5253
 30
0.0
 10
15.2571
 20
17.5253
 30
0.0
 10
14.5011
 20
17.5121
 30
0.0
 10
14.5011
 20
17.5121
 30
0.0
  0
SPLINE
  5
122
330
1F
100
AcDbEntity
  8
DEFAULT_1
100
AcDbSpline
210
0.0
220
0.0
230
1.0
 70
    24
 71
     3
 72
     8
 73
     4
 74
     0
 42
0.0000000001
 43
0.0000000001
 40
0.0
 40
0.0
 40
0.0
 40
0.0
 40
1.0
 40
1.0
 40
1.0
 40
1.0
 10
14.6571
 20
18.1121
 30
0.0
 10
14.6571
 20
18.1121
 30
0.0
 10
-10.5434
 20
18.1121
 30
0.0
 10
-10.5434
 20
18.1121
 30
0.0
  0
SPLINE
  5
123
330
1F
100
AcDbEntity
  8
DEFAULT_1
100
AcDbSpline
210
0.0
220
0.0
230
1.0
 70
    24
 71
     3
 72
     8
 73
     4
 74
     0
 42
0.0000000001
 43
0.0000000001
 40
0.0
 40
0.0
 40
0.0
 40
0.0
 40
1.0
 40
1.0
 40
1.0
 40
1.0
 10
-11.1434
 20
17.5253
 30
0.0
 10
-11.1434
 20
17.5253
 30
0.0
 10
-10.3874
 20
17.5121
 30
0.0
 10
-10.3874
 20
17.5121
 30
0.0
  0
SPLINE
  5
124
330
1F
100
AcDbEntity
  8
DEFAULT_1
100
AcDbSpline
210
0.0
220
0.0
230
1.0
 70
    24
 71
     3
 72
     8
 73
     4
 74
     0
 42
0.0000000001
 43
0.0000000001
 40
0.0
 40
0.0
 40
0.0
 40
0.0
 40
1.0
 40
1.0
 40
1.0
 40
1.0
 10
14.1771
 20
14.7521
 30
0.0
 10
14.1771
 20
14.7521
 30
0.0
 10
14.5011
 20
14.6652
 30
0.0
 10
14.5011
 20
14.6652
 30
0.0
  0
SPLINE
  5
125
330
1F
100
AcDbEntity
  8
DEFAULT_1
100
AcDbSpline
210
0.0
220
0.0
230
1.0
 70
    24
 71
     3
 72
     8
 73
     4
 74
     0
 42
0.0000000001
 43
0.0000000001
 40
0.0
 40
0.0
 40
0.0
 40
0.0
 40
1.0
 40
1.0
 40
1.0
 40
1.0
 10
14.6791
 20
20.6322
 30
0.0
 10
14.6791
 20
20.6322
 30
0.0
 10
14.8911
 20
20.9922
 30
0.0
 10
14.8911
 20
20.9922
 30
0.0
  0
SPLINE
  5
126
330
1F
100
AcDbEntity
  8
DEFAULT_1
100
AcDbSpline
210
0.0
220
0.0
230
1.0
 70
    24
 71
     3
 72
     8
 73
     4
 74
     0
 42
0.0000000001
 43
0.0000000001
 40
0.0
 40
0.0
 40
0.0
 40
0.0
 40
1.0
 40
1.0
 40
1.0
 40
1.0
 10
14.6791
 20
20.6322
 30
0.0
 10
14.6791
 20
20.6322
 30
0.0
 10
-10.5653
 20
20.6322
 30
0.0
 10
-10.5653
 20
20.6322
 30
0.0
  0
SPLINE
  5
127
330
1F
100
AcDbEntity
  8
DEFAULT_1
100
AcDbSpline
210
0.0
220
0.0
230
1.0
 70
    24
 71
     3
 72
     8
 73
     4
 74
     0
 42
0.0000000001
 43
0.0000000001
 40
0.0
 40
0.0
 40
0.0
 40
0.0
 40
1.0
 40
1.0
 40
1.0
 40
1.0
 10
15.2571
 20
20.9922
 30
0.0
 10
15.2571
 20
20.9922
 30
0.0
 10
-11.1434
 20
20.9922
 30
0.0
 10
-11.1434
 20
20.9922
 30
0.0
  0
SPLINE
  5
128
330
1F
100
AcDbEntity
  8
DEFAULT_1
100
AcDbSpline
210
0.0
220
0.0
230
1.0
 70
    24
 71
     3
 72
     8
 73
     4
 74
     0
 42
0.0000000001
 43
0.0000000001
 40
0.0
 40
0.0
 40
0.0
 40
0.0
 40
1.0
 40
1.0
 40
1.0
 40
1.0
 10
14.4691
 20
12.5503
 30
0.0
 10
14.4691
 20
12.5503
 30
0.0
 10
14.5011
 20
12.5822
 30
0.0
 10
14.5011
 20
12.5822
 30
0.0
  0
SPLINE
  5
129
330
1F
100
AcDbEntity
  8
DEFAULT_1
100
AcDbSpline
210
0.0
220
0.0
230
1.0
 70
    24
 71
     3
 72
     8
 73
     4
 74
     0
 42
0.0000000001
 43
0.0000000001
 40
0.0
 40
0.0
 40
0.0
 40
0.0
 40
1.0
 40
1.0
 40
1.0
 40
1.0
 10
14.1771
 20
15.3521
 30
0.0
 10
14.1771
 20
15.3521
 30
0.0
 10
14.1771
 20
14.7521
 30
0.0
 10
14.1771
 20
14.7521
 30
0.0
  0
SPLINE
  5
12A
330
1F
100
AcDbEntity
  8
DEFAULT_1
100
AcDbSpline
210
0.0
220
0.0
230
1.0
 70
    24
 71
     3
 72
     8
 73
     4
 74
     0
 42
0.0000000001
 43
0.0000000001
 40
0.0
 40
0.0
 40
0.0
 40
0.0
 40
1.0
 40
1.0
 40
1.0
 40
1.0
 10
14.1771
 20
14.3921
 30
0.0
 10
14.1771
 20
14.3921
 30
0.0
 10
14.1771
 20
13.7921
 30
0.0
 10
14.1771
 20
13.7921
 30
0.0
  0
SPLINE
  5
12B
330
1F
100
AcDbEntity
  8
DEFAULT_1
100
AcDbSpline
210
0.0
220
0.0
230
1.0
 70
    24
 71
     3
 72
     8
 73
     4
 74
     0
 42
0.0000000001
 43
0.0000000001
 40
0.0
 40
0.0
 40
0.0
 40
0.0
 40
1.0
 40
1.0
 40
1.0
 40
1.0
 10
14.1771
 20
13.4321
 30
0.0
 10
14.1771
 20
13.4321
 30
0.0
 10
14.1771
 20
12.832
 30
0.0
 10
14.1771
 20
12.832
 30
0.0
  0
SPLINE
  5
12C
330
1F
100
AcDbEntity
  8
DEFAULT_1
100
AcDbSpline
210
0.0
220
0.0
230
1.0
 70
    24
 71
     3
 72
     8
 73
     4
 74
     0
 42
0.0000000001
 43
0.0000000001
 40
0.0
 40
0.0
 40
0.0
 40
0.0
 40
1.0
 40
1.0
 40
1.0
 40
1.0
 10
14.1771
 20
12.472
 30
0.0
 10
14.1771
 20
12.472
 30
0.0
 10
14.1771
 20
11.872
 30
0.0
 10
14.1771
 20
11.872
 30
0.0
  0
SPLINE
  5
12D
330
1F
100
AcDbEntity
  8
DEFAULT_1
100
AcDbSpline
210
0.0
220
0.0
230
1.0
 70
    24
 71
     3
 72
     8
 73
     4
 74
     0
 42
0.0000000001
 43
0.0000000001
 40
0.0
 40
0.0
 40
0.0
 40
0.0
 40
1.0
 40
1.0
 40
1.0
 40
1.0
 10
14.1771
 20
11.512
 30
0.0
 10
14.1771
 20
11.512
 30
0.0
 10
14.1771
 20
10.912
 30
0.0
 10
14.1771
 20
10.912
 30
0.0
  0
SPLINE
  5
12E
330
1F
100
AcDbEntity
  8
DEFAULT_1
100
AcDbSpline
210
0.0
220
0.0
230
1.0
 70
    24
 71
     3
 72
     8
 73
     4
 74
     0
 42
0.0000000001
 43
0.0000000001
 40
0.0
 40
0.0
 40
0.0
 40
0.0
 40
1.0
 40
1.0
 40
1.0
 40
1.0
 10
14.1771
 20
10.552
 30
0.0
 10
14.1771
 20
10.552
 30
0.0
 10
14.1771
 20
9.952
 30
0.0
 10
14.1771
 20
9.952
 30
0.0
  0
SPLINE
  5
12F
330
1F
100
AcDbEntity
  8
DEFAULT_1
100
AcDbSpline
210
0.0
220
0.0
230
1.0
 70
    24
 71
     3
 72
     8
 73
     4
 74
     0
 42
0.0000000001
 43
0.0000000001
 40
0.0
 40
0.0
 40
0.0
 40
0.0
 40
1.0
 40
1.0
 40
1.0
 40
1.0
 10
14.1771
 20
9.592
 30
0.0
 10
14.1771
 20
9.592
 30
0.0
 10
14.1771
 20
8.992
 30
0.0
 10
14.1771
 20
8.992
 30
0.0
  0
SPLINE
  5
130
330
1F
100
AcDbEntity
  8
DEFAULT_1
100
AcDbSpline
210
0.0
220
0.0
230
1.0
 70
    24
 71
     3
 72
     8
 73
     4
 74
     0
 42
0.0000000001
 43
0.0000000001
 40
0.0
 40
0.0
 40
0.0
 40
0.0
 40
1.0
 40
1.0
 40
1.0
 40
1.0
 10
14.1771
 20
8.632
 30
0.0
 10
14.1771
 20
8.632
 30
0.0
 10
14.1771
 20
8.032
 30
0.0
 10
14.1771
 20
8.032
 30
0.0
  0
SPLINE
  5
131
330
1F
100
AcDbEntity
  8
DEFAULT_1
100
AcDbSpline
210
0.0
220
0.0
230
1.0
 70
    24
 71
     3
 72
     8
 73
     4
 74
     0
 42
0.0000000001
 43
0.0000000001
 40
0.0
 40
0.0
 40
0.0
 40
0.0
 40
1.0
 40
1.0
 40
1.0
 40
1.0
 10
14.1771
 20
7.672
 30
0.0
 10
14.1771
 20
7.672
 30
0.0
 10
14.1771
 20
7.0719
 30
0.0
 10
14.1771
 20
7.0719
 30
0.0
  0
SPLINE
  5
132
330
1F
100
AcDbEntity
  8
DEFAULT_1
100
AcDbSpline
210
0.0
220
0.0
230
1.0
 70
    24
 71
     3
 72
     8
 73
     4
 74
     0
 42
0.0000000001
 43
0.0000000001
 40
0.0
 40
0.0
 40
0.0
 40
0.0
 40
1.0
 40
1.0
 40
1.0
 40
1.0
 10
14.1771
 20
6.7119
 30
0.0
 10
14.1771
 20
6.7119
 30
0.0
 10
14.1771
 20
6.1119
 30
0.0
 10
14.1771
 20
6.1119
 30
0.0
  0
SPLINE
  5
133
330
1F
100
AcDbEntity
  8
DEFAULT_1
100
AcDbSpline
210
0.0
220
0.0
230
1.0
 70
    24
 71
     3
 72
     8
 73
     4
 74
     0
 42
0.0000000001
 43
0.0000000001
 40
0.0
 40
0.0
 40
0.0
 40
0.0
 40
1.0
 40
1.0
 40
1.0
 40
1.0
 10
14.1771
 20
5.0319
 30
0.0
 10
14.1771
 20
5.0319
 30
0.0
 10
14.1771
 20
5.7519
 30
0.0
 10
14.1771
 20
5.7519
 30
0.0
  0
SPLINE
  5
134
330
1F
100
AcDbEntity
  8
DEFAULT_1
100
AcDbSpline
210
0.0
220
0.0
230
1.0
 70
    24
 71
     3
 72
     8
 73
     4
 74
     0
 42
0.0000000001
 43
0.0000000001
 40
0.0
 40
0.0
 40
0.0
 40
0.0
 40
1.0
 40
1.0
 40
1.0
 40
1.0
 10
14.5011
 20
17.5121
 30
0.0
 10
14.5011
 20
17.5121
 30
0.0
 10
14.5011
 20
15.4389
 30
0.0
 10
14.5011
 20
15.4389
 30
0.0
  0
SPLINE
  5
135
330
1F
100
AcDbEntity
  8
DEFAULT_1
100
AcDbSpline
210
0.0
220
0.0
230
1.0
 70
    24
 71
     3
 72
     8
 73
     4
 74
     0
 42
0.0000000001
 43
0.0000000001
 40
0.0
 40
0.0
 40
0.0
 40
0.0
 40
1.0
 40
1.0
 40
1.0
 40
1.0
 10
14.5011
 20
5.8387
 30
0.0
 10
14.5011
 20
5.8387
 30
0.0
 10
14.5011
 20
6.0251
 30
0.0
 10
14.5011
 20
6.0251
 30
0.0
  0
SPLINE
  5
136
330
1F
100
AcDbEntity
  8
DEFAULT_1
100
AcDbSpline
210
0.0
220
0.0
230
1.0
 70
    24
 71
     3
 72
     8
 73
     4
 74
     0
 42
0.0000000001
 43
0.0000000001
 40
0.0
 40
0.0
 40
0.0
 40
0.0
 40
1.0
 40
1.0
 40
1.0
 40
1.0
 10
14.5011
 20
6.7987
 30
0.0
 10
14.5011
 20
6.7987
 30
0.0
 10
14.5011
 20
6.9851
 30
0.0
 10
14.5011
 20
6.9851
 30
0.0
  0
SPLINE
  5
137
330
1F
100
AcDbEntity
  8
DEFAULT_1
100
AcDbSpline
210
0.0
220
0.0
230
1.0
 70
    24
 71
     3
 72
     8
 73
     4
 74
     0
 42
0.0000000001
 43
0.0000000001
 40
0.0
 40
0.0
 40
0.0
 40
0.0
 40
1.0
 40
1.0
 40
1.0
 40
1.0
 10
14.5011
 20
7.7587
 30
0.0
 10
14.5011
 20
7.7587
 30
0.0
 10
14.5011
 20
7.9451
 30
0.0
 10
14.5011
 20
7.9451
 30
0.0
  0
SPLINE
  5
138
330
1F
100
AcDbEntity
  8
DEFAULT_1
100
AcDbSpline
210
0.0
220
0.0
230
1.0
 70
    24
 71
     3
 72
     8
 73
     4
 74
     0
 42
0.0000000001
 43
0.0000000001
 40
0.0
 40
0.0
 40
0.0
 40
0.0
 40
1.0
 40
1.0
 40
1.0
 40
1.0
 10
14.5011
 20
8.7188
 30
0.0
 10
14.5011
 20
8.7188
 30
0.0
 10
14.5011
 20
8.9051
 30
0.0
 10
14.5011
 20
8.9051
 30
0.0
  0
SPLINE
  5
139
330
1F
100
AcDbEntity
  8
DEFAULT_1
100
AcDbSpline
210
0.0
220
0.0
230
1.0
 70
    24
 71
     3
 72
     8
 73
     4
 74
     0
 42
0.0000000001
 43
0.0000000001
 40
0.0
 40
0.0
 40
0.0
 40
0.0
 40
1.0
 40
1.0
 40
1.0
 40
1.0
 10
14.5011
 20
9.6788
 30
0.0
 10
14.5011
 20
9.6788
 30
0.0
 10
14.5011
 20
9.8652
 30
0.0
 10
14.5011
 20
9.8652
 30
0.0
  0
SPLINE
  5
13A
330
1F
100
AcDbEntity
  8
DEFAULT_1
100
AcDbSpline
210
0.0
220
0.0
230
1.0
 70
    24
 71
     3
 72
     8
 73
     4
 74
     0
 42
0.0000000001
 43
0.0000000001
 40
0.0
 40
0.0
 40
0.0
 40
0.0
 40
1.0
 40
1.0
 40
1.0
 40
1.0
 10
14.5011
 20
10.6388
 30
0.0
 10
14.5011
 20
10.6388
 30
0.0
 10
14.5011
 20
10.8252
 30
0.0
 10
14.5011
 20
10.8252
 30
0.0
  0
SPLINE
  5
13B
330
1F
100
AcDbEntity
  8
DEFAULT_1
100
AcDbSpline
210
0.0
220
0.0
230
1.0
 70
    24
 71
     3
 72
     8
 73
     4
 74
     0
 42
0.0000000001
 43
0.0000000001
 40
0.0
 40
0.0
 40
0.0
 40
0.0
 40
1.0
 40
1.0
 40
1.0
 40
1.0
 10
14.5011
 20
11.5988
 30
0.0
 10
14.5011
 20
11.5988
 30
0.0
 10
14.5011
 20
11.7852
 30
0.0
 10
14.5011
 20
11.7852
 30
0.0
  0
SPLINE
  5
13C
330
1F
100
AcDbEntity
  8
DEFAULT_1
100
AcDbSpline
210
0.0
220
0.0
230
1.0
 70
    24
 71
     3
 72
     8
 73
     4
 74
     0
 42
0.0000000001
 43
0.0000000001
 40
0.0
 40
0.0
 40
0.0
 40
0.0
 40
1.0
 40
1.0
 40
1.0
 40
1.0
 10
14.5011
 20
12.5588
 30
0.0
 10
14.5011
 20
12.5588
 30
0.0
 10
14.5011
 20
12.7452
 30
0.0
 10
14.5011
 20
12.7452
 30
0.0
  0
SPLINE
  5
13D
330
1F
100
AcDbEntity
  8
DEFAULT_1
100
AcDbSpline
210
0.0
220
0.0
230
1.0
 70
    24
 71
     3
 72
     8
 73
     4
 74
     0
 42
0.0000000001
 43
0.0000000001
 40
0.0
 40
0.0
 40
0.0
 40
0.0
 40
1.0
 40
1.0
 40
1.0
 40
1.0
 10
14.5011
 20
13.5189
 30
0.0
 10
14.5011
 20
13.5189
 30
0.0
 10
14.5011
 20
13.7052
 30
0.0
 10
14.5011
 20
13.7052
 30
0.0
  0
SPLINE
  5
13E
330
1F
100
AcDbEntity
  8
DEFAULT_1
100
AcDbSpline
210
0.0
220
0.0
230
1.0
 70
    24
 71
     3
 72
     8
 73
     4
 74
     0
 42
0.0000000001
 43
0.0000000001
 40
0.0
 40
0.0
 40
0.0
 40
0.0
 40
1.0
 40
1.0
 40
1.0
 40
1.0
 10
14.5011
 20
14.4789
 30
0.0
 10
14.5011
 20
14.4789
 30
0.0
 10
14.5011
 20
14.6652
 30
0.0
 10
14.5011
 20
14.6652
 30
0.0
  0
SPLINE
  5
13F
330
1F
100
AcDbEntity
  8
DEFAULT_1
100
AcDbSpline
210
0.0
220
0.0
230
1.0
 70
    24
 71
     3
 72
     8
 73
     4
 74
     0
 42
0.0000000001
 43
0.0000000001
 40
0.0
 40
0.0
 40
0.0
 40
0.0
 40
1.0
 40
1.0
 40
1.0
 40
1.0
 10
13.8531
 20
18.1121
 30
0.0
 10
13.8531
 20
18.1121
 30
0.0
 10
13.7848
 20
5.0799
 30
0.0
 10
13.7848
 20
5.0799
 30
0.0
  0
SPLINE
  5
140
330
1F
100
AcDbEntity
  8
DEFAULT_1
100
AcDbSpline
210
0.0
220
0.0
230
1.0
 70
    24
 71
     3
 72
     8
 73
     4
 74
     0
 42
0.0000000001
 43
0.0000000001
 40
0.0
 40
0.0
 40
0.0
 40
0.0
 40
1.0
 40
1.0
 40
1.0
 40
1.0
 10
15.2571
 20
20.9922
 30
0.0
 10
15.2571
 20
20.9922
 30
0.0
 10
15.2571
 20
17.5253
 30
0.0
 10
15.2571
 20
17.5253
 30
0.0
  0
SPLINE
  5
141
330
1F
100
AcDbEntity
  8
DEFAULT_1
100
AcDbSpline
210
0.0
220
0.0
230
1.0
 70
    24
 71
     3
 72
     8
 73
     4
 74
     0
 42
0.0000000001
 43
0.0000000001
 40
0.0
 40
0.0
 40
0.0
 40
0.0
 40
1.0
 40
1.0
 40
1.0
 40
1.0
 10
14.6791
 20
20.6322
 30
0.0
 10
14.6791
 20
20.6322
 30
0.0
 10
14.6571
 20
18.1121
 30
0.0
 10
14.6571
 20
18.1121
 30
0.0
  0
SPLINE
  5
142
330
1F
100
AcDbEntity
  8
DEFAULT_1
100
AcDbSpline
210
0.0
220
0.0
230
1.0
 70
    24
 71
     3
 72
     8
 73
     4
 74
     0
 42
0.0000000001
 43
0.0000000001
 40
0.0
 40
0.0
 40
0.0
 40
0.0
 40
1.0
 40
1.0
 40
1.0
 40
1.0
 10
14.492
 20
6.7963
 30
0.0
 10
14.492
 20
6.7963
 30
0.0
 10
14.5011
 20
6.8054
 30
0.0
 10
14.5011
 20
6.8054
 30
0.0
  0
SPLINE
  5
143
330
1F
100
AcDbEntity
  8
DEFAULT_1
100
AcDbSpline
210
0.0
220
0.0
230
1.0
 70
    24
 71
     3
 72
     8
 73
     4
 74
     0
 42
0.0000000001
 43
0.0000000001
 40
0.0
 40
0.0
 40
0.0
 40
0.0
 40
1.0
 40
1.0
 40
1.0
 40
1.0
 10
14.4533
 20
5.8259
 30
0.0
 10
14.4533
 20
5.8259
 30
0.0
 10
14.5011
 20
5.8737
 30
0.0
 10
14.5011
 20
5.8737
 30
0.0
  0
SPLINE
  5
144
330
1F
100
AcDbEntity
  8
DEFAULT_1
100
AcDbSpline
210
0.0
220
0.0
230
1.0
 70
    24
 71
     3
 72
     8
 73
     4
 74
     0
 42
0.0000000001
 43
0.0000000001
 40
0.0
 40
0.0
 40
0.0
 40
0.0
 40
1.0
 40
1.0
 40
1.0
 40
1.0
 10
1.7569
 20
5.0319
 30
0.0
 10
1.7569
 20
5.0319
 30
0.0
 10
2.3569
 20
5.0319
 30
0.0
 10
2.3569
 20
5.0319
 30
0.0
  0
SPLINE
  5
145
330
1F
100
AcDbEntity
  8
DEFAULT_1
100
AcDbSpline
210
0.0
220
0.0
230
1.0
 70
    24
 71
     3
 72
     8
 73
     4
 74
     0
 42
0.0000000001
 43
0.0000000001
 40
0.0
 40
0.0
 40
0.0
 40
0.0
 40
1.0
 40
1.0
 40
1.0
 40
1.0
 10
1.8812
 20
15.1121
 30
0.0
 10
1.8812
 20
15.1121
 30
0.0
 10
1.8812
 20
15.0405
 30
0.0
 10
1.8812
 20
15.0405
 30
0.0
  0
SPLINE
  5
146
330
1F
100
AcDbEntity
  8
DEFAULT_1
100
AcDbSpline
210
0.0
220
0.0
230
1.0
 70
    24
 71
     3
 72
     8
 73
     4
 74
     0
 42
0.0000000001
 43
0.0000000001
 40
0.0
 40
0.0
 40
0.0
 40
0.0
 40
1.0
 40
1.0
 40
1.0
 40
1.0
 10
1.8092
 20
15.0405
 30
0.0
 10
1.8092
 20
15.0405
 30
0.0
 10
1.7569
 20
5.0319
 30
0.0
 10
1.7569
 20
5.0319
 30
0.0
  0
SPLINE
  5
147
330
1F
100
AcDbEntity
  8
DEFAULT_1
100
AcDbSpline
210
0.0
220
0.0
230
1.0
 70
    24
 71
     3
 72
     8
 73
     4
 74
     0
 42
0.0000000001
 43
0.0000000001
 40
0.0
 40
0.0
 40
0.0
 40
0.0
 40
1.0
 40
1.0
 40
1.0
 40
1.0
 10
1.8812
 20
15.0405
 30
0.0
 10
1.8812
 20
15.0405
 30
0.0
 10
1.8289
 20
5.0319
 30
0.0
 10
1.8289
 20
5.0319
 30
0.0
  0
SPLINE
  5
148
330
1F
100
AcDbEntity
  8
DEFAULT_1
100
AcDbSpline
210
0.0
220
0.0
230
1.0
 70
    24
 71
     3
 72
     8
 73
     4
 74
     0
 42
0.0000000001
 43
0.0000000001
 40
0.0
 40
0.0
 40
0.0
 40
0.0
 40
1.0
 40
1.0
 40
1.0
 40
1.0
 10
2.2324
 20
15.0405
 30
0.0
 10
2.2324
 20
15.0405
 30
0.0
 10
2.2849
 20
5.0319
 30
0.0
 10
2.2849
 20
5.0319
 30
0.0
  0
SPLINE
  5
149
330
1F
100
AcDbEntity
  8
DEFAULT_1
100
AcDbSpline
210
0.0
220
0.0
230
1.0
 70
    24
 71
     3
 72
     8
 73
     4
 74
     0
 42
0.0000000001
 43
0.0000000001
 40
0.0
 40
0.0
 40
0.0
 40
0.0
 40
1.0
 40
1.0
 40
1.0
 40
1.0
 10
2.3044
 20
15.0405
 30
0.0
 10
2.3044
 20
15.0405
 30
0.0
 10
2.3569
 20
5.0319
 30
0.0
 10
2.3569
 20
5.0319
 30
0.0
  0
SPLINE
  5
14A
330
1F
100
AcDbEntity
  8
DEFAULT_1
100
AcDbSpline
210
0.0
220
0.0
230
1.0
 70
    24
 71
     3
 72
     8
 73
     4
 74
     0
 42
0.0000000001
 43
0.0000000001
 40
0.0
 40
0.0
 40
0.0
 40
0.0
 40
1.0
 40
1.0
 40
1.0
 40
1.0
 10
2.2324
 20
15.1121
 30
0.0
 10
2.2324
 20
15.1121
 30
0.0
 10
2.2324
 20
15.0405
 30
0.0
 10
2.2324
 20
15.0405
 30
0.0
  0
SPLINE
  5
14B
330
1F
100
AcDbEntity
  8
DEFAULT_1
100
AcDbSpline
210
0.0
220
0.0
230
1.0
 70
     8
 71
     3
 72
    12
 73
     8
 74
     0
 42
0.0000000001
 43
0.0000000001
 40
0.0
 40
0.0
 40
0.0
 40
0.0
 40
0.3333333333333333
 40
0.3333333333333333
 40
0.3333333333333333
 40
0.3333333333333333
 40
1.0
 40
1.0
 40
1.0
 40
1.0
 10
1.8092
 20
15.0405
 30
0.0
 10
1.8092
 20
15.0405
 30
0.0
 10
1.8103
 20
15.0405
 30
0.0
 10
1.8103
 20
15.0405
 30
0.0
 10
1.8103
 20
15.0405
 30
0.0
 10
1.8103
 20
15.0405
 30
0.0
 10
1.8136
 20
15.0406
 30
0.0
 10
1.8136
 20
15.0406
 30
0.0
  0
SPLINE
  5
14C
330
1F
100
AcDbEntity
  8
DEFAULT_1
100
AcDbSpline
210
0.0
220
0.0
230
1.0
 70
    24
 71
     3
 72
     8
 73
     4
 74
     0
 42
0.0000000001
 43
0.0000000001
 40
0.0
 40
0.0
 40
0.0
 40
0.0
 40
1.0
 40
1.0
 40
1.0
 40
1.0
 10
1.8136
 20
15.0406
 30
0.0
 10
1.8136
 20
15.0406
 30
0.0
 10
1.8261
 20
15.0406
 30
0.0
 10
1.8261
 20
15.0406
 30
0.0
  0
SPLINE
  5
14D
330
1F
100
AcDbEntity
  8
DEFAULT_1
100
AcDbSpline
210
0.0
220
0.0
230
1.0
 70
    24
 71
     3
 72
     8
 73
     4
 74
     0
 42
0.0000000001
 43
0.0000000001
 40
0.0
 40
0.0
 40
0.0
 40
0.0
 40
1.0
 40
1.0
 40
1.0
 40
1.0
 10
2.2324
 20
15.0405
 30
0.0
 10
2.2324
 20
15.0405
 30
0.0
 10
2.2787
 20
15.0406
 30
0.0
 10
2.2787
 20
15.0406
 30
0.0
  0
SPLINE
  5
14E
330
1F
100
AcDbEntity
  8
DEFAULT_1
100
AcDbSpline
210
0.0
220
0.0
230
1.0
 70
    24
 71
     3
 72
     8
 73
     4
 74
     0
 42
0.0000000001
 43
0.0000000001
 40
0.0
 40
0.0
 40
0.0
 40
0.0
 40
1.0
 40
1.0
 40
1.0
 40
1.0
 10
1.8812
 20
15.0405
 30
0.0
 10
1.8812
 20
15.0405
 30
0.0
 10
2.2324
 20
15.0405
 30
0.0
 10
2.2324
 20
15.0405
 30
0.0
  0
SPLINE
  5
14F
330
1F
100
AcDbEntity
  8
DEFAULT_1
100
AcDbSpline
210
0.0
220
0.0
230
1.0
 70
    24
 71
     3
 72
     8
 73
     4
 74
     0
 42
0.0000000001
 43
0.0000000001
 40
0.0
 40
0.0
 40
0.0
 40
0.0
 40
1.0
 40
1.0
 40
1.0
 40
1.0
 10
1.8812
 20
15.1121
 30
0.0
 10
1.8812
 20
15.1121
 30
0.0
 10
2.2324
 20
15.1121
 30
0.0
 10
2.2324
 20
15.1121
 30
0.0
  0
SPLINE
  5
150
330
1F
100
AcDbEntity
  8
DEFAULT_1
100
AcDbSpline
210
0.0
220
0.0
230
1.0
 70
     8
 71
     3
 72
    20
 73
    16
 74
     0
 42
0.0000000001
 43
0.0000000001
 40
0.0
 40
0.0
 40
0.0
 40
0.0
 40
0.2
 40
0.2
 40
0.2
 40
0.2
 40
0.4
 40
0.4
 40
0.4
 40
0.4
 40
0.6
 40
0.6
 40
0.6
 40
0.6
 40
1.0
 40
1.0
 40
1.0
 40
1.0
 10
2.2787
 20
15.0406
 30
0.0
 10
2.2787
 20
15.0406
 30
0.0
 10
2.2948
 20
15.0406
 30
0.0
 10
2.2948
 20
15.0406
 30
0.0
 10
2.2948
 20
15.0406
 30
0.0
 10
2.2948
 20
15.0406
 30
0.0
 10
2.3001
 20
15.0406
 30
0.0
 10
2.3001
 20
15.0406
 30
0.0
 10
2.3001
 20
15.0406
 30
0.0
 10
2.3001
 20
15.0406
 30
0.0
 10
2.3033
 20
15.0405
 30
0.0
 10
2.3033
 20
15.0405
 30
0.0
 10
2.3033
 20
15.0405
 30
0.0
 10
2.3033
 20
15.0405
 30
0.0
 10
2.3044
 20
15.0405
 30
0.0
 10
2.3044
 20
15.0405
 30
0.0
  0
SPLINE
  5
151
330
1F
100
AcDbEntity
  8
DEFAULT_1
100
AcDbSpline
210
0.0
220
0.0
230
1.0
 70
     8
 71
     3
 72
    12
 73
     8
 74
     0
 42
0.0000000001
 43
0.0000000001
 40
0.0
 40
0.0
 40
0.0
 40
0.0
 40
0.3333333333333333
 40
0.3333333333333333
 40
0.3333333333333333
 40
0.3333333333333333
 40
1.0
 40
1.0
 40
1.0
 40
1.0
 10
1.8261
 20
15.0406
 30
0.0
 10
1.8261
 20
15.0406
 30
0.0
 10
1.8687
 20
15.0405
 30
0.0
 10
1.8687
 20
15.0405
 30
0.0
 10
1.8687
 20
15.0405
 30
0.0
 10
1.8687
 20
15.0405
 30
0.0
 10
1.8812
 20
15.0405
 30
0.0
 10
1.8812
 20
15.0405
 30
0.0
  0
SPLINE
  5
152
330
1F
100
AcDbEntity
  8
DEFAULT_1
100
AcDbSpline
210
0.0
220
0.0
230
1.0
 70
     8
 71
     3
 72
     8
 73
     4
 74
     0
 42
0.0000000001
 43
0.0000000001
 40
0.0
 40
0.0
 40
0.0
 40
0.0
 40
1.0
 40
1.0
 40
1.0
 40
1.0
 10
1.8812
 20
15.1121
 30
0.0
 10
1.8416
 20
15.1121
 30
0.0
 10
1.8095
 20
15.0801
 30
0.0
 10
1.8092
 20
15.0405
 30
0.0
  0
SPLINE
  5
153
330
1F
100
AcDbEntity
  8
DEFAULT_1
100
AcDbSpline
210
0.0
220
0.0
230
1.0
 70
     8
 71
     3
 72
     8
 73
     4
 74
     0
 42
0.0000000001
 43
0.0000000001
 40
0.0
 40
0.0
 40
0.0
 40
0.0
 40
1.0
 40
1.0
 40
1.0
 40
1.0
 10
2.3044
 20
15.0405
 30
0.0
 10
2.3043
 20
15.0801
 30
0.0
 10
2.272
 20
15.1121
 30
0.0
 10
2.2324
 20
15.1121
 30
0.0
  0
SPLINE
  5
154
330
1F
100
AcDbEntity
  8
DEFAULT_1
100
AcDbSpline
210
0.0
220
0.0
230
1.0
 70
    24
 71
     3
 72
     8
 73
     4
 74
     0
 42
0.0000000001
 43
0.0000000001
 40
0.0
 40
0.0
 40
0.0
 40
0.0
 40
1.0
 40
1.0
 40
1.0
 40
1.0
 10
1.8096
 20
-25.1037
 30
0.0
 10
1.8096
 20
-25.1037
 30
0.0
 10
1.7571
 20
-25.0499
 30
0.0
 10
1.7571
 20
-25.0499
 30
0.0
  0
SPLINE
  5
155
330
1F
100
AcDbEntity
  8
DEFAULT_1
100
AcDbSpline
210
0.0
220
0.0
230
1.0
 70
    24
 71
     3
 72
     8
 73
     4
 74
     0
 42
0.0000000001
 43
0.0000000001
 40
0.0
 40
0.0
 40
0.0
 40
0.0
 40
1.0
 40
1.0
 40
1.0
 40
1.0
 10
2.3566
 20
-25.0499
 30
0.0
 10
2.3566
 20
-25.0499
 30
0.0
 10
2.3041
 20
-25.1037
 30
0.0
 10
2.3041
 20
-25.1037
 30
0.0
  0
SPLINE
  5
156
330
1F
100
AcDbEntity
  8
DEFAULT_1
100
AcDbSpline
210
0.0
220
0.0
230
1.0
 70
    11
 71
     3
 72
    20
 73
    16
 74
     0
 42
0.0000000001
 43
0.0000000001
 40
0.0
 40
0.0
 40
0.0
 40
0.0
 40
0.2
 40
0.2
 40
0.2
 40
0.2
 40
0.4
 40
0.4
 40
0.4
 40
0.4
 40
0.6
 40
0.6
 40
0.6
 40
0.6
 40
1.0
 40
1.0
 40
1.0
 40
1.0
 10
15.2571
 20
-13.3258
 30
0.0
 10
15.2571
 20
-6.0355
 30
0.0
 10
9.3471
 20
-0.1255
 30
0.0
 10
2.0569
 20
-0.1255
 30
0.0
 10
2.0569
 20
-0.1255
 30
0.0
 10
-5.2335
 20
-0.1255
 30
0.0
 10
-11.1434
 20
-6.0355
 30
0.0
 10
-11.1434
 20
-13.3258
 30
0.0
 10
-11.1434
 20
-13.3258
 30
0.0
 10
-11.1434
 20
-20.616
 30
0.0
 10
-5.2335
 20
-26.526
 30
0.0
 10
2.0569
 20
-26.526
 30
0.0
 10
2.0569
 20
-26.526
 30
0.0
 10
9.3471
 20
-26.526
 30
0.0
 10
15.2571
 20
-20.616
 30
0.0
 10
15.2571
 20
-13.3258
 30
0.0
  0
SPLINE
  5
157
330
1F
100
AcDbEntity
  8
DEFAULT_1
100
AcDbSpline
210
0.0
220
0.0
230
1.0
 70
    11
 71
     3
 72
    20
 73
    16
 74
     0
 42
0.0000000001
 43
0.0000000001
 40
0.0
 40
0.0
 40
0.0
 40
0.0
 40
0.2
 40
0.2
 40
0.2
 40
0.2
 40
0.4
 40
0.4
 40
0.4
 40
0.4
 40
0.6
 40
0.6
 40
0.6
 40
0.6
 40
1.0
 40
1.0
 40
1.0
 40
1.0
 10
14.8911
 20
-13.3258
 30
0.0
 10
14.8911
 20
-6.2376
 30
0.0
 10
9.145
 20
-0.4915
 30
0.0
 10
2.0569
 20
-0.4915
 30
0.0
 10
2.0569
 20
-0.4915
 30
0.0
 10
-5.0313
 20
-0.4915
 30
0.0
 10
-10.7774
 20
-6.2376
 30
0.0
 10
-10.7774
 20
-13.3258
 30
0.0
 10
-10.7774
 20
-13.3258
 30
0.0
 10
-10.7774
 20
-20.414
 30
0.0
 10
-5.0313
 20
-26.16
 30
0.0
 10
2.0569
 20
-26.16
 30
0.0
 10
2.0569
 20
-26.16
 30
0.0
 10
9.145
 20
-26.16
 30
0.0
 10
14.8911
 20
-20.414
 30
0.0
 10
14.8911
 20
-13.3258
 30
0.0
  0
SPLINE
  5
158
330
1F
100
AcDbEntity
  8
DEFAULT_1
100
AcDbSpline
210
0.0
220
0.0
230
1.0
 70
    11
 71
     3
 72
    20
 73
    16
 74
     0
 42
0.0000000001
 43
0.0000000001
 40
0.0
 40
0.0
 40
0.0
 40
0.0
 40
0.2
 40
0.2
 40
0.2
 40
0.2
 40
0.4
 40
0.4
 40
0.4
 40
0.4
 40
0.6
 40
0.6
 40
0.6
 40
0.6
 40
1.0
 40
1.0
 40
1.0
 40
1.0
 10
14.6791
 20
-13.3258
 30
0.0
 10
14.6791
 20
-6.3547
 30
0.0
 10
9.0279
 20
-0.7036
 30
0.0
 10
2.0569
 20
-0.7036
 30
0.0
 10
2.0569
 20
-0.7036
 30
0.0
 10
-4.9142
 20
-0.7036
 30
0.0
 10
-10.5653
 20
-6.3547
 30
0.0
 10
-10.5653
 20
-13.3258
 30
0.0
 10
-10.5653
 20
-13.3258
 30
0.0
 10
-10.5653
 20
-20.2968
 30
0.0
 10
-4.9142
 20
-25.948
 30
0.0
 10
2.0569
 20
-25.948
 30
0.0
 10
2.0569
 20
-25.948
 30
0.0
 10
9.0279
 20
-25.948
 30
0.0
 10
14.6791
 20
-20.2968
 30
0.0
 10
14.6791
 20
-13.3258
 30
0.0
  0
SPLINE
  5
159
330
1F
100
AcDbEntity
  8
DEFAULT_1
100
AcDbSpline
210
0.0
220
0.0
230
1.0
 70
    11
 71
     3
 72
    20
 73
    16
 74
     0
 42
0.0000000001
 43
0.0000000001
 40
0.0
 40
0.0
 40
0.0
 40
0.0
 40
0.2
 40
0.2
 40
0.2
 40
0.2
 40
0.4
 40
0.4
 40
0.4
 40
0.4
 40
0.6
 40
0.6
 40
0.6
 40
0.6
 40
1.0
 40
1.0
 40
1.0
 40
1.0
 10
14.6571
 20
-13.3258
 30
0.0
 10
14.6571
 20
-6.3668
 30
0.0
 10
9.0157
 20
-0.7256
 30
0.0
 10
2.0569
 20
-0.7256
 30
0.0
 10
2.0569
 20
-0.7256
 30
0.0
 10
-4.9021
 20
-0.7256
 30
0.0
 10
-10.5434
 20
-6.3668
 30
0.0
 10
-10.5434
 20
-13.3258
 30
0.0
 10
-10.5434
 20
-13.3258
 30
0.0
 10
-10.5434
 20
-20.2847
 30
0.0
 10
-4.9021
 20
-25.926
 30
0.0
 10
2.0569
 20
-25.926
 30
0.0
 10
2.0569
 20
-25.926
 30
0.0
 10
9.0157
 20
-25.926
 30
0.0
 10
14.6571
 20
-20.2847
 30
0.0
 10
14.6571
 20
-13.3258
 30
0.0
  0
SPLINE
  5
15A
330
1F
100
AcDbEntity
  8
DEFAULT_1
100
AcDbSpline
210
0.0
220
0.0
230
1.0
 70
    11
 71
     3
 72
    20
 73
    16
 74
     0
 42
0.0000000001
 43
0.0000000001
 40
0.0
 40
0.0
 40
0.0
 40
0.0
 40
0.2
 40
0.2
 40
0.2
 40
0.2
 40
0.4
 40
0.4
 40
0.4
 40
0.4
 40
0.6
 40
0.6
 40
0.6
 40
0.6
 40
1.0
 40
1.0
 40
1.0
 40
1.0
 10
13.8531
 20
-13.3258
 30
0.0
 10
13.8531
 20
-6.8109
 30
0.0
 10
8.5717
 20
-1.5296
 30
0.0
 10
2.0569
 20
-1.5296
 30
0.0
 10
2.0569
 20
-1.5296
 30
0.0
 10
-4.458
 20
-1.5296
 30
0.0
 10
-9.7393
 20
-6.8109
 30
0.0
 10
-9.7393
 20
-13.3258
 30
0.0
 10
-9.7393
 20
-13.3258
 30
0.0
 10
-9.7393
 20
-19.8406
 30
0.0
 10
-4.458
 20
-25.122
 30
0.0
 10
2.0569
 20
-25.122
 30
0.0
 10
2.0569
 20
-25.122
 30
0.0
 10
8.5717
 20
-25.122
 30
0.0
 10
13.8531
 20
-19.8406
 30
0.0
 10
13.8531
 20
-13.3258
 30
0.0
  0
SPLINE
  5
15B
330
1F
100
AcDbEntity
  8
DEFAULT_1
100
AcDbSpline
210
0.0
220
0.0
230
1.0
 70
     8
 71
     3
 72
     8
 73
     4
 74
     0
 42
0.0000000001
 43
0.0000000001
 40
0.0
 40
0.0
 40
0.0
 40
0.0
 40
1.0
 40
1.0
 40
1.0
 40
1.0
 10
1.8096
 20
-25.1037
 30
0.0
 10
1.9744
 20
-25.1071
 30
0.0
 10
2.1393
 20
-25.1071
 30
0.0
 10
2.3041
 20
-25.1037
 30
0.0
  0
SPLINE
  5
15C
330
1F
100
AcDbEntity
  8
DEFAULT_1
100
AcDbSpline
210
0.0
220
0.0
230
1.0
 70
     8
 71
     3
 72
     8
 73
     4
 74
     0
 42
0.0000000001
 43
0.0000000001
 40
0.0
 40
0.0
 40
0.0
 40
0.0
 40
1.0
 40
1.0
 40
1.0
 40
1.0
 10
1.7571
 20
-1.6017
 30
0.0
 10
-4.6012
 20
-1.7642
 30
0.0
 10
-9.6711
 20
-6.9654
 30
0.0
 10
-9.6711
 20
-13.3258
 30
0.0
  0
SPLINE
  5
15D
330
1F
100
AcDbEntity
  8
DEFAULT_1
100
AcDbSpline
210
0.0
220
0.0
230
1.0
 70
     8
 71
     3
 72
     8
 73
     4
 74
     0
 42
0.0000000001
 43
0.0000000001
 40
0.0
 40
0.0
 40
0.0
 40
0.0
 40
1.0
 40
1.0
 40
1.0
 40
1.0
 10
-9.6711
 20
-13.3258
 30
0.0
 10
-9.6711
 20
-19.6862
 30
0.0
 10
-4.6012
 20
-24.8873
 30
0.0
 10
1.7571
 20
-25.0499
 30
0.0
  0
SPLINE
  5
15E
330
1F
100
AcDbEntity
  8
DEFAULT_1
100
AcDbSpline
210
0.0
220
0.0
230
1.0
 70
     8
 71
     3
 72
     8
 73
     4
 74
     0
 42
0.0000000001
 43
0.0000000001
 40
0.0
 40
0.0
 40
0.0
 40
0.0
 40
1.0
 40
1.0
 40
1.0
 40
1.0
 10
13.7848
 20
-13.3258
 30
0.0
 10
13.7848
 20
-19.6862
 30
0.0
 10
8.7149
 20
-24.8873
 30
0.0
 10
2.3566
 20
-25.0499
 30
0.0
  0
SPLINE
  5
15F
330
1F
100
AcDbEntity
  8
DEFAULT_1
100
AcDbSpline
210
0.0
220
0.0
230
1.0
 70
     8
 71
     3
 72
     8
 73
     4
 74
     0
 42
0.0000000001
 43
0.0000000001
 40
0.0
 40
0.0
 40
0.0
 40
0.0
 40
1.0
 40
1.0
 40
1.0
 40
1.0
 10
2.3566
 20
-1.6017
 30
0.0
 10
8.7149
 20
-1.7642
 30
0.0
 10
13.7848
 20
-6.9654
 30
0.0
 10
13.7848
 20
-13.3258
 30
0.0
  0
SPLINE
  5
160
330
1F
100
AcDbEntity
  8
DEFAULT_1
100
AcDbSpline
210
0.0
220
0.0
230
1.0
 70
     8
 71
     3
 72
    40
 73
    36
 74
     0
 42
0.0000000001
 43
0.0000000001
 40
0.0
 40
0.0
 40
0.0
 40
0.0
 40
0.1
 40
0.1
 40
0.1
 40
0.1
 40
0.2
 40
0.2
 40
0.2
 40
0.2
 40
0.3
 40
0.3
 40
0.3
 40
0.3
 40
0.4
 40
0.4
 40
0.4
 40
0.4
 40
0.5
 40
0.5
 40
0.5
 40
0.5
 40
0.6
 40
0.6
 40
0.6
 40
0.6
 40
0.7
 40
0.7
 40
0.7
 40
0.7
 40
0.8
 40
0.8
 40
0.8
 40
0.8
 40
1.0
 40
1.0
 40
1.0
 40
1.0
 10
1.8816
 20
-24.6588
 30
0.0
 10
1.8816
 20
-24.6588
 30
0.0
 10
1.8691
 20
-24.6598
 30
0.0
 10
1.8691
 20
-24.6598
 30
0.0
 10
1.8691
 20
-24.6598
 30
0.0
 10
1.8691
 20
-24.6598
 30
0.0
 10
1.857
 20
-24.6631
 30
0.0
 10
1.857
 20
-24.6631
 30
0.0
 10
1.857
 20
-24.6631
 30
0.0
 10
1.857
 20
-24.6631
 30
0.0
 10
1.8456
 20
-24.6684
 30
0.0
 10
1.8456
 20
-24.6684
 30
0.0
 10
1.8456
 20
-24.6684
 30
0.0
 10
1.8456
 20
-24.6684
 30
0.0
 10
1.8353
 20
-24.6756
 30
0.0
 10
1.8353
 20
-24.6756
 30
0.0
 10
1.8353
 20
-24.6756
 30
0.0
 10
1.8353
 20
-24.6756
 30
0.0
 10
1.8265
 20
-24.6845
 30
0.0
 10
1.8265
 20
-24.6845
 30
0.0
 10
1.8265
 20
-24.6845
 30
0.0
 10
1.8265
 20
-24.6845
 30
0.0
 10
1.8193
 20
-24.6948
 30
0.0
 10
1.8193
 20
-24.6948
 30
0.0
 10
1.8193
 20
-24.6948
 30
0.0
 10
1.8193
 20
-24.6948
 30
0.0
 10
1.814
 20
-24.7061
 30
0.0
 10
1.814
 20
-24.7061
 30
0.0
 10
1.814
 20
-24.7061
 30
0.0
 10
1.814
 20
-24.7061
 30
0.0
 10
1.8107
 20
-24.7182
 30
0.0
 10
1.8107
 20
-24.7182
 30
0.0
 10
1.8107
 20
-24.7182
 30
0.0
 10
1.8107
 20
-24.7182
 30
0.0
 10
1.8096
 20
-24.7308
 30
0.0
 10
1.8096
 20
-24.7308
 30
0.0
  0
SPLINE
  5
161
330
1F
100
AcDbEntity
  8
DEFAULT_1
100
AcDbSpline
210
0.0
220
0.0
230
1.0
 70
    24
 71
     3
 72
     8
 73
     4
 74
     0
 42
0.0000000001
 43
0.0000000001
 40
0.0
 40
0.0
 40
0.0
 40
0.0
 40
1.0
 40
1.0
 40
1.0
 40
1.0
 10
2.2321
 20
-24.6588
 30
0.0
 10
2.2321
 20
-24.6588
 30
0.0
 10
1.8816
 20
-24.6588
 30
0.0
 10
1.8816
 20
-24.6588
 30
0.0
  0
SPLINE
  5
162
330
1F
100
AcDbEntity
  8
DEFAULT_1
100
AcDbSpline
210
0.0
220
0.0
230
1.0
 70
    24
 71
     3
 72
     8
 73
     4
 74
     0
 42
0.0000000001
 43
0.0000000001
 40
0.0
 40
0.0
 40
0.0
 40
0.0
 40
1.0
 40
1.0
 40
1.0
 40
1.0
 10
2.2849
 20
-24.606
 30
0.0
 10
2.2849
 20
-24.606
 30
0.0
 10
1.8289
 20
-24.606
 30
0.0
 10
1.8289
 20
-24.606
 30
0.0
  0
SPLINE
  5
163
330
1F
100
AcDbEntity
  8
DEFAULT_1
100
AcDbSpline
210
0.0
220
0.0
230
1.0
 70
     8
 71
     3
 72
    40
 73
    36
 74
     0
 42
0.0000000001
 43
0.0000000001
 40
0.0
 40
0.0
 40
0.0
 40
0.0
 40
0.1
 40
0.1
 40
0.1
 40
0.1
 40
0.2
 40
0.2
 40
0.2
 40
0.2
 40
0.3
 40
0.3
 40
0.3
 40
0.3
 40
0.4
 40
0.4
 40
0.4
 40
0.4
 40
0.5
 40
0.5
 40
0.5
 40
0.5
 40
0.6
 40
0.6
 40
0.6
 40
0.6
 40
0.7
 40
0.7
 40
0.7
 40
0.7
 40
0.8
 40
0.8
 40
0.8
 40
0.8
 40
1.0
 40
1.0
 40
1.0
 40
1.0
 10
2.2849
 20
-24.606
 30
0.0
 10
2.2849
 20
-24.606
 30
0.0
 10
2.2973
 20
-24.6071
 30
0.0
 10
2.2973
 20
-24.6071
 30
0.0
 10
2.2973
 20
-24.6071
 30
0.0
 10
2.2973
 20
-24.6071
 30
0.0
 10
2.3095
 20
-24.6103
 30
0.0
 10
2.3095
 20
-24.6103
 30
0.0
 10
2.3095
 20
-24.6103
 30
0.0
 10
2.3095
 20
-24.6103
 30
0.0
 10
2.3209
 20
-24.6156
 30
0.0
 10
2.3209
 20
-24.6156
 30
0.0
 10
2.3209
 20
-24.6156
 30
0.0
 10
2.3209
 20
-24.6156
 30
0.0
 10
2.3311
 20
-24.6228
 30
0.0
 10
2.3311
 20
-24.6228
 30
0.0
 10
2.3311
 20
-24.6228
 30
0.0
 10
2.3311
 20
-24.6228
 30
0.0
 10
2.34
 20
-24.6317
 30
0.0
 10
2.34
 20
-24.6317
 30
0.0
 10
2.34
 20
-24.6317
 30
0.0
 10
2.34
 20
-24.6317
 30
0.0
 10
2.3472
 20
-24.642
 30
0.0
 10
2.3472
 20
-24.642
 30
0.0
 10
2.3472
 20
-24.642
 30
0.0
 10
2.3472
 20
-24.642
 30
0.0
 10
2.3525
 20
-24.6533
 30
0.0
 10
2.3525
 20
-24.6533
 30
0.0
 10
2.3525
 20
-24.6533
 30
0.0
 10
2.3525
 20
-24.6533
 30
0.0
 10
2.3558
 20
-24.6655
 30
0.0
 10
2.3558
 20
-24.6655
 30
0.0
 10
2.3558
 20
-24.6655
 30
0.0
 10
2.3558
 20
-24.6655
 30
0.0
 10
2.3569
 20
-24.678
 30
0.0
 10
2.3569
 20
-24.678
 30
0.0
  0
SPLINE
  5
164
330
1F
100
AcDbEntity
  8
DEFAULT_1
100
AcDbSpline
210
0.0
220
0.0
230
1.0
 70
    24
 71
     3
 72
     8
 73
     4
 74
     0
 42
0.0000000001
 43
0.0000000001
 40
0.0
 40
0.0
 40
0.0
 40
0.0
 40
1.0
 40
1.0
 40
1.0
 40
1.0
 10
1.7571
 20
-1.6017
 30
0.0
 10
1.7571
 20
-1.6017
 30
0.0
 10
1.8092
 20
-1.5482
 30
0.0
 10
1.8092
 20
-1.5482
 30
0.0
  0
SPLINE
  5
165
330
1F
100
AcDbEntity
  8
DEFAULT_1
100
AcDbSpline
210
0.0
220
0.0
230
1.0
 70
    24
 71
     3
 72
     8
 73
     4
 74
     0
 42
0.0000000001
 43
0.0000000001
 40
0.0
 40
0.0
 40
0.0
 40
0.0
 40
1.0
 40
1.0
 40
1.0
 40
1.0
 10
1.8092
 20
-1.9212
 30
0.0
 10
1.8092
 20
-1.9212
 30
0.0
 10
1.7569
 20
-1.9736
 30
0.0
 10
1.7569
 20
-1.9736
 30
0.0
  0
SPLINE
  5
166
330
1F
100
AcDbEntity
  8
DEFAULT_1
100
AcDbSpline
210
0.0
220
0.0
230
1.0
 70
    24
 71
     3
 72
     8
 73
     4
 74
     0
 42
0.0000000001
 43
0.0000000001
 40
0.0
 40
0.0
 40
0.0
 40
0.0
 40
1.0
 40
1.0
 40
1.0
 40
1.0
 10
1.8812
 20
-1.9932
 30
0.0
 10
1.8812
 20
-1.9932
 30
0.0
 10
1.8289
 20
-2.0456
 30
0.0
 10
1.8289
 20
-2.0456
 30
0.0
  0
SPLINE
  5
167
330
1F
100
AcDbEntity
  8
DEFAULT_1
100
AcDbSpline
210
0.0
220
0.0
230
1.0
 70
    24
 71
     3
 72
     8
 73
     4
 74
     0
 42
0.0000000001
 43
0.0000000001
 40
0.0
 40
0.0
 40
0.0
 40
0.0
 40
1.0
 40
1.0
 40
1.0
 40
1.0
 10
1.8096
 20
-24.7308
 30
0.0
 10
1.8096
 20
-24.7308
 30
0.0
 10
1.7569
 20
-24.678
 30
0.0
 10
1.7569
 20
-24.678
 30
0.0
  0
SPLINE
  5
168
330
1F
100
AcDbEntity
  8
DEFAULT_1
100
AcDbSpline
210
0.0
220
0.0
230
1.0
 70
    24
 71
     3
 72
     8
 73
     4
 74
     0
 42
0.0000000001
 43
0.0000000001
 40
0.0
 40
0.0
 40
0.0
 40
0.0
 40
1.0
 40
1.0
 40
1.0
 40
1.0
 10
1.8816
 20
-24.6588
 30
0.0
 10
1.8816
 20
-24.6588
 30
0.0
 10
1.8289
 20
-24.606
 30
0.0
 10
1.8289
 20
-24.606
 30
0.0
  0
SPLINE
  5
169
330
1F
100
AcDbEntity
  8
DEFAULT_1
100
AcDbSpline
210
0.0
220
0.0
230
1.0
 70
     8
 71
     3
 72
    40
 73
    36
 74
     0
 42
0.0000000001
 43
0.0000000001
 40
0.0
 40
0.0
 40
0.0
 40
0.0
 40
0.1
 40
0.1
 40
0.1
 40
0.1
 40
0.2
 40
0.2
 40
0.2
 40
0.2
 40
0.3
 40
0.3
 40
0.3
 40
0.3
 40
0.4
 40
0.4
 40
0.4
 40
0.4
 40
0.5
 40
0.5
 40
0.5
 40
0.5
 40
0.6
 40
0.6
 40
0.6
 40
0.6
 40
0.7
 40
0.7
 40
0.7
 40
0.7
 40
0.8
 40
0.8
 40
0.8
 40
0.8
 40
1.0
 40
1.0
 40
1.0
 40
1.0
 10
2.3041
 20
-24.7308
 30
0.0
 10
2.3041
 20
-24.7308
 30
0.0
 10
2.303
 20
-24.7182
 30
0.0
 10
2.303
 20
-24.7182
 30
0.0
 10
2.303
 20
-24.7182
 30
0.0
 10
2.303
 20
-24.7182
 30
0.0
 10
2.2997
 20
-24.7061
 30
0.0
 10
2.2997
 20
-24.7061
 30
0.0
 10
2.2997
 20
-24.7061
 30
0.0
 10
2.2997
 20
-24.7061
 30
0.0
 10
2.2944
 20
-24.6948
 30
0.0
 10
2.2944
 20
-24.6948
 30
0.0
 10
2.2944
 20
-24.6948
 30
0.0
 10
2.2944
 20
-24.6948
 30
0.0
 10
2.2872
 20
-24.6845
 30
0.0
 10
2.2872
 20
-24.6845
 30
0.0
 10
2.2872
 20
-24.6845
 30
0.0
 10
2.2872
 20
-24.6845
 30
0.0
 10
2.2783
 20
-24.6756
 30
0.0
 10
2.2783
 20
-24.6756
 30
0.0
 10
2.2783
 20
-24.6756
 30
0.0
 10
2.2783
 20
-24.6756
 30
0.0
 10
2.2681
 20
-24.6684
 30
0.0
 10
2.2681
 20
-24.6684
 30
0.0
 10
2.2681
 20
-24.6684
 30
0.0
 10
2.2681
 20
-24.6684
 30
0.0
 10
2.2567
 20
-24.6631
 30
0.0
 10
2.2567
 20
-24.6631
 30
0.0
 10
2.2567
 20
-24.6631
 30
0.0
 10
2.2567
 20
-24.6631
 30
0.0
 10
2.2446
 20
-24.6598
 30
0.0
 10
2.2446
 20
-24.6598
 30
0.0
 10
2.2446
 20
-24.6598
 30
0.0
 10
2.2446
 20
-24.6598
 30
0.0
 10
2.2321
 20
-24.6588
 30
0.0
 10
2.2321
 20
-24.6588
 30
0.0
  0
SPLINE
  5
16A
330
1F
100
AcDbEntity
  8
DEFAULT_1
100
AcDbSpline
210
0.0
220
0.0
230
1.0
 70
    24
 71
     3
 72
     8
 73
     4
 74
     0
 42
0.0000000001
 43
0.0000000001
 40
0.0
 40
0.0
 40
0.0
 40
0.0
 40
1.0
 40
1.0
 40
1.0
 40
1.0
 10
1.7569
 20
-1.6017
 30
0.0
 10
1.7569
 20
-1.6017
 30
0.0
 10
1.7569
 20
-1.9736
 30
0.0
 10
1.7569
 20
-1.9736
 30
0.0
  0
SPLINE
  5
16B
330
1F
100
AcDbEntity
  8
DEFAULT_1
100
AcDbSpline
210
0.0
220
0.0
230
1.0
 70
    24
 71
     3
 72
     8
 73
     4
 74
     0
 42
0.0000000001
 43
0.0000000001
 40
0.0
 40
0.0
 40
0.0
 40
0.0
 40
1.0
 40
1.0
 40
1.0
 40
1.0
 10
1.7569
 20
-24.678
 30
0.0
 10
1.7569
 20
-24.678
 30
0.0
 10
1.7569
 20
-25.0499
 30
0.0
 10
1.7569
 20
-25.0499
 30
0.0
  0
SPLINE
  5
16C
330
1F
100
AcDbEntity
  8
DEFAULT_1
100
AcDbSpline
210
0.0
220
0.0
230
1.0
 70
    24
 71
     3
 72
     8
 73
     4
 74
     0
 42
0.0000000001
 43
0.0000000001
 40
0.0
 40
0.0
 40
0.0
 40
0.0
 40
1.0
 40
1.0
 40
1.0
 40
1.0
 10
1.8092
 20
-1.5482
 30
0.0
 10
1.8092
 20
-1.5482
 30
0.0
 10
1.8092
 20
-1.9212
 30
0.0
 10
1.8092
 20
-1.9212
 30
0.0
  0
SPLINE
  5
16D
330
1F
100
AcDbEntity
  8
DEFAULT_1
100
AcDbSpline
210
0.0
220
0.0
230
1.0
 70
    24
 71
     3
 72
     8
 73
     4
 74
     0
 42
0.0000000001
 43
0.0000000001
 40
0.0
 40
0.0
 40
0.0
 40
0.0
 40
1.0
 40
1.0
 40
1.0
 40
1.0
 10
1.8096
 20
-24.7308
 30
0.0
 10
1.8096
 20
-24.7308
 30
0.0
 10
1.8096
 20
-25.1037
 30
0.0
 10
1.8096
 20
-25.1037
 30
0.0
  0
SPLINE
  5
16E
330
1F
100
AcDbEntity
  8
DEFAULT_1
100
AcDbSpline
210
0.0
220
0.0
230
1.0
 70
    24
 71
     3
 72
     8
 73
     4
 74
     0
 42
0.0000000001
 43
0.0000000001
 40
0.0
 40
0.0
 40
0.0
 40
0.0
 40
1.0
 40
1.0
 40
1.0
 40
1.0
 10
1.8812
 20
-1.5466
 30
0.0
 10
1.8812
 20
-1.5466
 30
0.0
 10
1.8812
 20
-1.9932
 30
0.0
 10
1.8812
 20
-1.9932
 30
0.0
  0
SPLINE
  5
16F
330
1F
100
AcDbEntity
  8
DEFAULT_1
100
AcDbSpline
210
0.0
220
0.0
230
1.0
 70
     8
 71
     3
 72
    40
 73
    36
 74
     0
 42
0.0000000001
 43
0.0000000001
 40
0.0
 40
0.0
 40
0.0
 40
0.0
 40
0.1
 40
0.1
 40
0.1
 40
0.1
 40
0.2
 40
0.2
 40
0.2
 40
0.2
 40
0.3
 40
0.3
 40
0.3
 40
0.3
 40
0.4
 40
0.4
 40
0.4
 40
0.4
 40
0.5
 40
0.5
 40
0.5
 40
0.5
 40
0.6
 40
0.6
 40
0.6
 40
0.6
 40
0.7
 40
0.7
 40
0.7
 40
0.7
 40
0.8
 40
0.8
 40
0.8
 40
0.8
 40
1.0
 40
1.0
 40
1.0
 40
1.0
 10
2.3569
 20
-1.9736
 30
0.0
 10
2.3569
 20
-1.9736
 30
0.0
 10
2.3558
 20
-1.9861
 30
0.0
 10
2.3558
 20
-1.9861
 30
0.0
 10
2.3558
 20
-1.9861
 30
0.0
 10
2.3558
 20
-1.9861
 30
0.0
 10
2.3525
 20
-1.9982
 30
0.0
 10
2.3525
 20
-1.9982
 30
0.0
 10
2.3525
 20
-1.9982
 30
0.0
 10
2.3525
 20
-1.9982
 30
0.0
 10
2.3472
 20
-2.0096
 30
0.0
 10
2.3472
 20
-2.0096
 30
0.0
 10
2.3472
 20
-2.0096
 30
0.0
 10
2.3472
 20
-2.0096
 30
0.0
 10
2.34
 20
-2.0198
 30
0.0
 10
2.34
 20
-2.0198
 30
0.0
 10
2.34
 20
-2.0198
 30
0.0
 10
2.34
 20
-2.0198
 30
0.0
 10
2.3311
 20
-2.0287
 30
0.0
 10
2.3311
 20
-2.0287
 30
0.0
 10
2.3311
 20
-2.0287
 30
0.0
 10
2.3311
 20
-2.0287
 30
0.0
 10
2.3209
 20
-2.0359
 30
0.0
 10
2.3209
 20
-2.0359
 30
0.0
 10
2.3209
 20
-2.0359
 30
0.0
 10
2.3209
 20
-2.0359
 30
0.0
 10
2.3095
 20
-2.0413
 30
0.0
 10
2.3095
 20
-2.0413
 30
0.0
 10
2.3095
 20
-2.0413
 30
0.0
 10
2.3095
 20
-2.0413
 30
0.0
 10
2.2973
 20
-2.0445
 30
0.0
 10
2.2973
 20
-2.0445
 30
0.0
 10
2.2973
 20
-2.0445
 30
0.0
 10
2.2973
 20
-2.0445
 30
0.0
 10
2.2849
 20
-2.0456
 30
0.0
 10
2.2849
 20
-2.0456
 30
0.0
  0
SPLINE
  5
170
330
1F
100
AcDbEntity
  8
DEFAULT_1
100
AcDbSpline
210
0.0
220
0.0
230
1.0
 70
     8
 71
     3
 72
    40
 73
    36
 74
     0
 42
0.0000000001
 43
0.0000000001
 40
0.0
 40
0.0
 40
0.0
 40
0.0
 40
0.1
 40
0.1
 40
0.1
 40
0.1
 40
0.2
 40
0.2
 40
0.2
 40
0.2
 40
0.3
 40
0.3
 40
0.3
 40
0.3
 40
0.4
 40
0.4
 40
0.4
 40
0.4
 40
0.5
 40
0.5
 40
0.5
 40
0.5
 40
0.6
 40
0.6
 40
0.6
 40
0.6
 40
0.7
 40
0.7
 40
0.7
 40
0.7
 40
0.8
 40
0.8
 40
0.8
 40
0.8
 40
1.0
 40
1.0
 40
1.0
 40
1.0
 10
1.8092
 20
-1.9212
 30
0.0
 10
1.8092
 20
-1.9212
 30
0.0
 10
1.8103
 20
-1.9337
 30
0.0
 10
1.8103
 20
-1.9337
 30
0.0
 10
1.8103
 20
-1.9337
 30
0.0
 10
1.8103
 20
-1.9337
 30
0.0
 10
1.8136
 20
-1.9458
 30
0.0
 10
1.8136
 20
-1.9458
 30
0.0
 10
1.8136
 20
-1.9458
 30
0.0
 10
1.8136
 20
-1.9458
 30
0.0
 10
1.8189
 20
-1.9572
 30
0.0
 10
1.8189
 20
-1.9572
 30
0.0
 10
1.8189
 20
-1.9572
 30
0.0
 10
1.8189
 20
-1.9572
 30
0.0
 10
1.8261
 20
-1.9675
 30
0.0
 10
1.8261
 20
-1.9675
 30
0.0
 10
1.8261
 20
-1.9675
 30
0.0
 10
1.8261
 20
-1.9675
 30
0.0
 10
1.835
 20
-1.9763
 30
0.0
 10
1.835
 20
-1.9763
 30
0.0
 10
1.835
 20
-1.9763
 30
0.0
 10
1.835
 20
-1.9763
 30
0.0
 10
1.8452
 20
-1.9835
 30
0.0
 10
1.8452
 20
-1.9835
 30
0.0
 10
1.8452
 20
-1.9835
 30
0.0
 10
1.8452
 20
-1.9835
 30
0.0
 10
1.8566
 20
-1.9888
 30
0.0
 10
1.8566
 20
-1.9888
 30
0.0
 10
1.8566
 20
-1.9888
 30
0.0
 10
1.8566
 20
-1.9888
 30
0.0
 10
1.8687
 20
-1.9921
 30
0.0
 10
1.8687
 20
-1.9921
 30
0.0
 10
1.8687
 20
-1.9921
 30
0.0
 10
1.8687
 20
-1.9921
 30
0.0
 10
1.8812
 20
-1.9932
 30
0.0
 10
1.8812
 20
-1.9932
 30
0.0
  0
SPLINE
  5
171
330
1F
100
AcDbEntity
  8
DEFAULT_1
100
AcDbSpline
210
0.0
220
0.0
230
1.0
 70
    24
 71
     3
 72
     8
 73
     4
 74
     0
 42
0.0000000001
 43
0.0000000001
 40
0.0
 40
0.0
 40
0.0
 40
0.0
 40
1.0
 40
1.0
 40
1.0
 40
1.0
 10
2.2324
 20
-1.9932
 30
0.0
 10
2.2324
 20
-1.9932
 30
0.0
 10
2.2324
 20
-1.5466
 30
0.0
 10
2.2324
 20
-1.5466
 30
0.0
  0
SPLINE
  5
172
330
1F
100
AcDbEntity
  8
DEFAULT_1
100
AcDbSpline
210
0.0
220
0.0
230
1.0
 70
    24
 71
     3
 72
     8
 73
     4
 74
     0
 42
0.0000000001
 43
0.0000000001
 40
0.0
 40
0.0
 40
0.0
 40
0.0
 40
1.0
 40
1.0
 40
1.0
 40
1.0
 10
2.3041
 20
-25.1037
 30
0.0
 10
2.3041
 20
-25.1037
 30
0.0
 10
2.3041
 20
-24.7308
 30
0.0
 10
2.3041
 20
-24.7308
 30
0.0
  0
SPLINE
  5
173
330
1F
100
AcDbEntity
  8
DEFAULT_1
100
AcDbSpline
210
0.0
220
0.0
230
1.0
 70
    24
 71
     3
 72
     8
 73
     4
 74
     0
 42
0.0000000001
 43
0.0000000001
 40
0.0
 40
0.0
 40
0.0
 40
0.0
 40
1.0
 40
1.0
 40
1.0
 40
1.0
 10
2.3044
 20
-1.9212
 30
0.0
 10
2.3044
 20
-1.9212
 30
0.0
 10
2.3044
 20
-1.5482
 30
0.0
 10
2.3044
 20
-1.5482
 30
0.0
  0
SPLINE
  5
174
330
1F
100
AcDbEntity
  8
DEFAULT_1
100
AcDbSpline
210
0.0
220
0.0
230
1.0
 70
    24
 71
     3
 72
     8
 73
     4
 74
     0
 42
0.0000000001
 43
0.0000000001
 40
0.0
 40
0.0
 40
0.0
 40
0.0
 40
1.0
 40
1.0
 40
1.0
 40
1.0
 10
2.3569
 20
-25.0499
 30
0.0
 10
2.3569
 20
-25.0499
 30
0.0
 10
2.3569
 20
-24.678
 30
0.0
 10
2.3569
 20
-24.678
 30
0.0
  0
SPLINE
  5
175
330
1F
100
AcDbEntity
  8
DEFAULT_1
100
AcDbSpline
210
0.0
220
0.0
230
1.0
 70
    24
 71
     3
 72
     8
 73
     4
 74
     0
 42
0.0000000001
 43
0.0000000001
 40
0.0
 40
0.0
 40
0.0
 40
0.0
 40
1.0
 40
1.0
 40
1.0
 40
1.0
 10
2.3569
 20
-1.9736
 30
0.0
 10
2.3569
 20
-1.9736
 30
0.0
 10
2.3569
 20
-1.6017
 30
0.0
 10
2.3569
 20
-1.6017
 30
0.0
  0
SPLINE
  5
176
330
1F
100
AcDbEntity
  8
DEFAULT_1
100
AcDbSpline
210
0.0
220
0.0
230
1.0
 70
     8
 71
     3
 72
    40
 73
    36
 74
     0
 42
0.0000000001
 43
0.0000000001
 40
0.0
 40
0.0
 40
0.0
 40
0.0
 40
0.1
 40
0.1
 40
0.1
 40
0.1
 40
0.2
 40
0.2
 40
0.2
 40
0.2
 40
0.3
 40
0.3
 40
0.3
 40
0.3
 40
0.4
 40
0.4
 40
0.4
 40
0.4
 40
0.5
 40
0.5
 40
0.5
 40
0.5
 40
0.6
 40
0.6
 40
0.6
 40
0.6
 40
0.7
 40
0.7
 40
0.7
 40
0.7
 40
0.8
 40
0.8
 40
0.8
 40
0.8
 40
1.0
 40
1.0
 40
1.0
 40
1.0
 10
1.7569
 20
-24.678
 30
0.0
 10
1.7569
 20
-24.678
 30
0.0
 10
1.7579
 20
-24.6655
 30
0.0
 10
1.7579
 20
-24.6655
 30
0.0
 10
1.7579
 20
-24.6655
 30
0.0
 10
1.7579
 20
-24.6655
 30
0.0
 10
1.7612
 20
-24.6533
 30
0.0
 10
1.7612
 20
-24.6533
 30
0.0
 10
1.7612
 20
-24.6533
 30
0.0
 10
1.7612
 20
-24.6533
 30
0.0
 10
1.7665
 20
-24.642
 30
0.0
 10
1.7665
 20
-24.642
 30
0.0
 10
1.7665
 20
-24.642
 30
0.0
 10
1.7665
 20
-24.642
 30
0.0
 10
1.7737
 20
-24.6317
 30
0.0
 10
1.7737
 20
-24.6317
 30
0.0
 10
1.7737
 20
-24.6317
 30
0.0
 10
1.7737
 20
-24.6317
 30
0.0
 10
1.7825
 20
-24.6228
 30
0.0
 10
1.7825
 20
-24.6228
 30
0.0
 10
1.7825
 20
-24.6228
 30
0.0
 10
1.7825
 20
-24.6228
 30
0.0
 10
1.7929
 20
-24.6156
 30
0.0
 10
1.7929
 20
-24.6156
 30
0.0
 10
1.7929
 20
-24.6156
 30
0.0
 10
1.7929
 20
-24.6156
 30
0.0
 10
1.8042
 20
-24.6103
 30
0.0
 10
1.8042
 20
-24.6103
 30
0.0
 10
1.8042
 20
-24.6103
 30
0.0
 10
1.8042
 20
-24.6103
 30
0.0
 10
1.8163
 20
-24.6071
 30
0.0
 10
1.8163
 20
-24.6071
 30
0.0
 10
1.8163
 20
-24.6071
 30
0.0
 10
1.8163
 20
-24.6071
 30
0.0
 10
1.8289
 20
-24.606
 30
0.0
 10
1.8289
 20
-24.606
 30
0.0
  0
SPLINE
  5
177
330
1F
100
AcDbEntity
  8
DEFAULT_1
100
AcDbSpline
210
0.0
220
0.0
230
1.0
 70
    24
 71
     3
 72
     8
 73
     4
 74
     0
 42
0.0000000001
 43
0.0000000001
 40
0.0
 40
0.0
 40
0.0
 40
0.0
 40
1.0
 40
1.0
 40
1.0
 40
1.0
 10
2.2321
 20
-24.6588
 30
0.0
 10
2.2321
 20
-24.6588
 30
0.0
 10
2.2849
 20
-24.606
 30
0.0
 10
2.2849
 20
-24.606
 30
0.0
  0
SPLINE
  5
178
330
1F
100
AcDbEntity
  8
DEFAULT_1
100
AcDbSpline
210
0.0
220
0.0
230
1.0
 70
    24
 71
     3
 72
     8
 73
     4
 74
     0
 42
0.0000000001
 43
0.0000000001
 40
0.0
 40
0.0
 40
0.0
 40
0.0
 40
1.0
 40
1.0
 40
1.0
 40
1.0
 10
2.3041
 20
-24.7308
 30
0.0
 10
2.3041
 20
-24.7308
 30
0.0
 10
2.3569
 20
-24.678
 30
0.0
 10
2.3569
 20
-24.678
 30
0.0
  0
SPLINE
  5
179
330
1F
100
AcDbEntity
  8
DEFAULT_1
100
AcDbSpline
210
0.0
220
0.0
230
1.0
 70
    24
 71
     3
 72
     8
 73
     4
 74
     0
 42
0.0000000001
 43
0.0000000001
 40
0.0
 40
0.0
 40
0.0
 40
0.0
 40
1.0
 40
1.0
 40
1.0
 40
1.0
 10
2.2324
 20
-1.9932
 30
0.0
 10
2.2324
 20
-1.9932
 30
0.0
 10
2.2849
 20
-2.0456
 30
0.0
 10
2.2849
 20
-2.0456
 30
0.0
  0
SPLINE
  5
17A
330
1F
100
AcDbEntity
  8
DEFAULT_1
100
AcDbSpline
210
0.0
220
0.0
230
1.0
 70
    24
 71
     3
 72
     8
 73
     4
 74
     0
 42
0.0000000001
 43
0.0000000001
 40
0.0
 40
0.0
 40
0.0
 40
0.0
 40
1.0
 40
1.0
 40
1.0
 40
1.0
 10
2.3044
 20
-1.9212
 30
0.0
 10
2.3044
 20
-1.9212
 30
0.0
 10
2.3569
 20
-1.9736
 30
0.0
 10
2.3569
 20
-1.9736
 30
0.0
  0
SPLINE
  5
17B
330
1F
100
AcDbEntity
  8
DEFAULT_1
100
AcDbSpline
210
0.0
220
0.0
230
1.0
 70
    24
 71
     3
 72
     8
 73
     4
 74
     0
 42
0.0000000001
 43
0.0000000001
 40
0.0
 40
0.0
 40
0.0
 40
0.0
 40
1.0
 40
1.0
 40
1.0
 40
1.0
 10
2.3044
 20
-1.5482
 30
0.0
 10
2.3044
 20
-1.5482
 30
0.0
 10
2.3566
 20
-1.6017
 30
0.0
 10
2.3566
 20
-1.6017
 30
0.0
  0
SPLINE
  5
17C
330
1F
100
AcDbEntity
  8
DEFAULT_1
100
AcDbSpline
210
0.0
220
0.0
230
1.0
 70
     8
 71
     3
 72
    40
 73
    36
 74
     0
 42
0.0000000001
 43
0.0000000001
 40
0.0
 40
0.0
 40
0.0
 40
0.0
 40
0.1
 40
0.1
 40
0.1
 40
0.1
 40
0.2
 40
0.2
 40
0.2
 40
0.2
 40
0.3
 40
0.3
 40
0.3
 40
0.3
 40
0.4
 40
0.4
 40
0.4
 40
0.4
 40
0.5
 40
0.5
 40
0.5
 40
0.5
 40
0.6
 40
0.6
 40
0.6
 40
0.6
 40
0.7
 40
0.7
 40
0.7
 40
0.7
 40
0.8
 40
0.8
 40
0.8
 40
0.8
 40
1.0
 40
1.0
 40
1.0
 40
1.0
 10
2.2324
 20
-1.9932
 30
0.0
 10
2.2324
 20
-1.9932
 30
0.0
 10
2.2449
 20
-1.9921
 30
0.0
 10
2.2449
 20
-1.9921
 30
0.0
 10
2.2449
 20
-1.9921
 30
0.0
 10
2.2449
 20
-1.9921
 30
0.0
 10
2.2571
 20
-1.9888
 30
0.0
 10
2.2571
 20
-1.9888
 30
0.0
 10
2.2571
 20
-1.9888
 30
0.0
 10
2.2571
 20
-1.9888
 30
0.0
 10
2.2684
 20
-1.9835
 30
0.0
 10
2.2684
 20
-1.9835
 30
0.0
 10
2.2684
 20
-1.9835
 30
0.0
 10
2.2684
 20
-1.9835
 30
0.0
 10
2.2787
 20
-1.9763
 30
0.0
 10
2.2787
 20
-1.9763
 30
0.0
 10
2.2787
 20
-1.9763
 30
0.0
 10
2.2787
 20
-1.9763
 30
0.0
 10
2.2876
 20
-1.9675
 30
0.0
 10
2.2876
 20
-1.9675
 30
0.0
 10
2.2876
 20
-1.9675
 30
0.0
 10
2.2876
 20
-1.9675
 30
0.0
 10
2.2948
 20
-1.9572
 30
0.0
 10
2.2948
 20
-1.9572
 30
0.0
 10
2.2948
 20
-1.9572
 30
0.0
 10
2.2948
 20
-1.9572
 30
0.0
 10
2.3001
 20
-1.9458
 30
0.0
 10
2.3001
 20
-1.9458
 30
0.0
 10
2.3001
 20
-1.9458
 30
0.0
 10
2.3001
 20
-1.9458
 30
0.0
 10
2.3033
 20
-1.9337
 30
0.0
 10
2.3033
 20
-1.9337
 30
0.0
 10
2.3033
 20
-1.9337
 30
0.0
 10
2.3033
 20
-1.9337
 30
0.0
 10
2.3044
 20
-1.9212
 30
0.0
 10
2.3044
 20
-1.9212
 30
0.0
  0
SPLINE
  5
17D
330
1F
100
AcDbEntity
  8
DEFAULT_1
100
AcDbSpline
210
0.0
220
0.0
230
1.0
 70
    24
 71
     3
 72
     8
 73
     4
 74
     0
 42
0.0000000001
 43
0.0000000001
 40
0.0
 40
0.0
 40
0.0
 40
0.0
 40
1.0
 40
1.0
 40
1.0
 40
1.0
 10
1.8289
 20
-2.0456
 30
0.0
 10
1.8289
 20
-2.0456
 30
0.0
 10
2.2849
 20
-2.0456
 30
0.0
 10
2.2849
 20
-2.0456
 30
0.0
  0
SPLINE
  5
17E
330
1F
100
AcDbEntity
  8
DEFAULT_1
100
AcDbSpline
210
0.0
220
0.0
230
1.0
 70
    24
 71
     3
 72
     8
 73
     4
 74
     0
 42
0.0000000001
 43
0.0000000001
 40
0.0
 40
0.0
 40
0.0
 40
0.0
 40
1.0
 40
1.0
 40
1.0
 40
1.0
 10
1.8812
 20
-1.9932
 30
0.0
 10
1.8812
 20
-1.9932
 30
0.0
 10
2.2324
 20
-1.9932
 30
0.0
 10
2.2324
 20
-1.9932
 30
0.0
  0
SPLINE
  5
17F
330
1F
100
AcDbEntity
  8
DEFAULT_1
100
AcDbSpline
210
0.0
220
0.0
230
1.0
 70
     8
 71
     3
 72
    40
 73
    36
 74
     0
 42
0.0000000001
 43
0.0000000001
 40
0.0
 40
0.0
 40
0.0
 40
0.0
 40
0.1
 40
0.1
 40
0.1
 40
0.1
 40
0.2
 40
0.2
 40
0.2
 40
0.2
 40
0.3
 40
0.3
 40
0.3
 40
0.3
 40
0.4
 40
0.4
 40
0.4
 40
0.4
 40
0.5
 40
0.5
 40
0.5
 40
0.5
 40
0.6
 40
0.6
 40
0.6
 40
0.6
 40
0.7
 40
0.7
 40
0.7
 40
0.7
 40
0.8
 40
0.8
 40
0.8
 40
0.8
 40
1.0
 40
1.0
 40
1.0
 40
1.0
 10
1.8289
 20
-2.0456
 30
0.0
 10
1.8289
 20
-2.0456
 30
0.0
 10
1.8163
 20
-2.0445
 30
0.0
 10
1.8163
 20
-2.0445
 30
0.0
 10
1.8163
 20
-2.0445
 30
0.0
 10
1.8163
 20
-2.0445
 30
0.0
 10
1.8042
 20
-2.0413
 30
0.0
 10
1.8042
 20
-2.0413
 30
0.0
 10
1.8042
 20
-2.0413
 30
0.0
 10
1.8042
 20
-2.0413
 30
0.0
 10
1.7929
 20
-2.0359
 30
0.0
 10
1.7929
 20
-2.0359
 30
0.0
 10
1.7929
 20
-2.0359
 30
0.0
 10
1.7929
 20
-2.0359
 30
0.0
 10
1.7825
 20
-2.0287
 30
0.0
 10
1.7825
 20
-2.0287
 30
0.0
 10
1.7825
 20
-2.0287
 30
0.0
 10
1.7825
 20
-2.0287
 30
0.0
 10
1.7737
 20
-2.0198
 30
0.0
 10
1.7737
 20
-2.0198
 30
0.0
 10
1.7737
 20
-2.0198
 30
0.0
 10
1.7737
 20
-2.0198
 30
0.0
 10
1.7665
 20
-2.0096
 30
0.0
 10
1.7665
 20
-2.0096
 30
0.0
 10
1.7665
 20
-2.0096
 30
0.0
 10
1.7665
 20
-2.0096
 30
0.0
 10
1.7612
 20
-1.9982
 30
0.0
 10
1.7612
 20
-1.9982
 30
0.0
 10
1.7612
 20
-1.9982
 30
0.0
 10
1.7612
 20
-1.9982
 30
0.0
 10
1.7579
 20
-1.9861
 30
0.0
 10
1.7579
 20
-1.9861
 30
0.0
 10
1.7579
 20
-1.9861
 30
0.0
 10
1.7579
 20
-1.9861
 30
0.0
 10
1.7569
 20
-1.9736
 30
0.0
 10
1.7569
 20
-1.9736
 30
0.0
  0
SPLINE
  5
180
330
1F
100
AcDbEntity
  8
DEFAULT_1
100
AcDbSpline
210
0.0
220
0.0
230
1.0
 70
     8
 71
     3
 72
    12
 73
     8
 74
     0
 42
0.0000000001
 43
0.0000000001
 40
0.0
 40
0.0
 40
0.0
 40
0.0
 40
0.3333333333333333
 40
0.3333333333333333
 40
0.3333333333333333
 40
0.3333333333333333
 40
1.0
 40
1.0
 40
1.0
 40
1.0
 10
1.8092
 20
-1.5482
 30
0.0
 10
1.8092
 20
-1.5482
 30
0.0
 10
1.8104
 20
-1.5482
 30
0.0
 10
1.8104
 20
-1.5482
 30
0.0
 10
1.8104
 20
-1.5482
 30
0.0
 10
1.8104
 20
-1.5482
 30
0.0
 10
1.8137
 20
-1.548
 30
0.0
 10
1.8137
 20
-1.548
 30
0.0
  0
SPLINE
  5
181
330
1F
100
AcDbEntity
  8
DEFAULT_1
100
AcDbSpline
210
0.0
220
0.0
230
1.0
 70
    24
 71
     3
 72
     8
 73
     4
 74
     0
 42
0.0000000001
 43
0.0000000001
 40
0.0
 40
0.0
 40
0.0
 40
0.0
 40
1.0
 40
1.0
 40
1.0
 40
1.0
 10
1.8137
 20
-1.548
 30
0.0
 10
1.8137
 20
-1.548
 30
0.0
 10
1.8262
 20
-1.5477
 30
0.0
 10
1.8262
 20
-1.5477
 30
0.0
  0
SPLINE
  5
182
330
1F
100
AcDbEntity
  8
DEFAULT_1
100
AcDbSpline
210
0.0
220
0.0
230
1.0
 70
    24
 71
     3
 72
     8
 73
     4
 74
     0
 42
0.0000000001
 43
0.0000000001
 40
0.0
 40
0.0
 40
0.0
 40
0.0
 40
1.0
 40
1.0
 40
1.0
 40
1.0
 10
1.8262
 20
-1.5477
 30
0.0
 10
1.8262
 20
-1.5477
 30
0.0
 10
1.8454
 20
-1.5472
 30
0.0
 10
1.8454
 20
-1.5472
 30
0.0
  0
SPLINE
  5
183
330
1F
100
AcDbEntity
  8
DEFAULT_1
100
AcDbSpline
210
0.0
220
0.0
230
1.0
 70
    24
 71
     3
 72
     8
 73
     4
 74
     0
 42
0.0000000001
 43
0.0000000001
 40
0.0
 40
0.0
 40
0.0
 40
0.0
 40
1.0
 40
1.0
 40
1.0
 40
1.0
 10
1.8454
 20
-1.5472
 30
0.0
 10
1.8454
 20
-1.5472
 30
0.0
 10
1.8812
 20
-1.5466
 30
0.0
 10
1.8812
 20
-1.5466
 30
0.0
  0
SPLINE
  5
184
330
1F
100
AcDbEntity
  8
DEFAULT_1
100
AcDbSpline
210
0.0
220
0.0
230
1.0
 70
    24
 71
     3
 72
     8
 73
     4
 74
     0
 42
0.0000000001
 43
0.0000000001
 40
0.0
 40
0.0
 40
0.0
 40
0.0
 40
1.0
 40
1.0
 40
1.0
 40
1.0
 10
1.8092
 20
-1.9212
 30
0.0
 10
1.8092
 20
-1.9212
 30
0.0
 10
2.3044
 20
-1.9212
 30
0.0
 10
2.3044
 20
-1.9212
 30
0.0
  0
SPLINE
  5
185
330
1F
100
AcDbEntity
  8
DEFAULT_1
100
AcDbSpline
210
0.0
220
0.0
230
1.0
 70
    24
 71
     3
 72
     8
 73
     4
 74
     0
 42
0.0000000001
 43
0.0000000001
 40
0.0
 40
0.0
 40
0.0
 40
0.0
 40
1.0
 40
1.0
 40
1.0
 40
1.0
 10
2.2324
 20
-1.5466
 30
0.0
 10
2.2324
 20
-1.5466
 30
0.0
 10
2.2683
 20
-1.5472
 30
0.0
 10
2.2683
 20
-1.5472
 30
0.0
  0
SPLINE
  5
186
330
1F
100
AcDbEntity
  8
DEFAULT_1
100
AcDbSpline
210
0.0
220
0.0
230
1.0
 70
    24
 71
     3
 72
     8
 73
     4
 74
     0
 42
0.0000000001
 43
0.0000000001
 40
0.0
 40
0.0
 40
0.0
 40
0.0
 40
1.0
 40
1.0
 40
1.0
 40
1.0
 10
2.2683
 20
-1.5472
 30
0.0
 10
2.2683
 20
-1.5472
 30
0.0
 10
2.2875
 20
-1.5477
 30
0.0
 10
2.2875
 20
-1.5477
 30
0.0
  0
SPLINE
  5
187
330
1F
100
AcDbEntity
  8
DEFAULT_1
100
AcDbSpline
210
0.0
220
0.0
230
1.0
 70
     8
 71
     3
 72
    16
 73
    12
 74
     0
 42
0.0000000001
 43
0.0000000001
 40
0.0
 40
0.0
 40
0.0
 40
0.0
 40
0.25
 40
0.25
 40
0.25
 40
0.25
 40
0.5
 40
0.5
 40
0.5
 40
0.5
 40
1.0
 40
1.0
 40
1.0
 40
1.0
 10
2.2875
 20
-1.5477
 30
0.0
 10
2.2875
 20
-1.5477
 30
0.0
 10
2.3
 20
-1.548
 30
0.0
 10
2.3
 20
-1.548
 30
0.0
 10
2.3
 20
-1.548
 30
0.0
 10
2.3
 20
-1.548
 30
0.0
 10
2.3033
 20
-1.5482
 30
0.0
 10
2.3033
 20
-1.5482
 30
0.0
 10
2.3033
 20
-1.5482
 30
0.0
 10
2.3033
 20
-1.5482
 30
0.0
 10
2.3044
 20
-1.5482
 30
0.0
 10
2.3044
 20
-1.5482
 30
0.0
  0
SPLINE
  5
188
330
1F
100
AcDbEntity
  8
DEFAULT_1
100
AcDbSpline
210
0.0
220
0.0
230
1.0
 70
     8
 71
     3
 72
     8
 73
     4
 74
     0
 42
0.0000000001
 43
0.0000000001
 40
0.0
 40
0.0
 40
0.0
 40
0.0
 40
1.0
 40
1.0
 40
1.0
 40
1.0
 10
2.2324
 20
-1.5466
 30
0.0
 10
2.1154
 20
-1.5448
 30
0.0
 10
1.9983
 20
-1.5448
 30
0.0
 10
1.8812
 20
-1.5466
 30
0.0
  0
SPLINE
  5
189
330
1F
100
AcDbEntity
  8
DEFAULT_1
  6
NEW_LINE1
 62
   250
100
AcDbSpline
210
0.0
220
0.0
230
1.0
 70
    24
 71
     3
 72
     8
 73
     4
 74
     0
 42
0.0000000001
 43
0.0000000001
 40
0.0
 40
0.0
 40
0.0
 40
0.0
 40
1.0
 40
1.0
 40
1.0
 40
1.0
 10
2.0412
 20
22.4966
 30
0.0
 10
2.0412
 20
22.4966
 30
0.0
 10
2.0412
 20
4.1523
 30
0.0
 10
2.0412
 20
4.1523
 30
0.0
  0
SPLINE
  5
18B
330
1F
100
AcDbEntity
  8
DEFAULT_1
  6
NEW_LINE2
 62
   250
100
AcDbSpline
210
0.0
220
0.0
230
1.0
 70
    24
 71
     3
 72
     8
 73
     4
 74
     0
 42
0.0000000001
 43
0.0000000001
 40
0.0
 40
0.0
 40
0.0
 40
0.0
 40
1.0
 40
1.0
 40
1.0
 40
1.0
 10
2.0412
 20
0.3596
 30
0.0
 10
2.0412
 20
0.3596
 30
0.0
 10
2.0412
 20
-9.9592
 30
0.0
 10
2.0412
 20
-9.9592
 30
0.0
  0
SPLINE
  5
18D
330
1F
100
AcDbEntity
  8
DEFAULT_1
  6
NEW_LINE3
 62
   250
100
AcDbSpline
210
0.0
220
0.0
230
1.0
 70
    24
 71
     3
 72
     8
 73
     4
 74
     0
 42
0.0000000001
 43
0.0000000001
 40
0.0
 40
0.0
 40
0.0
 40
0.0
 40
1.0
 40
1.0
 40
1.0
 40
1.0
 10
2.0412
 20
-12.9136
 30
0.0
 10
2.0412
 20
-12.9136
 30
0.0
 10
2.0412
 20
-27.995
 30
0.0
 10
2.0412
 20
-27.995
 30
0.0
  0
SPLINE
  5
18F
330
1F
100
AcDbEntity
  8
DEFAULT_1
  6
NEW_LINE4
 62
   250
100
AcDbSpline
210
0.0
220
0.0
230
1.0
 70
    24
 71
     3
 72
     8
 73
     4
 74
     0
 42
0.0000000001
 43
0.0000000001
 40
0.0
 40
0.0
 40
0.0
 40
0.0
 40
1.0
 40
1.0
 40
1.0
 40
1.0
 10
3.0122
 20
-13.3817
 30
0.0
 10
3.0122
 20
-13.3817
 30
0.0
 10
-12.8027
 20
-13.3817
 30
0.0
 10
-12.8027
 20
-13.3817
 30
0.0
  0
SPLINE
  5
191
330
1F
100
AcDbEntity
  8
DEFAULT_1
  6
NEW_LINE5
 62
   250
100
AcDbSpline
210
0.0
220
0.0
230
1.0
 70
    24
 71
     3
 72
     8
 73
     4
 74
     0
 42
0.0000000001
 43
0.0000000001
 40
0.0
 40
0.0
 40
0.0
 40
0.0
 40
1.0
 40
1.0
 40
1.0
 40
1.0
 10
16.3296
 20
-13.3823
 30
0.0
 10
16.3296
 20
-13.3823
 30
0.0
 10
5.7904
 20
-13.3823
 30
0.0
 10
5.7904
 20
-13.3823
 30
0.0
  0
ENDSEC
  0
SECTION
  2
OBJECTS
  0
DICTIONARY
  5
C
330
0
100
AcDbDictionary
  3
ACAD_GROUP
350
D
  3
ACAD_LAYOUT
350
1A
  3
ACAD_MATERIAL
350
3B
  3
ACAD_MLEADERSTYLE
350
1B5
  3
ACAD_MLINESTYLE
350
17
  3
ACAD_PLOTSETTINGS
350
19
  3
ACAD_VISUALSTYLE
350
2A
  3
ACDBHEADERROUNDTRIPXREC
350
193
  3
ACDBVARIABLEDICTIONARY
350
1B3
  0
DICTIONARY
  5
D
102
{ACAD_REACTORS
330
C
102
}
330
C
100
AcDbDictionary
  0
DICTIONARY
  5
1A
102
{ACAD_REACTORS
330
C
102
}
330
C
100
AcDbDictionary
  0
DICTIONARY
  5
3B
102
{ACAD_REACTORS
330
C
102
}
330
C
100
AcDbDictionary
  3
BYBLOCK
350
3D
  3
BYLAYER
350
3C
  3
GLOBAL
350
3E
  0
DICTIONARY
  5
1B5
102
{ACAD_REACTORS
330
C
102
}
330
C
100
AcDbDictionary
  0
DICTIONARY
  5
17
102
{ACAD_REACTORS
330
C
102
}
330
C
100
AcDbDictionary
  3
STANDARD
350
18
  0
DICTIONARY
  5
19
102
{ACAD_REACTORS
330
C
102
}
330
C
100
AcDbDictionary
  0
DICTIONARY
  5
2A
102
{ACAD_REACTORS
330
C
102
}
330
C
100
AcDbDictionary
  3
2DWIREFRAME
350
2F
  3
3D_HIDDEN
350
31
  3
3DWIREFRAME
350
30
  3
BASIC
350
32
  3
BRIGHTEN
350
36
  3
COLORCHANGE
350
3A
  3
CONCEPTUAL
350
34
  3
DIM
350
35
  3
FACEPATTERN
350
39
  3
FLAT
350
2B
  3
FLATWITHEDGES
350
2C
  3
GOURAUD
350
2D
  3
GOURAUDWITHEDGES
350
2E
  3
LINEPATTERN
350
38
  3
REALISTIC
350
33
  3
THICKEN
350
37
  0
DICTIONARY
  5
193
102
{ACAD_REACTORS
330
C
102
}
330
C
100
AcDbDictionary
  3
CEPSNTYPE
350
19C
  3
DIMSTYLEDATA
350
1B2
  3
FINGERPRINTGUID
350
19D
  3
HYPERLINKBASE
350
196
  3
INSUNITS
350
19B
  3
LAYOUTDICT
350
198
  3
LWETCUNION
350
19A
  3
PLOTSETDICT
350
199
  3
PSVPSCALE
350
19F
  3
PUCSBASE
350
1A2
  3
PUCSORGBACK
350
1A8
  3
PUCSORGBOTTOM
350
1A4
  3
PUCSORGFRONT
350
1A7
  3
PUCSORGLEFT
350
1A5
  3
PUCSORGRIGHT
350
1A6
  3
PUCSORGTOP
350
1A3
  3
PUCSORTHOREF
350
1A0
  3
PUCSORTHOVIEW
350
1A1
  3
STYLESHEET
350
197
  3
TSTACKALIGN
350
194
  3
TSTACKSIZE
350
195
  3
UCSBASE
350
1AB
  3
UCSORGBACK
350
1B1
  3
UCSORGBOTTOM
350
1AD
  3
UCSORGFRONT
350
1B0
  3
UCSORGLEFT
350
1AE
  3
UCSORGRIGHT
350
1AF
  3
UCSORGTOP
350
1AC
  3
UCSORTHOREF
350
1A9
  3
UCSORTHOVIEW
350
1AA
  3
VERSIONGUID
350
19E
  0
DICTIONARY
  5
1B3
102
{ACAD_REACTORS
330
C
102
}
330
C
100
AcDbDictionary
  3
DIMASSOC
350
1B6
  3
HIDETEXT
350
1B7
  0
MATERIAL
  5
3D
102
{ACAD_REACTORS
330
3B
102
}
102
{ACAD_XDICTIONARY
360
1BA
102
}
330
3B
100
AcDbMaterial
  1
ByBlock
  0
MATERIAL
  5
3C
102
{ACAD_REACTORS
330
3B
102
}
102
{ACAD_XDICTIONARY
360
1B8
102
}
330
3B
100
AcDbMaterial
  1
ByLayer
  0
MATERIAL
  5
3E
102
{ACAD_REACTORS
330
3B
102
}
102
{ACAD_XDICTIONARY
360
1BC
102
}
330
3B
100
AcDbMaterial
  1
Global
  0
MLINESTYLE
  5
18
102
{ACAD_REACTORS
330
17
102
}
330
17
100
AcDbMlineStyle
  2
Standard
 70
     0
  3

 62
   256
 51
90.0
 52
90.0
 71
     2
 49
0.5
 62
   256
  6
BYLAYER
 49
-0.5
 62
   256
  6
BYLAYER
  0
ACAD_PROXY_OBJECT
  5
2F
102
{ACAD_REACTORS
330
2A
102
}
330
2A
100
AcDbProxyObject
 90
      499
 91
      501
 93
      436
310
42CC9915DA5C99599C985B595049028333333333333E3BF0000000000000FB0107901411070040501600405405064090741402480A0340
1001
ACAD
1000
AcDbSavedByObjectVersion
1070
     0
  0
ACAD_PROXY_OBJECT
  5
31
102
{ACAD_REACTORS
330
2A
102
}
330
2A
100
AcDbProxyObject
 90
      499
 91
      501
 93
      500
310
424CD108121A5919195B90640502408333333333333E3BF0000000000000FB01079024090700405020000000000001110200405405064090740C02480A0340
1001
ACAD
1000
AcDbSavedByObjectVersion
1070
     0
  0
ACAD_PROXY_OBJECT
  5
30
102
{ACAD_REACTORS
330
2A
102
}
330
2A
100
AcDbProxyObject
 90
      499
 91
      501
 93
      436
310
42CCD915DA5C99599C985B595059028333333333333E3BF0000000000000FB0107901411070040501600405405064090741402480A0340
1001
ACAD
1000
AcDbSavedByObjectVersion
1070
     0
  0
ACAD_PROXY_OBJECT
  5
32
102
{ACAD_REACTORS
330
2A
102
}
330
2A
100
AcDbProxyObject
 90
      499
 91
      501
 93
      388
310
4150985CDA58D07406404333333333333E3BF0000000000000FB0107A41107004050150841D405064090741402480A0350
1001
ACAD
1000
AcDbSavedByObjectVersion
1070
     0
  0
ACAD_PROXY_OBJECT
  5
36
102
{ACAD_REACTORS
330
2A
102
}
330
2A
100
AcDbProxyObject
 90
      499
 91
      501
 93
      428
310
42109C9A59DA1D195B90C409028333333333333E3BF0000000000000FB010790141107004050150841D405064090741402480A029950
1001
ACAD
1000
AcDbSavedByObjectVersion
1070
     0
  0
ACAD_PROXY_OBJECT
  5
3A
102
{ACAD_REACTORS
330
2A
102
}
330
2A
100
AcDbProxyObject
 90
      499
 91
      501
 93
      452
310
42D0DBDB1BDC90DA185B99D95104090240C333333333333E3BF0000000000000FB0108901411070040501508421405064090741402480A0350
1001
ACAD
1000
AcDbSavedByObjectVersion
1070
     0
  0
ACAD_PROXY_OBJECT
  5
34
102
{ACAD_REACTORS
330
2A
102
}
330
2A
100
AcDbProxyObject
 90
      499
 91
      501
 93
      500
310
4290DBDB98D95C1D1D585B10940D028333333333333E3BF0000000000000FB0107902409070040501000000000000111010841D405064090740C02480A0340
1001
ACAD
1000
AcDbSavedByObjectVersion
1070
     0
  0
ACAD_PROXY_OBJECT
  5
35
102
{ACAD_REACTORS
330
2A
102
}
330
2A
100
AcDbProxyObject
 90
      499
 91
      501
 93
      412
310
40D11A5B50B409028333333333333E3BF0000000000000FB010790141107004050150841D405064090741402480A02677FFFFFD0
1001
ACAD
1000
AcDbSavedByObjectVersion
1070
     0
  0
ACAD_PROXY_OBJECT
  5
39
102
{ACAD_REACTORS
330
2A
102
}
330
2A
100
AcDbProxyObject
 90
      499
 91
      501
 93
      444
310
42D19858D95C185D1D195C9B90F409028333333333333E3BF0000000000000FB010790141107004050150841D405064090741402480A0350
1001
ACAD
1000
AcDbSavedByObjectVersion
1070
     0
  0
ACAD_PROXY_OBJECT
  5
2B
102
{ACAD_REACTORS
330
2A
102
}
330
2A
100
AcDbProxyObject
 90
      499
 91
      501
 93
      388
310
41119B185D240901404333333333333E3BF0000000000000F9010740A41107004050150841D405064090741402480A1B50
1001
ACAD
1000
AcDbSavedByObjectVersion
1070
     0
  0
ACAD_PROXY_OBJECT
  5
2C
102
{ACAD_REACTORS
330
2A
102
}
330
2A
100
AcDbProxyObject
 90
      499
 91
      501
 93
      476
310
43519B185D15DA5D1A115919D95CD0140901404333333333333E3BF0000000000000F9010740901411070040501600405405064090741402480A1B50
1001
ACAD
1000
AcDbSavedByObjectVersion
1070
     0
  0
ACAD_PROXY_OBJECT
  5
2D
102
{ACAD_REACTORS
330
2A
102
}
330
2A
100
AcDbProxyObject
 90
      499
 91
      501
 93
      412
310
41D1DBDD5C985D5910240902404333333333333E3BF0000000000000F9010740A411070040501641D405064090741402480A1B50
1001
ACAD
1000
AcDbSavedByObjectVersion
1070
     0
  0
ACAD_PROXY_OBJECT
  5
2E
102
{ACAD_REACTORS
330
2A
102
}
330
2A
100
AcDbProxyObject
 90
      499
 91
      501
 93
      500
310
4411DBDD5C985D5915DA5D1A115919D95CD0340902404333333333333E3BF0000000000000F9010740901411070040501600405405064090741402480A1B50
1001
ACAD
1000
AcDbSavedByObjectVersion
1070
     0
  0
ACAD_PROXY_OBJECT
  5
38
102
{ACAD_REACTORS
330
2A
102
}
330
2A
100
AcDbProxyObject
 90
      499
 91
      501
 93
      444
310
42D31A5B995C185D1D195C9B90E409028333333333333E3BF0000000000000FB010790141107004050750841D405064090741402483A0350
1001
ACAD
1000
AcDbSavedByObjectVersion
1070
     0
  0
ACAD_PROXY_OBJECT
  5
33
102
{ACAD_REACTORS
330
2A
102
}
330
2A
100
AcDbProxyObject
 90
      499
 91
      501
 93
      420
310
425499585B1A5CDD1A58D08409028333333333333E3BF0000000000000FB01079019070040501508421405064090741402480A1B40
1001
ACAD
1000
AcDbSavedByObjectVersion
1070
     0
  0
ACAD_PROXY_OBJECT
  5
37
102
{ACAD_REACTORS
330
2A
102
}
330
2A
100
AcDbProxyObject
 90
      499
 91
      501
 93
      412
310
41D51A1A58DAD95B90D409028333333333333E3BF0000000000000FB010790141107004050150C41D405064090741402480A0350
1001
ACAD
1000
AcDbSavedByObjectVersion
1070
     0
  0
XRECORD
  5
19C
102
{ACAD_REACTORS
330
193
102
}
330
193
100
AcDbXrecord
 90
        0
  0
XRECORD
  5
1B2
102
{ACAD_REACTORS
330
193
102
}
330
193
100
AcDbXrecord
1000
DSTYLE
1002
{
1070
   340
340
11
1002
}
  0
XRECORD
  5
19D
102
{ACAD_REACTORS
330
193
102
}
330
193
100
AcDbXrecord
  1
{8606FB57-B14F-4EDA-B5C4-C0B57238B5C7}
  0
XRECORD
  5
196
102
{ACAD_REACTORS
330
193
102
}
330
193
100
AcDbXrecord
  1

  0
XRECORD
  5
19B
102
{ACAD_REACTORS
330
193
102
}
330
193
100
AcDbXrecord
 90
        4
  0
XRECORD
  5
198
102
{ACAD_REACTORS
330
193
102
}
330
193
100
AcDbXrecord
340
1A
  0
XRECORD
  5
19A
102
{ACAD_REACTORS
330
193
102
}
330
193
100
AcDbXrecord
 90
    10781
  0
XRECORD
  5
199
102
{ACAD_REACTORS
330
193
102
}
330
193
100
AcDbXrecord
340
19
  0
XRECORD
  5
19F
102
{ACAD_REACTORS
330
193
102
}
330
193
100
AcDbXrecord
 40
0.0
  0
XRECORD
  5
1A2
102
{ACAD_REACTORS
330
193
102
}
330
193
100
AcDbXrecord
340
0
  0
XRECORD
  5
1A8
102
{ACAD_REACTORS
330
193
102
}
330
193
100
AcDbXrecord
 10
0.0
 20
0.0
 30
0.0
  0
XRECORD
  5
1A4
102
{ACAD_REACTORS
330
193
102
}
330
193
100
AcDbXrecord
 10
0.0
 20
0.0
 30
0.0
  0
XRECORD
  5
1A7
102
{ACAD_REACTORS
330
193
102
}
330
193
100
AcDbXrecord
 10
0.0
 20
0.0
 30
0.0
  0
XRECORD
  5
1A5
102
{ACAD_REACTORS
330
193
102
}
330
193
100
AcDbXrecord
 10
0.0
 20
0.0
 30
0.0
  0
XRECORD
  5
1A6
102
{ACAD_REACTORS
330
193
102
}
330
193
100
AcDbXrecord
 10
0.0
 20
0.0
 30
0.0
  0
XRECORD
  5
1A3
102
{ACAD_REACTORS
330
193
102
}
330
193
100
AcDbXrecord
 10
0.0
 20
0.0
 30
0.0
  0
XRECORD
  5
1A0
102
{ACAD_REACTORS
330
193
102
}
330
193
100
AcDbXrecord
340
0
  0
XRECORD
  5
1A1
102
{ACAD_REACTORS
330
193
102
}
330
193
100
AcDbXrecord
 70
     0
  0
XRECORD
  5
197
102
{ACAD_REACTORS
330
193
102
}
330
193
100
AcDbXrecord
  1

  0
XRECORD
  5
194
102
{ACAD_REACTORS
330
193
102
}
330
193
100
AcDbXrecord
 90
        1
  0
XRECORD
  5
195
102
{ACAD_REACTORS
330
193
102
}
330
193
100
AcDbXrecord
 90
       70
  0
XRECORD
  5
1AB
102
{ACAD_REACTORS
330
193
102
}
330
193
100
AcDbXrecord
340
0
  0
XRECORD
  5
1B1
102
{ACAD_REACTORS
330
193
102
}
330
193
100
AcDbXrecord
 10
0.0
 20
0.0
 30
0.0
  0
XRECORD
  5
1AD
102
{ACAD_REACTORS
330
193
102
}
330
193
100
AcDbXrecord
 10
0.0
 20
0.0
 30
0.0
  0
XRECORD
  5
1B0
102
{ACAD_REACTORS
330
193
102
}
330
193
100
AcDbXrecord
 10
0.0
 20
0.0
 30
0.0
  0
XRECORD
  5
1AE
102
{ACAD_REACTORS
330
193
102
}
330
193
100
AcDbXrecord
 10
0.0
 20
0.0
 30
0.0
  0
XRECORD
  5
1AF
102
{ACAD_REACTORS
330
193
102
}
330
193
100
AcDbXrecord
 10
0.0
 20
0.0
 30
0.0
  0
XRECORD
  5
1AC
102
{ACAD_REACTORS
330
193
102
}
330
193
100
AcDbXrecord
 10
0.0
 20
0.0
 30
0.0
  0
XRECORD
  5
1A9
102
{ACAD_REACTORS
330
193
102
}
330
193
100
AcDbXrecord
340
0
  0
XRECORD
  5
1AA
102
{ACAD_REACTORS
330
193
102
}
330
193
100
AcDbXrecord
 70
     0
  0
XRECORD
  5
19E
102
{ACAD_REACTORS
330
193
102
}
330
193
100
AcDbXrecord
  1
{FAEB1C32-E019-11D5-929B-00C0DF256EC4}
  0
DICTIONARYVAR
  5
1B6
102
{ACAD_REACTORS
330
1B3
102
}
330
1B3
100
DictionaryVariables
280
     0
  1
2
  0
DICTIONARYVAR
  5
1B7
102
{ACAD_REACTORS
330
1B3
102
}
330
1B3
100
DictionaryVariables
280
     0
  1
1
  0
DICTIONARY
  5
1BA
330
3D
100
AcDbDictionary
280
     1
  3
ACAD_XREC_ROUNDTRIP
360
1BB
  0
DICTIONARY
  5
1B8
330
3C
100
AcDbDictionary
280
     1
  3
ACAD_XREC_ROUNDTRIP
360
1B9
  0
DICTIONARY
  5
1BC
330
3E
100
AcDbDictionary
280
     1
  3
ACAD_XREC_ROUNDTRIP
360
1BD
  0
XRECORD
  5
1BB
102
{ACAD_REACTORS
330
1BA
102
}
330
1BA
100
AcDbXrecord
102
MATERIAL
148
0.0
149
0.0
149
0.0
 93
        0
 94
      127
282
     0
 72
     1
 77
     1
171
     1
175
     1
179
     1
273
     0
  0
XRECORD
  5
1B9
102
{ACAD_REACTORS
330
1B8
102
}
330
1B8
100
AcDbXrecord
102
MATERIAL
148
0.0
149
0.0
149
0.0
 93
        0
 94
      127
282
     0
 72
     1
 77
     1
171
     1
175
     1
179
     1
273
     0
  0
XRECORD
  5
1BD
102
{ACAD_REACTORS
330
1BC
102
}
330
1BC
100
AcDbXrecord
102
MATERIAL
148
0.0
149
0.0
149
0.0
 93
        0
 94
      127
282
     0
 72
     1
 77
     1
171
     1
175
     1
179
     1
273
     0
  0
ENDSEC
  0
EOF
