  0
SECTION
  2
HEADER
  9
$ACADVER
  1
AC1014
  9
$ACADMAINTVER
 70
     9
  9
$DWGCODEPAGE
  3
ANSI_1250
  9
$INSBASE
 10
0.0
 20
0.0
 30
0.0
  9
$EXTMIN
 10
-30.0213
 20
-31.1049
 30
0.0
  9
$EXTMAX
 10
30.1624
 20
21.1048
 30
0.0
  9
$LIMMIN
 10
0.0
 20
0.0
  9
$LIMMAX
 10
12.0
 20
9.0
  9
$ORTHOMODE
 70
     0
  9
$REGENMODE
 70
     1
  9
$FILLMODE
 70
     1
  9
$QTEXTMODE
 70
     0
  9
$MIRRTEXT
 70
     1
  9
$DRAGMODE
 70
     2
  9
$LTSCALE
 40
1.0
  9
$OSMODE
 70
    37
  9
$ATTMODE
 70
     1
  9
$TEXTSIZE
 40
0.2
  9
$TRACEWID
 40
0.05
  9
$TEXTSTYLE
  7
STANDARD
  9
$CLAYER
  8
0
  9
$CELTYPE
  6
BYLAYER
  9
$CECOLOR
 62
   256
  9
$CELTSCALE
 40
1.0
  9
$DELOBJ
 70
     1
  9
$DISPSILH
 70
     0
  9
$DIMSCALE
 40
1.0
  9
$DIMASZ
 40
0.18
  9
$DIMEXO
 40
0.0625
  9
$DIMDLI
 40
0.38
  9
$DIMRND
 40
0.0
  9
$DIMDLE
 40
0.0
  9
$DIMEXE
 40
0.18
  9
$DIMTP
 40
0.0
  9
$DIMTM
 40
0.0
  9
$DIMTXT
 40
0.18
  9
$DIMCEN
 40
0.09
  9
$DIMTSZ
 40
0.0
  9
$DIMTOL
 70
     0
  9
$DIMLIM
 70
     0
  9
$DIMTIH
 70
     1
  9
$DIMTOH
 70
     1
  9
$DIMSE1
 70
     0
  9
$DIMSE2
 70
     0
  9
$DIMTAD
 70
     0
  9
$DIMZIN
 70
     0
  9
$DIMBLK
  1

  9
$DIMASO
 70
     1
  9
$DIMSHO
 70
     1
  9
$DIMPOST
  1

  9
$DIMAPOST
  1

  9
$DIMALT
 70
     0
  9
$DIMALTD
 70
     2
  9
$DIMALTF
 40
25.4
  9
$DIMLFAC
 40
1.0
  9
$DIMTOFL
 70
     0
  9
$DIMTVP
 40
0.0
  9
$DIMTIX
 70
     0
  9
$DIMSOXD
 70
     0
  9
$DIMSAH
 70
     0
  9
$DIMBLK1
  1

  9
$DIMBLK2
  1

  9
$DIMSTYLE
  2
STANDARD
  9
$DIMCLRD
 70
     0
  9
$DIMCLRE
 70
     0
  9
$DIMCLRT
 70
     0
  9
$DIMTFAC
 40
1.0
  9
$DIMGAP
 40
0.09
  9
$DIMJUST
 70
     0
  9
$DIMSD1
 70
     0
  9
$DIMSD2
 70
     0
  9
$DIMTOLJ
 70
     1
  9
$DIMTZIN
 70
     0
  9
$DIMALTZ
 70
     0
  9
$DIMALTTZ
 70
     0
  9
$DIMFIT
 70
     3
  9
$DIMUPT
 70
     0
  9
$DIMUNIT
 70
     2
  9
$DIMDEC
 70
     4
  9
$DIMTDEC
 70
     4
  9
$DIMALTU
 70
     2
  9
$DIMALTTD
 70
     2
  9
$DIMTXSTY
  7
STANDARD
  9
$DIMAUNIT
 70
     0
  9
$LUNITS
 70
     2
  9
$LUPREC
 70
     4
  9
$SKETCHINC
 40
0.1
  9
$FILLETRAD
 40
0.5
  9
$AUNITS
 70
     0
  9
$AUPREC
 70
     0
  9
$MENU
  1
.
  9
$ELEVATION
 40
0.0
  9
$PELEVATION
 40
0.0
  9
$THICKNESS
 40
0.0
  9
$LIMCHECK
 70
     0
  9
$CHAMFERA
 40
0.5
  9
$CHAMFERB
 40
0.5
  9
$CHAMFERC
 40
1.0
  9
$CHAMFERD
 40
0.0
  9
$SKPOLY
 70
     0
  9
$TDCREATE
 40
2456268.557615695
  9
$TDUPDATE
 40
2456268.557615706
  9
$TDINDWG
 40
0.0000000116
  9
$TDUSRTIMER
 40
0.0000000116
  9
$USRTIMER
 70
     1
  9
$ANGBASE
 50
0.0
  9
$ANGDIR
 70
     0
  9
$PDMODE
 70
     0
  9
$PDSIZE
 40
0.0
  9
$PLINEWID
 40
0.0
  9
$COORDS
 70
     1
  9
$SPLFRAME
 70
     0
  9
$SPLINETYPE
 70
     6
  9
$SPLINESEGS
 70
     8
  9
$ATTDIA
 70
     0
  9
$ATTREQ
 70
     1
  9
$HANDLING
 70
     1
  9
$HANDSEED
  5
DF
  9
$SURFTAB1
 70
     6
  9
$SURFTAB2
 70
     6
  9
$SURFTYPE
 70
     6
  9
$SURFU
 70
     6
  9
$SURFV
 70
     6
  9
$UCSNAME
  2

  9
$UCSORG
 10
0.0
 20
0.0
 30
0.0
  9
$UCSXDIR
 10
1.0
 20
0.0
 30
0.0
  9
$UCSYDIR
 10
0.0
 20
1.0
 30
0.0
  9
$PUCSNAME
  2

  9
$PUCSORG
 10
0.0
 20
0.0
 30
0.0
  9
$PUCSXDIR
 10
1.0
 20
0.0
 30
0.0
  9
$PUCSYDIR
 10
0.0
 20
1.0
 30
0.0
  9
$USERI1
 70
     0
  9
$USERI2
 70
     0
  9
$USERI3
 70
     0
  9
$USERI4
 70
     0
  9
$USERI5
 70
     0
  9
$USERR1
 40
0.0
  9
$USERR2
 40
0.0
  9
$USERR3
 40
0.0
  9
$USERR4
 40
0.0
  9
$USERR5
 40
0.0
  9
$WORLDVIEW
 70
     1
  9
$SHADEDGE
 70
     3
  9
$SHADEDIF
 70
    70
  9
$TILEMODE
 70
     1
  9
$MAXACTVP
 70
    64
  9
$PINSBASE
 10
0.0
 20
0.0
 30
0.0
  9
$PLIMCHECK
 70
     0
  9
$PEXTMIN
 10
1.000000000000000E+20
 20
1.000000000000000E+20
 30
1.000000000000000E+20
  9
$PEXTMAX
 10
-1.000000000000000E+20
 20
-1.000000000000000E+20
 30
-1.000000000000000E+20
  9
$PLIMMIN
 10
0.0
 20
0.0
  9
$PLIMMAX
 10
12.0
 20
9.0
  9
$UNITMODE
 70
     0
  9
$VISRETAIN
 70
     1
  9
$PLINEGEN
 70
     0
  9
$PSLTSCALE
 70
     1
  9
$TREEDEPTH
 70
  3020
  9
$PICKSTYLE
 70
     1
  9
$CMLSTYLE
  2
STANDARD
  9
$CMLJUST
 70
     0
  9
$CMLSCALE
 40
1.0
  9
$PROXYGRAPHICS
 70
     1
  9
$MEASUREMENT
 70
     0
  0
ENDSEC
  0
SECTION
  2
CLASSES
  0
CLASS
  1
ACDBDICTIONARYWDFLT
  2
AcDbDictionaryWithDefault
  3
ObjectDBX Classes
 90
        0
280
     0
281
     0
  0
CLASS
  1
VISUALSTYLE
  2
AcDbVisualStyle
  3
ObjectDBX Classes
 90
     4095
280
     0
281
     0
  0
CLASS
  1
MATERIAL
  2
AcDbMaterial
  3
ObjectDBX Classes
 90
     1153
280
     0
281
     0
  0
CLASS
  1
DICTIONARYVAR
  2
AcDbDictionaryVar
  3
ObjectDBX Classes
 90
        0
280
     0
281
     0
  0
CLASS
  1
XRECORD
  2
AcDbXrecord
  3
AutoCAD 2000
 90
        0
280
     0
281
     0
  0
CLASS
  1
LWPOLYLINE
  2
AcDbPolyline
  3
AutoCAD 2000
 90
        0
280
     0
281
     1
  0
CLASS
  1
HATCH
  2
AcDbHatch
  3
AutoCAD 2000
 90
        0
280
     0
281
     1
  0
CLASS
  1
ACDBPLACEHOLDER
  2
AcDbPlaceHolder
  3
ObjectDBX Classes
 90
        0
280
     0
281
     0
  0
CLASS
  1
LAYOUT
  2
AcDbLayout
  3
ObjectDBX Classes
 90
        0
280
     0
281
     0
  0
ENDSEC
  0
SECTION
  2
TABLES
  0
TABLE
  2
VPORT
  5
8
330
0
100
AcDbSymbolTable
 70
     1
  0
VPORT
  5
29
330
8
100
AcDbSymbolTableRecord
100
AcDbViewportTableRecord
  2
*ACTIVE
 70
     0
 10
0.0
 20
0.0
 11
1.0
 21
1.0
 12
10.42990654205607
 22
4.5
 13
0.0
 23
0.0
 14
0.5
 24
0.5
 15
0.5
 25
0.5
 16
0.0
 26
0.0
 36
1.0
 17
0.0
 27
0.0
 37
0.0
 40
9.0
 41
1.972972972850329
 42
50.0
 43
0.0
 44
0.0
 50
0.0
 51
0.0
 71
     0
 72
   100
 73
     1
 74
     3
 75
     0
 76
     0
 77
     0
 78
     0
  0
ENDTAB
  0
TABLE
  2
LTYPE
  5
5
330
0
100
AcDbSymbolTable
 70
     2
  0
LTYPE
  5
14
330
5
100
AcDbSymbolTableRecord
100
AcDbLinetypeTableRecord
  2
BYBLOCK
 70
     0
  3

 72
    65
 73
     0
 40
0.0
  0
LTYPE
  5
15
330
5
100
AcDbSymbolTableRecord
100
AcDbLinetypeTableRecord
  2
BYLAYER
 70
     0
  3

 72
    65
 73
     0
 40
0.0
  0
LTYPE
  5
16
330
5
100
AcDbSymbolTableRecord
100
AcDbLinetypeTableRecord
  2
CONTINUOUS
 70
     0
  3
Solid line
 72
    65
 73
     0
 40
0.0
  0
LTYPE
  5
57
330
5
100
AcDbSymbolTableRecord
100
AcDbLinetypeTableRecord
  2
NEW_LINE1
 70
     0
  3

 72
    65
 73
     4
 40
1.2
 49
0.5
 74
     4
 75
     0
340
0
 46
1.0
 50
0.0
 44
0.0
 45
0.0
 49
-0.3
 74
     4
 75
     0
340
0
 46
1.0
 50
0.0
 44
0.0
 45
0.0
 49
0.1
 74
     4
 75
     0
340
0
 46
1.0
 50
0.0
 44
0.0
 45
0.0
 49
-0.3
 74
     4
 75
     0
340
0
 46
1.0
 50
0.0
 44
0.0
 45
0.0
  0
ENDTAB
  0
TABLE
  2
LAYER
  5
2
330
0
100
AcDbSymbolTable
 70
     2
  0
LAYER
  5
10
330
2
100
AcDbSymbolTableRecord
100
AcDbLayerTableRecord
  2
0
 70
     0
 62
     7
  6
CONTINUOUS
  0
LAYER
  5
40
330
2
100
AcDbSymbolTableRecord
100
AcDbLayerTableRecord
  2
ILUSTRACE
 70
     0
 62
     7
  6
CONTINUOUS
  0
ENDTAB
  0
TABLE
  2
STYLE
  5
3
330
0
100
AcDbSymbolTable
 70
     1
  0
STYLE
  5
11
330
3
100
AcDbSymbolTableRecord
100
AcDbTextStyleTableRecord
  2
STANDARD
 70
     0
 40
0.0
 41
1.0
 50
0.0
 71
     0
 42
0.2
  3
txt
  4

  0
ENDTAB
  0
TABLE
  2
VIEW
  5
6
330
0
100
AcDbSymbolTable
 70
     0
  0
ENDTAB
  0
TABLE
  2
UCS
  5
7
330
0
100
AcDbSymbolTable
 70
     0
  0
ENDTAB
  0
TABLE
  2
APPID
  5
9
330
0
100
AcDbSymbolTable
 70
     2
  0
APPID
  5
12
330
9
100
AcDbSymbolTableRecord
100
AcDbRegAppTableRecord
  2
ACAD
 70
     0
  0
APPID
  5
3F
330
9
100
AcDbSymbolTableRecord
100
AcDbRegAppTableRecord
  2
ODA
 70
     0
  0
ENDTAB
  0
TABLE
  2
DIMSTYLE
  5
A
330
0
100
AcDbSymbolTable
 70
     1
  0
DIMSTYLE
105
27
330
A
100
AcDbSymbolTableRecord
100
AcDbDimStyleTableRecord
  2
STANDARD
 70
     0
  3

  4

  5

  6

  7

 40
1.0
 41
0.18
 42
0.0625
 43
0.38
 44
0.18
 45
0.0
 46
0.0
 47
0.0
 48
0.0
140
0.18
141
0.09
142
0.0
143
25.4
144
1.0
145
0.0
146
1.0
147
0.09
 71
     0
 72
     0
 73
     1
 74
     1
 75
     0
 76
     0
 77
     0
 78
     0
170
     0
171
     2
172
     0
173
     0
174
     0
175
     0
176
     0
177
     0
178
     0
270
     2
271
     4
272
     4
273
     2
274
     2
340
11
275
     0
280
     0
281
     0
282
     0
283
     1
284
     0
285
     0
286
     0
287
     3
288
     0
  0
ENDTAB
  0
TABLE
  2
BLOCK_RECORD
  5
1
330
0
100
AcDbSymbolTable
 70
     1
  0
BLOCK_RECORD
  5
1F
330
1
100
AcDbSymbolTableRecord
100
AcDbBlockTableRecord
  2
*MODEL_SPACE
  0
BLOCK_RECORD
  5
1B
330
1
100
AcDbSymbolTableRecord
100
AcDbBlockTableRecord
  2
*PAPER_SPACE
  0
ENDTAB
  0
ENDSEC
  0
SECTION
  2
BLOCKS
  0
BLOCK
  5
20
330
1F
100
AcDbEntity
  8
0
100
AcDbBlockBegin
  2
*MODEL_SPACE
 70
     0
 10
0.0
 20
0.0
 30
0.0
  3
*MODEL_SPACE
  1

  0
ENDBLK
  5
21
330
1F
100
AcDbEntity
  8
0
100
AcDbBlockEnd
  0
BLOCK
  5
1C
330
1B
100
AcDbEntity
 67
     1
  8
0
100
AcDbBlockBegin
  2
*PAPER_SPACE
 70
     0
 10
0.0
 20
0.0
 30
0.0
  3
*PAPER_SPACE
  1

  0
ENDBLK
  5
1D
330
1B
100
AcDbEntity
 67
     1
  8
0
100
AcDbBlockEnd
  0
ENDSEC
  0
SECTION
  2
ENTITIES
  0
SPLINE
  5
41
330
1F
100
AcDbEntity
  8
ILUSTRACE
 62
   250
100
AcDbSpline
210
0.0
220
0.0
230
1.0
 70
    24
 71
     3
 72
     8
 73
     4
 74
     0
 42
0.0000000001
 43
0.0000000001
 40
0.0
 40
0.0
 40
0.0
 40
0.0
 40
1.0
 40
1.0
 40
1.0
 40
1.0
 10
-19.0586
 20
19.1504
 30
0.0
 10
-19.0586
 20
19.1504
 30
0.0
 10
-19.0586
 20
8.5975
 30
0.0
 10
-19.0586
 20
8.5975
 30
0.0
  0
SPLINE
  5
42
330
1F
100
AcDbEntity
  8
ILUSTRACE
 62
   250
100
AcDbSpline
210
0.0
220
0.0
230
1.0
 70
    24
 71
     3
 72
     8
 73
     4
 74
     0
 42
0.0000000001
 43
0.0000000001
 40
0.0
 40
0.0
 40
0.0
 40
0.0
 40
1.0
 40
1.0
 40
1.0
 40
1.0
 10
29.4892
 20
19.0765
 30
0.0
 10
29.4892
 20
19.0765
 30
0.0
 10
29.4892
 20
8.9134
 30
0.0
 10
29.4892
 20
8.9134
 30
0.0
  0
SPLINE
  5
43
330
1F
100
AcDbEntity
  8
ILUSTRACE
 62
   250
100
AcDbSpline
210
0.0
220
0.0
230
1.0
 70
    11
 71
     3
 72
    20
 73
    16
 74
     0
 42
0.0000000001
 43
0.0000000001
 40
0.0
 40
0.0
 40
0.0
 40
0.0
 40
0.2
 40
0.2
 40
0.2
 40
0.2
 40
0.4
 40
0.4
 40
0.4
 40
0.4
 40
0.6
 40
0.6
 40
0.6
 40
0.6
 40
1.0
 40
1.0
 40
1.0
 40
1.0
 10
27.0134
 20
18.7718
 30
0.0
 10
27.0134
 20
18.7718
 30
0.0
 10
29.3608
 20
18.4405
 30
0.0
 10
29.3608
 20
18.4405
 30
0.0
 10
29.3608
 20
18.4405
 30
0.0
 10
29.3608
 20
18.4405
 30
0.0
 10
29.3608
 20
18.3669
 30
0.0
 10
29.3608
 20
18.3669
 30
0.0
 10
29.3608
 20
18.3669
 30
0.0
 10
29.3608
 20
18.3669
 30
0.0
 10
27.0134
 20
18.0136
 30
0.0
 10
27.0134
 20
18.0136
 30
0.0
 10
27.0134
 20
18.0136
 30
0.0
 10
27.0134
 20
18.0136
 30
0.0
 10
27.0134
 20
18.7718
 30
0.0
 10
27.0134
 20
18.7718
 30
0.0
  0
SPLINE
  5
44
330
1F
100
AcDbEntity
  8
ILUSTRACE
 62
   250
100
AcDbSpline
210
0.0
220
0.0
230
1.0
 70
    11
 71
     3
 72
    20
 73
    16
 74
     0
 42
0.0000000001
 43
0.0000000001
 40
0.0
 40
0.0
 40
0.0
 40
0.0
 40
0.2
 40
0.2
 40
0.2
 40
0.2
 40
0.4
 40
0.4
 40
0.4
 40
0.4
 40
0.6
 40
0.6
 40
0.6
 40
0.6
 40
1.0
 40
1.0
 40
1.0
 40
1.0
 10
-16.6217
 20
18.0475
 30
0.0
 10
-16.6217
 20
18.0475
 30
0.0
 10
-18.9692
 20
18.3788
 30
0.0
 10
-18.9692
 20
18.3788
 30
0.0
 10
-18.9692
 20
18.3788
 30
0.0
 10
-18.9692
 20
18.3788
 30
0.0
 10
-18.9692
 20
18.4524
 30
0.0
 10
-18.9692
 20
18.4524
 30
0.0
 10
-18.9692
 20
18.4524
 30
0.0
 10
-18.9692
 20
18.4524
 30
0.0
 10
-16.6217
 20
18.8057
 30
0.0
 10
-16.6217
 20
18.8057
 30
0.0
 10
-16.6217
 20
18.8057
 30
0.0
 10
-16.6217
 20
18.8057
 30
0.0
 10
-16.6217
 20
18.0475
 30
0.0
 10
-16.6217
 20
18.0475
 30
0.0
  0
SPLINE
  5
45
330
1F
100
AcDbEntity
  8
ILUSTRACE
 62
   250
100
AcDbSpline
210
0.0
220
0.0
230
1.0
 70
    24
 71
     3
 72
     8
 73
     4
 74
     0
 42
0.0000000001
 43
0.0000000001
 40
0.0
 40
0.0
 40
0.0
 40
0.0
 40
1.0
 40
1.0
 40
1.0
 40
1.0
 10
28.8332
 20
18.4154
 30
0.0
 10
28.8332
 20
18.4154
 30
0.0
 10
-18.7536
 20
18.4154
 30
0.0
 10
-18.7536
 20
18.4154
 30
0.0
  0
SPLINE
  5
46
330
1F
100
AcDbEntity
  8
ILUSTRACE
 62
   250
100
AcDbSpline
210
0.0
220
0.0
230
1.0
 70
    24
 71
     3
 72
     8
 73
     4
 74
     0
 42
0.0000000001
 43
0.0000000001
 40
0.0
 40
0.0
 40
0.0
 40
0.0
 40
1.0
 40
1.0
 40
1.0
 40
1.0
 10
-14.5282
 20
-16.2261
 30
0.0
 10
-14.5282
 20
-16.2261
 30
0.0
 10
-28.208
 20
-16.2261
 30
0.0
 10
-28.208
 20
-16.2261
 30
0.0
  0
SPLINE
  5
47
330
1F
100
AcDbEntity
  8
ILUSTRACE
 62
   250
100
AcDbSpline
210
0.0
220
0.0
230
1.0
 70
    24
 71
     3
 72
     8
 73
     4
 74
     0
 42
0.0000000001
 43
0.0000000001
 40
0.0
 40
0.0
 40
0.0
 40
0.0
 40
1.0
 40
1.0
 40
1.0
 40
1.0
 10
-19.6498
 20
8.131
 30
0.0
 10
-19.6498
 20
8.131
 30
0.0
 10
-28.1667
 20
8.131
 30
0.0
 10
-28.1667
 20
8.131
 30
0.0
  0
SPLINE
  5
48
330
1F
100
AcDbEntity
  8
ILUSTRACE
 62
   250
100
AcDbSpline
210
0.0
220
0.0
230
1.0
 70
    24
 71
     3
 72
     8
 73
     4
 74
     0
 42
0.0000000001
 43
0.0000000001
 40
0.0
 40
0.0
 40
0.0
 40
0.0
 40
1.0
 40
1.0
 40
1.0
 40
1.0
 10
-27.6665
 20
7.7089
 30
0.0
 10
-27.6665
 20
7.7089
 30
0.0
 10
-27.6665
 20
-15.3622
 30
0.0
 10
-27.6665
 20
-15.3622
 30
0.0
  0
SPLINE
  5
49
330
1F
100
AcDbEntity
  8
ILUSTRACE
 62
   250
100
AcDbSpline
210
0.0
220
0.0
230
1.0
 70
    11
 71
     3
 72
    20
 73
    16
 74
     0
 42
0.0000000001
 43
0.0000000001
 40
0.0
 40
0.0
 40
0.0
 40
0.0
 40
0.2
 40
0.2
 40
0.2
 40
0.2
 40
0.4
 40
0.4
 40
0.4
 40
0.4
 40
0.6
 40
0.6
 40
0.6
 40
0.6
 40
1.0
 40
1.0
 40
1.0
 40
1.0
 10
-28.0004
 20
5.7152
 30
0.0
 10
-28.0004
 20
5.7152
 30
0.0
 10
-27.6691
 20
8.0626
 30
0.0
 10
-27.6691
 20
8.0626
 30
0.0
 10
-27.6691
 20
8.0626
 30
0.0
 10
-27.6691
 20
8.0626
 30
0.0
 10
-27.5955
 20
8.0626
 30
0.0
 10
-27.5955
 20
8.0626
 30
0.0
 10
-27.5955
 20
8.0626
 30
0.0
 10
-27.5955
 20
8.0626
 30
0.0
 10
-27.2422
 20
5.7152
 30
0.0
 10
-27.2422
 20
5.7152
 30
0.0
 10
-27.2422
 20
5.7152
 30
0.0
 10
-27.2422
 20
5.7152
 30
0.0
 10
-28.0004
 20
5.7152
 30
0.0
 10
-28.0004
 20
5.7152
 30
0.0
  0
SPLINE
  5
4A
330
1F
100
AcDbEntity
  8
ILUSTRACE
 62
   250
100
AcDbSpline
210
0.0
220
0.0
230
1.0
 70
    11
 71
     3
 72
    20
 73
    16
 74
     0
 42
0.0000000001
 43
0.0000000001
 40
0.0
 40
0.0
 40
0.0
 40
0.0
 40
0.2
 40
0.2
 40
0.2
 40
0.2
 40
0.4
 40
0.4
 40
0.4
 40
0.4
 40
0.6
 40
0.6
 40
0.6
 40
0.6
 40
1.0
 40
1.0
 40
1.0
 40
1.0
 10
-27.3078
 20
-13.767
 30
0.0
 10
-27.3078
 20
-13.767
 30
0.0
 10
-27.6391
 20
-16.1144
 30
0.0
 10
-27.6391
 20
-16.1144
 30
0.0
 10
-27.6391
 20
-16.1144
 30
0.0
 10
-27.6391
 20
-16.1144
 30
0.0
 10
-27.7127
 20
-16.1144
 30
0.0
 10
-27.7127
 20
-16.1144
 30
0.0
 10
-27.7127
 20
-16.1144
 30
0.0
 10
-27.7127
 20
-16.1144
 30
0.0
 10
-28.066
 20
-13.767
 30
0.0
 10
-28.066
 20
-13.767
 30
0.0
 10
-28.066
 20
-13.767
 30
0.0
 10
-28.066
 20
-13.767
 30
0.0
 10
-27.3078
 20
-13.767
 30
0.0
 10
-27.3078
 20
-13.767
 30
0.0
  0
SPLINE
  5
4B
330
1F
100
AcDbEntity
  8
ILUSTRACE
 62
   250
100
AcDbSpline
210
0.0
220
0.0
230
1.0
 70
    11
 71
     3
 72
    48
 73
    44
 74
     0
 42
0.0000000001
 43
0.0000000001
 40
0.0
 40
0.0
 40
0.0
 40
0.0
 40
0.0833333333333333
 40
0.0833333333333333
 40
0.0833333333333333
 40
0.0833333333333333
 40
0.1666666666666667
 40
0.1666666666666667
 40
0.1666666666666667
 40
0.1666666666666667
 40
0.25
 40
0.25
 40
0.25
 40
0.25
 40
0.3333333333333333
 40
0.3333333333333333
 40
0.3333333333333333
 40
0.3333333333333333
 40
0.4166666666666667
 40
0.4166666666666667
 40
0.4166666666666667
 40
0.4166666666666667
 40
0.5
 40
0.5
 40
0.5
 40
0.5
 40
0.5833333333333334
 40
0.5833333333333334
 40
0.5833333333333334
 40
0.5833333333333334
 40
0.6666666666666666
 40
0.6666666666666666
 40
0.6666666666666666
 40
0.6666666666666666
 40
0.75
 40
0.75
 40
0.75
 40
0.75
 40
0.8333333333333334
 40
0.8333333333333334
 40
0.8333333333333334
 40
0.8333333333333334
 40
1.0
 40
1.0
 40
1.0
 40
1.0
 10
-27.9926
 20
-4.7679
 30
0.0
 10
-27.9926
 20
-4.7679
 30
0.0
 10
-28.4761
 20
-4.7679
 30
0.0
 10
-28.4761
 20
-4.7679
 30
0.0
 10
-28.4761
 20
-4.7679
 30
0.0
 10
-28.4761
 20
-4.7679
 30
0.0
 10
-28.4761
 20
-5.6442
 30
0.0
 10
-28.4761
 20
-5.6442
 30
0.0
 10
-28.4761
 20
-5.6442
 30
0.0
 10
-28.4761
 20
-5.6442
 30
0.0
 10
-28.7038
 20
-5.6442
 30
0.0
 10
-28.7038
 20
-5.6442
 30
0.0
 10
-28.7038
 20
-5.6442
 30
0.0
 10
-28.7038
 20
-5.6442
 30
0.0
 10
-30.0128
 20
-4.7222
 30
0.0
 10
-30.0128
 20
-4.7222
 30
0.0
 10
-30.0128
 20
-4.7222
 30
0.0
 10
-30.0128
 20
-4.7222
 30
0.0
 10
-30.0128
 20
-4.5195
 30
0.0
 10
-30.0128
 20
-4.5195
 30
0.0
 10
-30.0128
 20
-4.5195
 30
0.0
 10
-30.0128
 20
-4.5195
 30
0.0
 10
-28.7038
 20
-4.5195
 30
0.0
 10
-28.7038
 20
-4.5195
 30
0.0
 10
-28.7038
 20
-4.5195
 30
0.0
 10
-28.7038
 20
-4.5195
 30
0.0
 10
-28.7038
 20
-4.2467
 30
0.0
 10
-28.7038
 20
-4.2467
 30
0.0
 10
-28.7038
 20
-4.2467
 30
0.0
 10
-28.7038
 20
-4.2467
 30
0.0
 10
-28.4761
 20
-4.2467
 30
0.0
 10
-28.4761
 20
-4.2467
 30
0.0
 10
-28.4761
 20
-4.2467
 30
0.0
 10
-28.4761
 20
-4.2467
 30
0.0
 10
-28.4761
 20
-4.5195
 30
0.0
 10
-28.4761
 20
-4.5195
 30
0.0
 10
-28.4761
 20
-4.5195
 30
0.0
 10
-28.4761
 20
-4.5195
 30
0.0
 10
-27.9926
 20
-4.5195
 30
0.0
 10
-27.9926
 20
-4.5195
 30
0.0
 10
-27.9926
 20
-4.5195
 30
0.0
 10
-27.9926
 20
-4.5195
 30
0.0
 10
-27.9926
 20
-4.7679
 30
0.0
 10
-27.9926
 20
-4.7679
 30
0.0
  0
SPLINE
  5
4C
330
1F
100
AcDbEntity
  8
ILUSTRACE
 62
   250
100
AcDbSpline
210
0.0
220
0.0
230
1.0
 70
    11
 71
     3
 72
    16
 73
    12
 74
     0
 42
0.0000000001
 43
0.0000000001
 40
0.0
 40
0.0
 40
0.0
 40
0.0
 40
0.25
 40
0.25
 40
0.25
 40
0.25
 40
0.5
 40
0.5
 40
0.5
 40
0.5
 40
1.0
 40
1.0
 40
1.0
 40
1.0
 10
-28.7038
 20
-4.7679
 30
0.0
 10
-28.7038
 20
-4.7679
 30
0.0
 10
-29.6144
 20
-4.7679
 30
0.0
 10
-29.6144
 20
-4.7679
 30
0.0
 10
-29.6144
 20
-4.7679
 30
0.0
 10
-29.6144
 20
-4.7679
 30
0.0
 10
-28.7038
 20
-5.4
 30
0.0
 10
-28.7038
 20
-5.4
 30
0.0
 10
-28.7038
 20
-5.4
 30
0.0
 10
-28.7038
 20
-5.4
 30
0.0
 10
-28.7038
 20
-4.7679
 30
0.0
 10
-28.7038
 20
-4.7679
 30
0.0
  0
SPLINE
  5
4D
330
1F
100
AcDbEntity
  8
ILUSTRACE
 62
   250
100
AcDbSpline
210
0.0
220
0.0
230
1.0
 70
    11
 71
     3
 72
    92
 73
    88
 74
     0
 42
0.0000000001
 43
0.0000000001
 40
0.0
 40
0.0
 40
0.0
 40
0.0
 40
0.0434782608695652
 40
0.0434782608695652
 40
0.0434782608695652
 40
0.0434782608695652
 40
0.0869565217391304
 40
0.0869565217391304
 40
0.0869565217391304
 40
0.0869565217391304
 40
0.1304347826086956
 40
0.1304347826086956
 40
0.1304347826086956
 40
0.1304347826086956
 40
0.1739130434782609
 40
0.1739130434782609
 40
0.1739130434782609
 40
0.1739130434782609
 40
0.2173913043478261
 40
0.2173913043478261
 40
0.2173913043478261
 40
0.2173913043478261
 40
0.2608695652173913
 40
0.2608695652173913
 40
0.2608695652173913
 40
0.2608695652173913
 40
0.3043478260869565
 40
0.3043478260869565
 40
0.3043478260869565
 40
0.3043478260869565
 40
0.3478260869565217
 40
0.3478260869565217
 40
0.3478260869565217
 40
0.3478260869565217
 40
0.391304347826087
 40
0.391304347826087
 40
0.391304347826087
 40
0.391304347826087
 40
0.4347826086956522
 40
0.4347826086956522
 40
0.4347826086956522
 40
0.4347826086956522
 40
0.4782608695652174
 40
0.4782608695652174
 40
0.4782608695652174
 40
0.4782608695652174
 40
0.5217391304347826
 40
0.5217391304347826
 40
0.5217391304347826
 40
0.5217391304347826
 40
0.5652173913043478
 40
0.5652173913043478
 40
0.5652173913043478
 40
0.5652173913043478
 40
0.6086956521739131
 40
0.6086956521739131
 40
0.6086956521739131
 40
0.6086956521739131
 40
0.6521739130434783
 40
0.6521739130434783
 40
0.6521739130434783
 40
0.6521739130434783
 40
0.6956521739130435
 40
0.6956521739130435
 40
0.6956521739130435
 40
0.6956521739130435
 40
0.7391304347826086
 40
0.7391304347826086
 40
0.7391304347826086
 40
0.7391304347826086
 40
0.782608695652174
 40
0.782608695652174
 40
0.782608695652174
 40
0.782608695652174
 40
0.8260869565217391
 40
0.8260869565217391
 40
0.8260869565217391
 40
0.8260869565217391
 40
0.8695652173913043
 40
0.8695652173913043
 40
0.8695652173913043
 40
0.8695652173913043
 40
0.9130434782608695
 40
0.9130434782608695
 40
0.9130434782608695
 40
0.9130434782608695
 40
1.0
 40
1.0
 40
1.0
 40
1.0
 10
-28.4597
 20
-3.956
 30
0.0
 10
-28.4597
 20
-3.956
 30
0.0
 10
-28.4818
 20
-3.7175
 30
0.0
 10
-28.4818
 20
-3.7175
 30
0.0
 10
-28.4818
 20
-3.7175
 30
0.0
 10
-28.3698
 20
-3.6973
 30
0.0
 10
-28.2885
 20
-3.6587
 30
0.0
 10
-28.2377
 20
-3.6018
 30
0.0
 10
-28.2377
 20
-3.6018
 30
0.0
 10
-28.1873
 20
-3.5449
 30
0.0
 10
-28.1619
 20
-3.472
 30
0.0
 10
-28.1619
 20
-3.3826
 30
0.0
 10
-28.1619
 20
-3.3826
 30
0.0
 10
-28.1619
 20
-3.3064
 30
0.0
 10
-28.1793
 20
-3.2397
 30
0.0
 10
-28.2146
 20
-3.1823
 30
0.0
 10
-28.2146
 20
-3.1823
 30
0.0
 10
-28.2494
 20
-3.1249
 30
0.0
 10
-28.296
 20
-3.0778
 30
0.0
 10
-28.3543
 20
-3.0412
 30
0.0
 10
-28.3543
 20
-3.0412
 30
0.0
 10
-28.4126
 20
-3.004
 30
0.0
 10
-28.4917
 20
-2.9734
 30
0.0
 10
-28.5904
 20
-2.9485
 30
0.0
 10
-28.5904
 20
-2.9485
 30
0.0
 10
-28.6897
 20
-2.924
 30
0.0
 10
-28.7908
 20
-2.9113
 30
0.0
 10
-28.8938
 20
-2.9113
 30
0.0
 10
-28.8938
 20
-2.9113
 30
0.0
 10
-28.9046
 20
-2.9113
 30
0.0
 10
-28.9216
 20
-2.9118
 30
0.0
 10
-28.9432
 20
-2.9127
 30
0.0
 10
-28.9432
 20
-2.9127
 30
0.0
 10
-28.8647
 20
-2.9626
 30
0.0
 10
-28.8002
 20
-3.0303
 30
0.0
 10
-28.7513
 20
-3.1159
 30
0.0
 10
-28.7513
 20
-3.1159
 30
0.0
 10
-28.7019
 20
-3.202
 30
0.0
 10
-28.6775
 20
-3.2952
 30
0.0
 10
-28.6775
 20
-3.3949
 30
0.0
 10
-28.6775
 20
-3.3949
 30
0.0
 10
-28.6775
 20
-3.5623
 30
0.0
 10
-28.7381
 20
-3.7039
 30
0.0
 10
-28.8595
 20
-3.8196
 30
0.0
 10
-28.8595
 20
-3.8196
 30
0.0
 10
-28.9808
 20
-3.9353
 30
0.0
 10
-29.1403
 20
-3.9932
 30
0.0
 10
-29.3388
 20
-3.9932
 30
0.0
 10
-29.3388
 20
-3.9932
 30
0.0
 10
-29.5439
 20
-3.9932
 30
0.0
 10
-29.7085
 20
-3.933
 30
0.0
 10
-29.8336
 20
-3.8121
 30
0.0
 10
-29.8336
 20
-3.8121
 30
0.0
 10
-29.9587
 20
-3.6912
 30
0.0
 10
-30.0213
 20
-3.5397
 30
0.0
 10
-30.0213
 20
-3.3577
 30
0.0
 10
-30.0213
 20
-3.3577
 30
0.0
 10
-30.0213
 20
-3.2265
 30
0.0
 10
-29.9855
 20
-3.1065
 30
0.0
 10
-29.915
 20
-2.9974
 30
0.0
 10
-29.915
 20
-2.9974
 30
0.0
 10
-29.8444
 20
-2.8888
 30
0.0
 10
-29.7433
 20
-2.806
 30
0.0
 10
-29.6125
 20
-2.7495
 30
0.0
 10
-29.6125
 20
-2.7495
 30
0.0
 10
-29.4818
 20
-2.6931
 30
0.0
 10
-29.2922
 20
-2.6649
 30
0.0
 10
-29.0439
 20
-2.6649
 30
0.0
 10
-29.0439
 20
-2.6649
 30
0.0
 10
-28.7861
 20
-2.6649
 30
0.0
 10
-28.5806
 20
-2.6926
 30
0.0
 10
-28.4272
 20
-2.7486
 30
0.0
 10
-28.4272
 20
-2.7486
 30
0.0
 10
-28.2743
 20
-2.805
 30
0.0
 10
-28.1582
 20
-2.8883
 30
0.0
 10
-28.0782
 20
-2.9988
 30
0.0
 10
-28.0782
 20
-2.9988
 30
0.0
 10
-27.9982
 20
-3.1098
 30
0.0
 10
-27.9583
 20
-3.2392
 30
0.0
 10
-27.9583
 20
-3.3883
 30
0.0
 10
-27.9583
 20
-3.3883
 30
0.0
 10
-27.9583
 20
-3.5463
 30
0.0
 10
-28.002
 20
-3.6752
 30
0.0
 10
-28.09
 20
-3.7754
 30
0.0
 10
-28.09
 20
-3.7754
 30
0.0
 10
-28.1775
 20
-3.8756
 30
0.0
 10
-28.3007
 20
-3.9358
 30
0.0
 10
-28.4597
 20
-3.956
 30
0.0
  0
SPLINE
  5
4E
330
1F
100
AcDbEntity
  8
ILUSTRACE
 62
   250
100
AcDbSpline
210
0.0
220
0.0
230
1.0
 70
    11
 71
     3
 72
    36
 73
    32
 74
     0
 42
0.0000000001
 43
0.0000000001
 40
0.0
 40
0.0
 40
0.0
 40
0.0
 40
0.1111111111111111
 40
0.1111111111111111
 40
0.1111111111111111
 40
0.1111111111111111
 40
0.2222222222222222
 40
0.2222222222222222
 40
0.2222222222222222
 40
0.2222222222222222
 40
0.3333333333333333
 40
0.3333333333333333
 40
0.3333333333333333
 40
0.3333333333333333
 40
0.4444444444444444
 40
0.4444444444444444
 40
0.4444444444444444
 40
0.4444444444444444
 40
0.5555555555555556
 40
0.5555555555555556
 40
0.5555555555555556
 40
0.5555555555555556
 40
0.6666666666666666
 40
0.6666666666666666
 40
0.6666666666666666
 40
0.6666666666666666
 40
0.7777777777777778
 40
0.7777777777777778
 40
0.7777777777777778
 40
0.7777777777777778
 40
1.0
 40
1.0
 40
1.0
 40
1.0
 10
-29.3515
 20
-2.9405
 30
0.0
 10
-29.4935
 20
-2.9405
 30
0.0
 10
-29.6069
 20
-2.9781
 30
0.0
 10
-29.6902
 20
-3.0539
 30
0.0
 10
-29.6902
 20
-3.0539
 30
0.0
 10
-29.7739
 20
-3.1301
 30
0.0
 10
-29.8157
 20
-3.2208
 30
0.0
 10
-29.8157
 20
-3.3276
 30
0.0
 10
-29.8157
 20
-3.3276
 30
0.0
 10
-29.8157
 20
-3.4377
 30
0.0
 10
-29.7706
 20
-3.5336
 30
0.0
 10
-29.6807
 20
-3.6155
 30
0.0
 10
-29.6807
 20
-3.6155
 30
0.0
 10
-29.5904
 20
-3.6973
 30
0.0
 10
-29.4738
 20
-3.7382
 30
0.0
 10
-29.3308
 20
-3.7382
 30
0.0
 10
-29.3308
 20
-3.7382
 30
0.0
 10
-29.2019
 20
-3.7382
 30
0.0
 10
-29.0975
 20
-3.6992
 30
0.0
 10
-29.0171
 20
-3.6216
 30
0.0
 10
-29.0171
 20
-3.6216
 30
0.0
 10
-28.9366
 20
-3.544
 30
0.0
 10
-28.8966
 20
-3.4485
 30
0.0
 10
-28.8966
 20
-3.3347
 30
0.0
 10
-28.8966
 20
-3.3347
 30
0.0
 10
-28.8966
 20
-3.2194
 30
0.0
 10
-28.9366
 20
-3.1254
 30
0.0
 10
-29.0171
 20
-3.0515
 30
0.0
 10
-29.0171
 20
-3.0515
 30
0.0
 10
-29.0975
 20
-2.9772
 30
0.0
 10
-29.209
 20
-2.9405
 30
0.0
 10
-29.3515
 20
-2.9405
 30
0.0
  0
SPLINE
  5
4F
330
1F
100
AcDbEntity
  8
ILUSTRACE
 62
   250
100
AcDbSpline
210
0.0
220
0.0
230
1.0
 70
    11
 71
     3
 72
    84
 73
    80
 74
     0
 42
0.0000000001
 43
0.0000000001
 40
0.0
 40
0.0
 40
0.0
 40
0.0
 40
0.0476190476190476
 40
0.0476190476190476
 40
0.0476190476190476
 40
0.0476190476190476
 40
0.0952380952380952
 40
0.0952380952380952
 40
0.0952380952380952
 40
0.0952380952380952
 40
0.1428571428571428
 40
0.1428571428571428
 40
0.1428571428571428
 40
0.1428571428571428
 40
0.1904761904761905
 40
0.1904761904761905
 40
0.1904761904761905
 40
0.1904761904761905
 40
0.2380952380952381
 40
0.2380952380952381
 40
0.2380952380952381
 40
0.2380952380952381
 40
0.2857142857142857
 40
0.2857142857142857
 40
0.2857142857142857
 40
0.2857142857142857
 40
0.3333333333333333
 40
0.3333333333333333
 40
0.3333333333333333
 40
0.3333333333333333
 40
0.3809523809523809
 40
0.3809523809523809
 40
0.3809523809523809
 40
0.3809523809523809
 40
0.4285714285714285
 40
0.4285714285714285
 40
0.4285714285714285
 40
0.4285714285714285
 40
0.4761904761904762
 40
0.4761904761904762
 40
0.4761904761904762
 40
0.4761904761904762
 40
0.5238095238095238
 40
0.5238095238095238
 40
0.5238095238095238
 40
0.5238095238095238
 40
0.5714285714285714
 40
0.5714285714285714
 40
0.5714285714285714
 40
0.5714285714285714
 40
0.6190476190476191
 40
0.6190476190476191
 40
0.6190476190476191
 40
0.6190476190476191
 40
0.6666666666666666
 40
0.6666666666666666
 40
0.6666666666666666
 40
0.6666666666666666
 40
0.7142857142857143
 40
0.7142857142857143
 40
0.7142857142857143
 40
0.7142857142857143
 40
0.7619047619047619
 40
0.7619047619047619
 40
0.7619047619047619
 40
0.7619047619047619
 40
0.8095238095238095
 40
0.8095238095238095
 40
0.8095238095238095
 40
0.8095238095238095
 40
0.8571428571428571
 40
0.8571428571428571
 40
0.8571428571428571
 40
0.8571428571428571
 40
0.9047619047619048
 40
0.9047619047619048
 40
0.9047619047619048
 40
0.9047619047619048
 40
1.0
 40
1.0
 40
1.0
 40
1.0
 10
4.2438
 20
20.8457
 30
0.0
 10
4.2438
 20
20.8457
 30
0.0
 10
4.4752
 20
21.1048
 30
0.0
 10
4.4752
 20
21.1048
 30
0.0
 10
4.4752
 20
21.1048
 30
0.0
 10
4.4752
 20
21.1048
 30
0.0
 10
4.6116
 20
20.9891
 30
0.0
 10
4.6116
 20
20.9891
 30
0.0
 10
4.6116
 20
20.9891
 30
0.0
 10
4.6116
 20
20.9891
 30
0.0
 10
4.3694
 20
20.7163
 30
0.0
 10
4.3694
 20
20.7163
 30
0.0
 10
4.3694
 20
20.7163
 30
0.0
 10
4.4484
 20
20.5987
 30
0.0
 10
4.5015
 20
20.4957
 30
0.0
 10
4.5293
 20
20.4078
 30
0.0
 10
4.5293
 20
20.4078
 30
0.0
 10
4.566
 20
20.292
 30
0.0
 10
4.5843
 20
20.1622
 30
0.0
 10
4.5843
 20
20.0192
 30
0.0
 10
4.5843
 20
20.0192
 30
0.0
 10
4.5843
 20
19.8123
 30
0.0
 10
4.5425
 20
19.6279
 30
0.0
 10
4.4587
 20
19.4666
 30
0.0
 10
4.4587
 20
19.4666
 30
0.0
 10
4.375
 20
19.3047
 30
0.0
 10
4.2579
 20
19.1825
 30
0.0
 10
4.1069
 20
19.0997
 30
0.0
 10
4.1069
 20
19.0997
 30
0.0
 10
3.9554
 20
19.0174
 30
0.0
 10
3.7951
 20
18.976
 30
0.0
 10
3.6253
 20
18.976
 30
0.0
 10
3.6253
 20
18.976
 30
0.0
 10
3.4983
 20
18.976
 30
0.0
 10
3.3835
 20
18.9938
 30
0.0
 10
3.2805
 20
19.0296
 30
0.0
 10
3.2805
 20
19.0296
 30
0.0
 10
3.2015
 20
19.0573
 30
0.0
 10
3.1093
 20
19.11
 30
0.0
 10
3.0034
 20
19.1881
 30
0.0
 10
3.0034
 20
19.1881
 30
0.0
 10
3.0034
 20
19.1881
 30
0.0
 10
2.772
 20
18.9289
 30
0.0
 10
2.772
 20
18.9289
 30
0.0
 10
2.772
 20
18.9289
 30
0.0
 10
2.772
 20
18.9289
 30
0.0
 10
2.6356
 20
19.0446
 30
0.0
 10
2.6356
 20
19.0446
 30
0.0
 10
2.6356
 20
19.0446
 30
0.0
 10
2.6356
 20
19.0446
 30
0.0
 10
2.8783
 20
19.316
 30
0.0
 10
2.8783
 20
19.316
 30
0.0
 10
2.8783
 20
19.316
 30
0.0
 10
2.788
 20
19.4529
 30
0.0
 10
2.7278
 20
19.57
 30
0.0
 10
2.6977
 20
19.6669
 30
0.0
 10
2.6977
 20
19.6669
 30
0.0
 10
2.6676
 20
19.7638
 30
0.0
 10
2.6521
 20
19.8805
 30
0.0
 10
2.6521
 20
20.0164
 30
0.0
 10
2.6521
 20
20.0164
 30
0.0
 10
2.6521
 20
20.2238
 30
0.0
 10
2.6935
 20
20.4087
 30
0.0
 10
2.7762
 20
20.571
 30
0.0
 10
2.7762
 20
20.571
 30
0.0
 10
2.859
 20
20.7333
 30
0.0
 10
2.9747
 20
20.856
 30
0.0
 10
3.1243
 20
20.9397
 30
0.0
 10
3.1243
 20
20.9397
 30
0.0
 10
3.2734
 20
21.023
 30
0.0
 10
3.4395
 20
21.0649
 30
0.0
 10
3.6224
 20
21.0649
 30
0.0
 10
3.6224
 20
21.0649
 30
0.0
 10
3.7457
 20
21.0649
 30
0.0
 10
3.8534
 20
21.0489
 30
0.0
 10
3.9456
 20
21.0159
 30
0.0
 10
3.9456
 20
21.0159
 30
0.0
 10
4.0378
 20
20.9835
 30
0.0
 10
4.1375
 20
20.9266
 30
0.0
 10
4.2438
 20
20.8457
 30
0.0
  0
SPLINE
  5
50
330
1F
100
AcDbEntity
  8
ILUSTRACE
 62
   250
100
AcDbSpline
210
0.0
220
0.0
230
1.0
 70
    11
 71
     3
 72
    32
 73
    28
 74
     0
 42
0.0000000001
 43
0.0000000001
 40
0.0
 40
0.0
 40
0.0
 40
0.0
 40
0.125
 40
0.125
 40
0.125
 40
0.125
 40
0.25
 40
0.25
 40
0.25
 40
0.25
 40
0.375
 40
0.375
 40
0.375
 40
0.375
 40
0.5
 40
0.5
 40
0.5
 40
0.5
 40
0.625
 40
0.625
 40
0.625
 40
0.625
 40
0.75
 40
0.75
 40
0.75
 40
0.75
 40
1.0
 40
1.0
 40
1.0
 40
1.0
 10
4.0787
 20
20.6599
 30
0.0
 10
3.9921
 20
20.7276
 30
0.0
 10
3.9164
 20
20.7742
 30
0.0
 10
3.852
 20
20.7991
 30
0.0
 10
3.852
 20
20.7991
 30
0.0
 10
3.7871
 20
20.8236
 30
0.0
 10
3.7109
 20
20.8363
 30
0.0
 10
3.6238
 20
20.8363
 30
0.0
 10
3.6238
 20
20.8363
 30
0.0
 10
3.4225
 20
20.8363
 30
0.0
 10
3.2565
 20
20.7681
 30
0.0
 10
3.1248
 20
20.6317
 30
0.0
 10
3.1248
 20
20.6317
 30
0.0
 10
2.9935
 20
20.4952
 30
0.0
 10
2.9277
 20
20.2916
 30
0.0
 10
2.9277
 20
20.0202
 30
0.0
 10
2.9277
 20
20.0202
 30
0.0
 10
2.9277
 20
19.9139
 30
0.0
 10
2.938
 20
19.8193
 30
0.0
 10
2.9583
 20
19.7365
 30
0.0
 10
2.9583
 20
19.7365
 30
0.0
 10
2.9729
 20
19.6749
 30
0.0
 10
3.0034
 20
19.5992
 30
0.0
 10
3.0505
 20
19.5094
 30
0.0
 10
3.0505
 20
19.5094
 30
0.0
 10
3.0505
 20
19.5094
 30
0.0
 10
4.0787
 20
20.6599
 30
0.0
 10
4.0787
 20
20.6599
 30
0.0
  0
SPLINE
  5
51
330
1F
100
AcDbEntity
  8
ILUSTRACE
 62
   250
100
AcDbSpline
210
0.0
220
0.0
230
1.0
 70
    11
 71
     3
 72
    28
 73
    24
 74
     0
 42
0.0000000001
 43
0.0000000001
 40
0.0
 40
0.0
 40
0.0
 40
0.0
 40
0.1428571428571428
 40
0.1428571428571428
 40
0.1428571428571428
 40
0.1428571428571428
 40
0.2857142857142857
 40
0.2857142857142857
 40
0.2857142857142857
 40
0.2857142857142857
 40
0.4285714285714285
 40
0.4285714285714285
 40
0.4285714285714285
 40
0.4285714285714285
 40
0.5714285714285714
 40
0.5714285714285714
 40
0.5714285714285714
 40
0.5714285714285714
 40
0.7142857142857143
 40
0.7142857142857143
 40
0.7142857142857143
 40
0.7142857142857143
 40
1.0
 40
1.0
 40
1.0
 40
1.0
 10
4.1916
 20
20.5178
 30
0.0
 10
4.1916
 20
20.5178
 30
0.0
 10
3.1676
 20
19.3715
 30
0.0
 10
3.1676
 20
19.3715
 30
0.0
 10
3.1676
 20
19.3715
 30
0.0
 10
3.2381
 20
19.3137
 30
0.0
 10
3.3035
 20
19.2732
 30
0.0
 10
3.3633
 20
19.2502
 30
0.0
 10
3.3633
 20
19.2502
 30
0.0
 10
3.4413
 20
19.2196
 30
0.0
 10
3.526
 20
19.2046
 30
0.0
 10
3.6168
 20
19.2046
 30
0.0
 10
3.6168
 20
19.2046
 30
0.0
 10
3.8172
 20
19.2046
 30
0.0
 10
3.9823
 20
19.2751
 30
0.0
 10
4.113
 20
19.4167
 30
0.0
 10
4.113
 20
19.4167
 30
0.0
 10
4.2433
 20
19.5583
 30
0.0
 10
4.3087
 20
19.7568
 30
0.0
 10
4.3087
 20
20.0122
 30
0.0
 10
4.3087
 20
20.0122
 30
0.0
 10
4.3087
 20
20.2031
 30
0.0
 10
4.2697
 20
20.372
 30
0.0
 10
4.1916
 20
20.5178
 30
0.0
  0
SPLINE
  5
52
330
1F
100
AcDbEntity
  8
ILUSTRACE
 62
   250
100
AcDbSpline
210
0.0
220
0.0
230
1.0
 70
    11
 71
     3
 72
    92
 73
    88
 74
     0
 42
0.0000000001
 43
0.0000000001
 40
0.0
 40
0.0
 40
0.0
 40
0.0
 40
0.0434782608695652
 40
0.0434782608695652
 40
0.0434782608695652
 40
0.0434782608695652
 40
0.0869565217391304
 40
0.0869565217391304
 40
0.0869565217391304
 40
0.0869565217391304
 40
0.1304347826086956
 40
0.1304347826086956
 40
0.1304347826086956
 40
0.1304347826086956
 40
0.1739130434782609
 40
0.1739130434782609
 40
0.1739130434782609
 40
0.1739130434782609
 40
0.2173913043478261
 40
0.2173913043478261
 40
0.2173913043478261
 40
0.2173913043478261
 40
0.2608695652173913
 40
0.2608695652173913
 40
0.2608695652173913
 40
0.2608695652173913
 40
0.3043478260869565
 40
0.3043478260869565
 40
0.3043478260869565
 40
0.3043478260869565
 40
0.3478260869565217
 40
0.3478260869565217
 40
0.3478260869565217
 40
0.3478260869565217
 40
0.391304347826087
 40
0.391304347826087
 40
0.391304347826087
 40
0.391304347826087
 40
0.4347826086956522
 40
0.4347826086956522
 40
0.4347826086956522
 40
0.4347826086956522
 40
0.4782608695652174
 40
0.4782608695652174
 40
0.4782608695652174
 40
0.4782608695652174
 40
0.5217391304347826
 40
0.5217391304347826
 40
0.5217391304347826
 40
0.5217391304347826
 40
0.5652173913043478
 40
0.5652173913043478
 40
0.5652173913043478
 40
0.5652173913043478
 40
0.6086956521739131
 40
0.6086956521739131
 40
0.6086956521739131
 40
0.6086956521739131
 40
0.6521739130434783
 40
0.6521739130434783
 40
0.6521739130434783
 40
0.6521739130434783
 40
0.6956521739130435
 40
0.6956521739130435
 40
0.6956521739130435
 40
0.6956521739130435
 40
0.7391304347826086
 40
0.7391304347826086
 40
0.7391304347826086
 40
0.7391304347826086
 40
0.782608695652174
 40
0.782608695652174
 40
0.782608695652174
 40
0.782608695652174
 40
0.8260869565217391
 40
0.8260869565217391
 40
0.8260869565217391
 40
0.8260869565217391
 40
0.8695652173913043
 40
0.8695652173913043
 40
0.8695652173913043
 40
0.8695652173913043
 40
0.9130434782608695
 40
0.9130434782608695
 40
0.9130434782608695
 40
0.9130434782608695
 40
1.0
 40
1.0
 40
1.0
 40
1.0
 10
4.8708
 20
19.4774
 30
0.0
 10
4.8708
 20
19.4774
 30
0.0
 10
5.1093
 20
19.4995
 30
0.0
 10
5.1093
 20
19.4995
 30
0.0
 10
5.1093
 20
19.4995
 30
0.0
 10
5.1295
 20
19.3875
 30
0.0
 10
5.1681
 20
19.3062
 30
0.0
 10
5.225
 20
19.2554
 30
0.0
 10
5.225
 20
19.2554
 30
0.0
 10
5.2819
 20
19.205
 30
0.0
 10
5.3548
 20
19.1796
 30
0.0
 10
5.4442
 20
19.1796
 30
0.0
 10
5.4442
 20
19.1796
 30
0.0
 10
5.5204
 20
19.1796
 30
0.0
 10
5.5871
 20
19.197
 30
0.0
 10
5.6445
 20
19.2323
 30
0.0
 10
5.6445
 20
19.2323
 30
0.0
 10
5.7019
 20
19.2671
 30
0.0
 10
5.749
 20
19.3137
 30
0.0
 10
5.7856
 20
19.372
 30
0.0
 10
5.7856
 20
19.372
 30
0.0
 10
5.8228
 20
19.4303
 30
0.0
 10
5.8534
 20
19.5094
 30
0.0
 10
5.8783
 20
19.6081
 30
0.0
 10
5.8783
 20
19.6081
 30
0.0
 10
5.9028
 20
19.7074
 30
0.0
 10
5.9155
 20
19.8085
 30
0.0
 10
5.9155
 20
19.9115
 30
0.0
 10
5.9155
 20
19.9115
 30
0.0
 10
5.9155
 20
19.9223
 30
0.0
 10
5.915
 20
19.9393
 30
0.0
 10
5.9141
 20
19.9609
 30
0.0
 10
5.9141
 20
19.9609
 30
0.0
 10
5.8642
 20
19.8824
 30
0.0
 10
5.7965
 20
19.8179
 30
0.0
 10
5.7109
 20
19.769
 30
0.0
 10
5.7109
 20
19.769
 30
0.0
 10
5.6248
 20
19.7196
 30
0.0
 10
5.5316
 20
19.6952
 30
0.0
 10
5.4319
 20
19.6952
 30
0.0
 10
5.4319
 20
19.6952
 30
0.0
 10
5.2645
 20
19.6952
 30
0.0
 10
5.1229
 20
19.7558
 30
0.0
 10
5.0072
 20
19.8772
 30
0.0
 10
5.0072
 20
19.8772
 30
0.0
 10
4.8915
 20
19.9985
 30
0.0
 10
4.8336
 20
20.158
 30
0.0
 10
4.8336
 20
20.3565
 30
0.0
 10
4.8336
 20
20.3565
 30
0.0
 10
4.8336
 20
20.5616
 30
0.0
 10
4.8938
 20
20.7262
 30
0.0
 10
5.0147
 20
20.8513
 30
0.0
 10
5.0147
 20
20.8513
 30
0.0
 10
5.1356
 20
20.9764
 30
0.0
 10
5.2871
 20
21.039
 30
0.0
 10
5.4691
 20
21.039
 30
0.0
 10
5.4691
 20
21.039
 30
0.0
 10
5.6003
 20
21.039
 30
0.0
 10
5.7203
 20
21.0032
 30
0.0
 10
5.8294
 20
20.9327
 30
0.0
 10
5.8294
 20
20.9327
 30
0.0
 10
5.938
 20
20.8621
 30
0.0
 10
6.0208
 20
20.761
 30
0.0
 10
6.0773
 20
20.6302
 30
0.0
 10
6.0773
 20
20.6302
 30
0.0
 10
6.1337
 20
20.4995
 30
0.0
 10
6.1619
 20
20.3099
 30
0.0
 10
6.1619
 20
20.0616
 30
0.0
 10
6.1619
 20
20.0616
 30
0.0
 10
6.1619
 20
19.8038
 30
0.0
 10
6.1342
 20
19.5983
 30
0.0
 10
6.0782
 20
19.4449
 30
0.0
 10
6.0782
 20
19.4449
 30
0.0
 10
6.0218
 20
19.292
 30
0.0
 10
5.9385
 20
19.1759
 30
0.0
 10
5.828
 20
19.0959
 30
0.0
 10
5.828
 20
19.0959
 30
0.0
 10
5.717
 20
19.0159
 30
0.0
 10
5.5876
 20
18.976
 30
0.0
 10
5.4385
 20
18.976
 30
0.0
 10
5.4385
 20
18.976
 30
0.0
 10
5.2805
 20
18.976
 30
0.0
 10
5.1516
 20
19.0197
 30
0.0
 10
5.0514
 20
19.1077
 30
0.0
 10
5.0514
 20
19.1077
 30
0.0
 10
4.9512
 20
19.1952
 30
0.0
 10
4.891
 20
19.3184
 30
0.0
 10
4.8708
 20
19.4774
 30
0.0
  0
SPLINE
  5
53
330
1F
100
AcDbEntity
  8
ILUSTRACE
 62
   250
100
AcDbSpline
210
0.0
220
0.0
230
1.0
 70
    11
 71
     3
 72
    36
 73
    32
 74
     0
 42
0.0000000001
 43
0.0000000001
 40
0.0
 40
0.0
 40
0.0
 40
0.0
 40
0.1111111111111111
 40
0.1111111111111111
 40
0.1111111111111111
 40
0.1111111111111111
 40
0.2222222222222222
 40
0.2222222222222222
 40
0.2222222222222222
 40
0.2222222222222222
 40
0.3333333333333333
 40
0.3333333333333333
 40
0.3333333333333333
 40
0.3333333333333333
 40
0.4444444444444444
 40
0.4444444444444444
 40
0.4444444444444444
 40
0.4444444444444444
 40
0.5555555555555556
 40
0.5555555555555556
 40
0.5555555555555556
 40
0.5555555555555556
 40
0.6666666666666666
 40
0.6666666666666666
 40
0.6666666666666666
 40
0.6666666666666666
 40
0.7777777777777778
 40
0.7777777777777778
 40
0.7777777777777778
 40
0.7777777777777778
 40
1.0
 40
1.0
 40
1.0
 40
1.0
 10
5.8863
 20
20.3692
 30
0.0
 10
5.8863
 20
20.5112
 30
0.0
 10
5.8487
 20
20.6246
 30
0.0
 10
5.7729
 20
20.7079
 30
0.0
 10
5.7729
 20
20.7079
 30
0.0
 10
5.6967
 20
20.7916
 30
0.0
 10
5.606
 20
20.8334
 30
0.0
 10
5.4992
 20
20.8334
 30
0.0
 10
5.4992
 20
20.8334
 30
0.0
 10
5.3891
 20
20.8334
 30
0.0
 10
5.2932
 20
20.7883
 30
0.0
 10
5.2113
 20
20.6984
 30
0.0
 10
5.2113
 20
20.6984
 30
0.0
 10
5.1295
 20
20.6081
 30
0.0
 10
5.0886
 20
20.4915
 30
0.0
 10
5.0886
 20
20.3485
 30
0.0
 10
5.0886
 20
20.3485
 30
0.0
 10
5.0886
 20
20.2196
 30
0.0
 10
5.1276
 20
20.1152
 30
0.0
 10
5.2052
 20
20.0348
 30
0.0
 10
5.2052
 20
20.0348
 30
0.0
 10
5.2828
 20
19.9543
 30
0.0
 10
5.3783
 20
19.9143
 30
0.0
 10
5.4921
 20
19.9143
 30
0.0
 10
5.4921
 20
19.9143
 30
0.0
 10
5.6074
 20
19.9143
 30
0.0
 10
5.7014
 20
19.9543
 30
0.0
 10
5.7753
 20
20.0348
 30
0.0
 10
5.7753
 20
20.0348
 30
0.0
 10
5.8496
 20
20.1152
 30
0.0
 10
5.8863
 20
20.2267
 30
0.0
 10
5.8863
 20
20.3692
 30
0.0
  0
SPLINE
  5
54
330
1F
100
AcDbEntity
  8
ILUSTRACE
 62
   250
100
AcDbSpline
210
0.0
220
0.0
230
1.0
 70
    11
 71
     3
 72
    48
 73
    44
 74
     0
 42
0.0000000001
 43
0.0000000001
 40
0.0
 40
0.0
 40
0.0
 40
0.0
 40
0.0833333333333333
 40
0.0833333333333333
 40
0.0833333333333333
 40
0.0833333333333333
 40
0.1666666666666667
 40
0.1666666666666667
 40
0.1666666666666667
 40
0.1666666666666667
 40
0.25
 40
0.25
 40
0.25
 40
0.25
 40
0.3333333333333333
 40
0.3333333333333333
 40
0.3333333333333333
 40
0.3333333333333333
 40
0.4166666666666667
 40
0.4166666666666667
 40
0.4166666666666667
 40
0.4166666666666667
 40
0.5
 40
0.5
 40
0.5
 40
0.5
 40
0.5833333333333334
 40
0.5833333333333334
 40
0.5833333333333334
 40
0.5833333333333334
 40
0.6666666666666666
 40
0.6666666666666666
 40
0.6666666666666666
 40
0.6666666666666666
 40
0.75
 40
0.75
 40
0.75
 40
0.75
 40
0.8333333333333334
 40
0.8333333333333334
 40
0.8333333333333334
 40
0.8333333333333334
 40
1.0
 40
1.0
 40
1.0
 40
1.0
 10
6.4197
 20
20.7657
 30
0.0
 10
6.4197
 20
20.7657
 30
0.0
 10
6.4197
 20
21.0042
 30
0.0
 10
6.4197
 20
21.0042
 30
0.0
 10
6.4197
 20
21.0042
 30
0.0
 10
6.4197
 20
21.0042
 30
0.0
 10
7.7273
 20
21.0042
 30
0.0
 10
7.7273
 20
21.0042
 30
0.0
 10
7.7273
 20
21.0042
 30
0.0
 10
7.7273
 20
21.0042
 30
0.0
 10
7.7273
 20
20.8113
 30
0.0
 10
7.7273
 20
20.8113
 30
0.0
 10
7.7273
 20
20.8113
 30
0.0
 10
7.5989
 20
20.6745
 30
0.0
 10
7.4714
 20
20.4924
 30
0.0
 10
7.3449
 20
20.2657
 30
0.0
 10
7.3449
 20
20.2657
 30
0.0
 10
7.2188
 20
20.039
 30
0.0
 10
7.121
 20
19.8052
 30
0.0
 10
7.0523
 20
19.5658
 30
0.0
 10
7.0523
 20
19.5658
 30
0.0
 10
7.0025
 20
19.3965
 30
0.0
 10
6.971
 20
19.2116
 30
0.0
 10
6.9573
 20
19.0103
 30
0.0
 10
6.9573
 20
19.0103
 30
0.0
 10
6.9573
 20
19.0103
 30
0.0
 10
6.7024
 20
19.0103
 30
0.0
 10
6.7024
 20
19.0103
 30
0.0
 10
6.7024
 20
19.0103
 30
0.0
 10
6.7052
 20
19.1693
 30
0.0
 10
6.7362
 20
19.3612
 30
0.0
 10
6.796
 20
19.5865
 30
0.0
 10
6.796
 20
19.5865
 30
0.0
 10
6.8557
 20
19.8113
 30
0.0
 10
6.9413
 20
20.0286
 30
0.0
 10
7.0528
 20
20.2375
 30
0.0
 10
7.0528
 20
20.2375
 30
0.0
 10
7.1647
 20
20.4463
 30
0.0
 10
7.2833
 20
20.6227
 30
0.0
 10
7.4093
 20
20.7657
 30
0.0
 10
7.4093
 20
20.7657
 30
0.0
 10
7.4093
 20
20.7657
 30
0.0
 10
6.4197
 20
20.7657
 30
0.0
 10
6.4197
 20
20.7657
 30
0.0
  0
SPLINE
  5
55
330
1F
100
AcDbEntity
  8
ILUSTRACE
 62
   250
100
AcDbSpline
210
0.0
220
0.0
230
1.0
 70
    24
 71
     3
 72
     8
 73
     4
 74
     0
 42
0.0000000001
 43
0.0000000001
 40
0.0
 40
0.0
 40
0.0
 40
0.0
 40
1.0
 40
1.0
 40
1.0
 40
1.0
 10
-17.2219
 20
2.4834
 30
0.0
 10
-17.2219
 20
2.4834
 30
0.0
 10
-17.2219
 20
-31.1049
 30
0.0
 10
-17.2219
 20
-31.1049
 30
0.0
  0
SPLINE
  5
56
330
1F
100
AcDbEntity
  8
ILUSTRACE
  6
NEW_LINE1
 62
   250
100
AcDbSpline
210
0.0
220
0.0
230
1.0
 70
    24
 71
     3
 72
     8
 73
     4
 74
     0
 42
0.0000000001
 43
0.0000000001
 40
0.0
 40
0.0
 40
0.0
 40
0.0
 40
1.0
 40
1.0
 40
1.0
 40
1.0
 10
4.976
 20
10.7245
 30
0.0
 10
4.976
 20
10.7245
 30
0.0
 10
4.976
 20
-18.7189
 30
0.0
 10
4.976
 20
-18.7189
 30
0.0
  0
SPLINE
  5
58
330
1F
100
AcDbEntity
  8
ILUSTRACE
 62
   250
100
AcDbSpline
210
0.0
220
0.0
230
1.0
 70
    24
 71
     3
 72
     8
 73
     4
 74
     0
 42
0.0000000001
 43
0.0000000001
 40
0.0
 40
0.0
 40
0.0
 40
0.0
 40
1.0
 40
1.0
 40
1.0
 40
1.0
 10
27.7856
 20
2.7809
 30
0.0
 10
27.7856
 20
2.7809
 30
0.0
 10
27.7856
 20
-30.8402
 30
0.0
 10
27.7856
 20
-30.8402
 30
0.0
  0
SPLINE
  5
59
330
1F
100
AcDbEntity
  8
ILUSTRACE
 62
   250
100
AcDbSpline
210
0.0
220
0.0
230
1.0
 70
    11
 71
     3
 72
    20
 73
    16
 74
     0
 42
0.0000000001
 43
0.0000000001
 40
0.0
 40
0.0
 40
0.0
 40
0.0
 40
0.2
 40
0.2
 40
0.2
 40
0.2
 40
0.4
 40
0.4
 40
0.4
 40
0.4
 40
0.6
 40
0.6
 40
0.6
 40
0.6
 40
1.0
 40
1.0
 40
1.0
 40
1.0
 10
25.3762
 20
-30.0339
 30
0.0
 10
25.3762
 20
-30.0339
 30
0.0
 10
27.7236
 20
-30.3652
 30
0.0
 10
27.7236
 20
-30.3652
 30
0.0
 10
27.7236
 20
-30.3652
 30
0.0
 10
27.7236
 20
-30.3652
 30
0.0
 10
27.7236
 20
-30.4388
 30
0.0
 10
27.7236
 20
-30.4388
 30
0.0
 10
27.7236
 20
-30.4388
 30
0.0
 10
27.7236
 20
-30.4388
 30
0.0
 10
25.3762
 20
-30.7921
 30
0.0
 10
25.3762
 20
-30.7921
 30
0.0
 10
25.3762
 20
-30.7921
 30
0.0
 10
25.3762
 20
-30.7921
 30
0.0
 10
25.3762
 20
-30.0339
 30
0.0
 10
25.3762
 20
-30.0339
 30
0.0
  0
SPLINE
  5
5A
330
1F
100
AcDbEntity
  8
ILUSTRACE
 62
   250
100
AcDbSpline
210
0.0
220
0.0
230
1.0
 70
    11
 71
     3
 72
    20
 73
    16
 74
     0
 42
0.0000000001
 43
0.0000000001
 40
0.0
 40
0.0
 40
0.0
 40
0.0
 40
0.2
 40
0.2
 40
0.2
 40
0.2
 40
0.4
 40
0.4
 40
0.4
 40
0.4
 40
0.6
 40
0.6
 40
0.6
 40
0.6
 40
1.0
 40
1.0
 40
1.0
 40
1.0
 10
-14.7933
 20
-30.8026
 30
0.0
 10
-14.7933
 20
-30.8026
 30
0.0
 10
-17.1408
 20
-30.4713
 30
0.0
 10
-17.1408
 20
-30.4713
 30
0.0
 10
-17.1408
 20
-30.4713
 30
0.0
 10
-17.1408
 20
-30.4713
 30
0.0
 10
-17.1408
 20
-30.3977
 30
0.0
 10
-17.1408
 20
-30.3977
 30
0.0
 10
-17.1408
 20
-30.3977
 30
0.0
 10
-17.1408
 20
-30.3977
 30
0.0
 10
-14.7933
 20
-30.0444
 30
0.0
 10
-14.7933
 20
-30.0444
 30
0.0
 10
-14.7933
 20
-30.0444
 30
0.0
 10
-14.7933
 20
-30.0444
 30
0.0
 10
-14.7933
 20
-30.8026
 30
0.0
 10
-14.7933
 20
-30.8026
 30
0.0
  0
SPLINE
  5
5B
330
1F
100
AcDbEntity
  8
ILUSTRACE
 62
   250
100
AcDbSpline
210
0.0
220
0.0
230
1.0
 70
    24
 71
     3
 72
     8
 73
     4
 74
     0
 42
0.0000000001
 43
0.0000000001
 40
0.0
 40
0.0
 40
0.0
 40
0.0
 40
1.0
 40
1.0
 40
1.0
 40
1.0
 10
26.879
 20
-30.4399
 30
0.0
 10
26.879
 20
-30.4399
 30
0.0
 10
-16.5037
 20
-30.4399
 30
0.0
 10
-16.5037
 20
-30.4399
 30
0.0
  0
SPLINE
  5
5C
330
1F
100
AcDbEntity
  8
ILUSTRACE
 62
   250
100
AcDbSpline
210
0.0
220
0.0
230
1.0
 70
    11
 71
     3
 72
    44
 73
    40
 74
     0
 42
0.0000000001
 43
0.0000000001
 40
0.0
 40
0.0
 40
0.0
 40
0.0
 40
0.0909090909090909
 40
0.0909090909090909
 40
0.0909090909090909
 40
0.0909090909090909
 40
0.1818181818181818
 40
0.1818181818181818
 40
0.1818181818181818
 40
0.1818181818181818
 40
0.2727272727272727
 40
0.2727272727272727
 40
0.2727272727272727
 40
0.2727272727272727
 40
0.3636363636363636
 40
0.3636363636363636
 40
0.3636363636363636
 40
0.3636363636363636
 40
0.4545454545454545
 40
0.4545454545454545
 40
0.4545454545454545
 40
0.4545454545454545
 40
0.5454545454545454
 40
0.5454545454545454
 40
0.5454545454545454
 40
0.5454545454545454
 40
0.6363636363636364
 40
0.6363636363636364
 40
0.6363636363636364
 40
0.6363636363636364
 40
0.7272727272727273
 40
0.7272727272727273
 40
0.7272727272727273
 40
0.7272727272727273
 40
0.8181818181818182
 40
0.8181818181818182
 40
0.8181818181818182
 40
0.8181818181818182
 40
1.0
 40
1.0
 40
1.0
 40
1.0
 10
2.2353
 20
-29.8781
 30
0.0
 10
2.0984
 20
-29.7054
 30
0.0
 10
1.9827
 20
-29.5032
 30
0.0
 10
1.8882
 20
-29.2718
 30
0.0
 10
1.8882
 20
-29.2718
 30
0.0
 10
1.7937
 20
-29.0399
 30
0.0
 10
1.7461
 20
-28.8005
 30
0.0
 10
1.7461
 20
-28.5521
 30
0.0
 10
1.7461
 20
-28.5521
 30
0.0
 10
1.7461
 20
-28.3334
 30
0.0
 10
1.7814
 20
-28.1241
 30
0.0
 10
1.8524
 20
-27.9237
 30
0.0
 10
1.8524
 20
-27.9237
 30
0.0
 10
1.9352
 20
-27.6913
 30
0.0
 10
2.0627
 20
-27.4599
 30
0.0
 10
2.2353
 20
-27.2294
 30
0.0
 10
2.2353
 20
-27.2294
 30
0.0
 10
2.2353
 20
-27.2294
 30
0.0
 10
2.4131
 20
-27.2294
 30
0.0
 10
2.4131
 20
-27.2294
 30
0.0
 10
2.4131
 20
-27.2294
 30
0.0
 10
2.3021
 20
-27.4204
 30
0.0
 10
2.2287
 20
-27.5568
 30
0.0
 10
2.193
 20
-27.6387
 30
0.0
 10
2.193
 20
-27.6387
 30
0.0
 10
2.1365
 20
-27.7652
 30
0.0
 10
2.0928
 20
-27.8978
 30
0.0
 10
2.0603
 20
-28.0356
 30
0.0
 10
2.0603
 20
-28.0356
 30
0.0
 10
2.0208
 20
-28.2073
 30
0.0
 10
2.0011
 20
-28.38
 30
0.0
 10
2.0011
 20
-28.5535
 30
0.0
 10
2.0011
 20
-28.5535
 30
0.0
 10
2.0011
 20
-28.9957
 30
0.0
 10
2.1384
 20
-29.4369
 30
0.0
 10
2.4131
 20
-29.8781
 30
0.0
 10
2.4131
 20
-29.8781
 30
0.0
 10
2.4131
 20
-29.8781
 30
0.0
 10
2.2353
 20
-29.8781
 30
0.0
 10
2.2353
 20
-29.8781
 30
0.0
  0
SPLINE
  5
5D
330
1F
100
AcDbEntity
  8
ILUSTRACE
 62
   250
100
AcDbSpline
210
0.0
220
0.0
230
1.0
 70
    11
 71
     3
 72
    84
 73
    80
 74
     0
 42
0.0000000001
 43
0.0000000001
 40
0.0
 40
0.0
 40
0.0
 40
0.0
 40
0.0476190476190476
 40
0.0476190476190476
 40
0.0476190476190476
 40
0.0476190476190476
 40
0.0952380952380952
 40
0.0952380952380952
 40
0.0952380952380952
 40
0.0952380952380952
 40
0.1428571428571428
 40
0.1428571428571428
 40
0.1428571428571428
 40
0.1428571428571428
 40
0.1904761904761905
 40
0.1904761904761905
 40
0.1904761904761905
 40
0.1904761904761905
 40
0.2380952380952381
 40
0.2380952380952381
 40
0.2380952380952381
 40
0.2380952380952381
 40
0.2857142857142857
 40
0.2857142857142857
 40
0.2857142857142857
 40
0.2857142857142857
 40
0.3333333333333333
 40
0.3333333333333333
 40
0.3333333333333333
 40
0.3333333333333333
 40
0.3809523809523809
 40
0.3809523809523809
 40
0.3809523809523809
 40
0.3809523809523809
 40
0.4285714285714285
 40
0.4285714285714285
 40
0.4285714285714285
 40
0.4285714285714285
 40
0.4761904761904762
 40
0.4761904761904762
 40
0.4761904761904762
 40
0.4761904761904762
 40
0.5238095238095238
 40
0.5238095238095238
 40
0.5238095238095238
 40
0.5238095238095238
 40
0.5714285714285714
 40
0.5714285714285714
 40
0.5714285714285714
 40
0.5714285714285714
 40
0.6190476190476191
 40
0.6190476190476191
 40
0.6190476190476191
 40
0.6190476190476191
 40
0.6666666666666666
 40
0.6666666666666666
 40
0.6666666666666666
 40
0.6666666666666666
 40
0.7142857142857143
 40
0.7142857142857143
 40
0.7142857142857143
 40
0.7142857142857143
 40
0.7619047619047619
 40
0.7619047619047619
 40
0.7619047619047619
 40
0.7619047619047619
 40
0.8095238095238095
 40
0.8095238095238095
 40
0.8095238095238095
 40
0.8095238095238095
 40
0.8571428571428571
 40
0.8571428571428571
 40
0.8571428571428571
 40
0.8571428571428571
 40
0.9047619047619048
 40
0.9047619047619048
 40
0.9047619047619048
 40
0.9047619047619048
 40
1.0
 40
1.0
 40
1.0
 40
1.0
 10
4.2377
 20
-27.4486
 30
0.0
 10
4.2377
 20
-27.4486
 30
0.0
 10
4.4691
 20
-27.1895
 30
0.0
 10
4.4691
 20
-27.1895
 30
0.0
 10
4.4691
 20
-27.1895
 30
0.0
 10
4.4691
 20
-27.1895
 30
0.0
 10
4.6055
 20
-27.3052
 30
0.0
 10
4.6055
 20
-27.3052
 30
0.0
 10
4.6055
 20
-27.3052
 30
0.0
 10
4.6055
 20
-27.3052
 30
0.0
 10
4.3633
 20
-27.578
 30
0.0
 10
4.3633
 20
-27.578
 30
0.0
 10
4.3633
 20
-27.578
 30
0.0
 10
4.4423
 20
-27.6956
 30
0.0
 10
4.4954
 20
-27.7986
 30
0.0
 10
4.5232
 20
-27.8865
 30
0.0
 10
4.5232
 20
-27.8865
 30
0.0
 10
4.5599
 20
-28.0023
 30
0.0
 10
4.5782
 20
-28.1321
 30
0.0
 10
4.5782
 20
-28.2751
 30
0.0
 10
4.5782
 20
-28.2751
 30
0.0
 10
4.5782
 20
-28.482
 30
0.0
 10
4.5364
 20
-28.6664
 30
0.0
 10
4.4526
 20
-28.8277
 30
0.0
 10
4.4526
 20
-28.8277
 30
0.0
 10
4.3689
 20
-28.9896
 30
0.0
 10
4.2518
 20
-29.1118
 30
0.0
 10
4.1008
 20
-29.1946
 30
0.0
 10
4.1008
 20
-29.1946
 30
0.0
 10
3.9493
 20
-29.2769
 30
0.0
 10
3.789
 20
-29.3183
 30
0.0
 10
3.6192
 20
-29.3183
 30
0.0
 10
3.6192
 20
-29.3183
 30
0.0
 10
3.4922
 20
-29.3183
 30
0.0
 10
3.3774
 20
-29.3005
 30
0.0
 10
3.2744
 20
-29.2647
 30
0.0
 10
3.2744
 20
-29.2647
 30
0.0
 10
3.1954
 20
-29.237
 30
0.0
 10
3.1032
 20
-29.1843
 30
0.0
 10
2.9973
 20
-29.1062
 30
0.0
 10
2.9973
 20
-29.1062
 30
0.0
 10
2.9973
 20
-29.1062
 30
0.0
 10
2.7659
 20
-29.3654
 30
0.0
 10
2.7659
 20
-29.3654
 30
0.0
 10
2.7659
 20
-29.3654
 30
0.0
 10
2.7659
 20
-29.3654
 30
0.0
 10
2.6295
 20
-29.2497
 30
0.0
 10
2.6295
 20
-29.2497
 30
0.0
 10
2.6295
 20
-29.2497
 30
0.0
 10
2.6295
 20
-29.2497
 30
0.0
 10
2.8722
 20
-28.9783
 30
0.0
 10
2.8722
 20
-28.9783
 30
0.0
 10
2.8722
 20
-28.9783
 30
0.0
 10
2.7819
 20
-28.8414
 30
0.0
 10
2.7217
 20
-28.7243
 30
0.0
 10
2.6916
 20
-28.6274
 30
0.0
 10
2.6916
 20
-28.6274
 30
0.0
 10
2.6615
 20
-28.5305
 30
0.0
 10
2.646
 20
-28.4138
 30
0.0
 10
2.646
 20
-28.2779
 30
0.0
 10
2.646
 20
-28.2779
 30
0.0
 10
2.646
 20
-28.0705
 30
0.0
 10
2.6874
 20
-27.8856
 30
0.0
 10
2.7701
 20
-27.7233
 30
0.0
 10
2.7701
 20
-27.7233
 30
0.0
 10
2.8529
 20
-27.561
 30
0.0
 10
2.9686
 20
-27.4383
 30
0.0
 10
3.1182
 20
-27.3546
 30
0.0
 10
3.1182
 20
-27.3546
 30
0.0
 10
3.2673
 20
-27.2713
 30
0.0
 10
3.4334
 20
-27.2294
 30
0.0
 10
3.6163
 20
-27.2294
 30
0.0
 10
3.6163
 20
-27.2294
 30
0.0
 10
3.7396
 20
-27.2294
 30
0.0
 10
3.8473
 20
-27.2454
 30
0.0
 10
3.9395
 20
-27.2784
 30
0.0
 10
3.9395
 20
-27.2784
 30
0.0
 10
4.0317
 20
-27.3108
 30
0.0
 10
4.1314
 20
-27.3677
 30
0.0
 10
4.2377
 20
-27.4486
 30
0.0
  0
SPLINE
  5
5E
330
1F
100
AcDbEntity
  8
ILUSTRACE
 62
   250
100
AcDbSpline
210
0.0
220
0.0
230
1.0
 70
    11
 71
     3
 72
    32
 73
    28
 74
     0
 42
0.0000000001
 43
0.0000000001
 40
0.0
 40
0.0
 40
0.0
 40
0.0
 40
0.125
 40
0.125
 40
0.125
 40
0.125
 40
0.25
 40
0.25
 40
0.25
 40
0.25
 40
0.375
 40
0.375
 40
0.375
 40
0.375
 40
0.5
 40
0.5
 40
0.5
 40
0.5
 40
0.625
 40
0.625
 40
0.625
 40
0.625
 40
0.75
 40
0.75
 40
0.75
 40
0.75
 40
1.0
 40
1.0
 40
1.0
 40
1.0
 10
4.0726
 20
-27.6344
 30
0.0
 10
3.986
 20
-27.5667
 30
0.0
 10
3.9103
 20
-27.5201
 30
0.0
 10
3.8459
 20
-27.4952
 30
0.0
 10
3.8459
 20
-27.4952
 30
0.0
 10
3.781
 20
-27.4707
 30
0.0
 10
3.7048
 20
-27.458
 30
0.0
 10
3.6177
 20
-27.458
 30
0.0
 10
3.6177
 20
-27.458
 30
0.0
 10
3.4164
 20
-27.458
 30
0.0
 10
3.2504
 20
-27.5262
 30
0.0
 10
3.1187
 20
-27.6626
 30
0.0
 10
3.1187
 20
-27.6626
 30
0.0
 10
2.9874
 20
-27.7991
 30
0.0
 10
2.9216
 20
-28.0027
 30
0.0
 10
2.9216
 20
-28.2741
 30
0.0
 10
2.9216
 20
-28.2741
 30
0.0
 10
2.9216
 20
-28.3804
 30
0.0
 10
2.9319
 20
-28.475
 30
0.0
 10
2.9522
 20
-28.5578
 30
0.0
 10
2.9522
 20
-28.5578
 30
0.0
 10
2.9668
 20
-28.6194
 30
0.0
 10
2.9973
 20
-28.6951
 30
0.0
 10
3.0444
 20
-28.7849
 30
0.0
 10
3.0444
 20
-28.7849
 30
0.0
 10
3.0444
 20
-28.7849
 30
0.0
 10
4.0726
 20
-27.6344
 30
0.0
 10
4.0726
 20
-27.6344
 30
0.0
  0
SPLINE
  5
5F
330
1F
100
AcDbEntity
  8
ILUSTRACE
 62
   250
100
AcDbSpline
210
0.0
220
0.0
230
1.0
 70
    11
 71
     3
 72
    28
 73
    24
 74
     0
 42
0.0000000001
 43
0.0000000001
 40
0.0
 40
0.0
 40
0.0
 40
0.0
 40
0.1428571428571428
 40
0.1428571428571428
 40
0.1428571428571428
 40
0.1428571428571428
 40
0.2857142857142857
 40
0.2857142857142857
 40
0.2857142857142857
 40
0.2857142857142857
 40
0.4285714285714285
 40
0.4285714285714285
 40
0.4285714285714285
 40
0.4285714285714285
 40
0.5714285714285714
 40
0.5714285714285714
 40
0.5714285714285714
 40
0.5714285714285714
 40
0.7142857142857143
 40
0.7142857142857143
 40
0.7142857142857143
 40
0.7142857142857143
 40
1.0
 40
1.0
 40
1.0
 40
1.0
 10
4.1855
 20
-27.7765
 30
0.0
 10
4.1855
 20
-27.7765
 30
0.0
 10
3.1615
 20
-28.9228
 30
0.0
 10
3.1615
 20
-28.9228
 30
0.0
 10
3.1615
 20
-28.9228
 30
0.0
 10
3.232
 20
-28.9806
 30
0.0
 10
3.2974
 20
-29.0211
 30
0.0
 10
3.3572
 20
-29.0441
 30
0.0
 10
3.3572
 20
-29.0441
 30
0.0
 10
3.4352
 20
-29.0747
 30
0.0
 10
3.5199
 20
-29.0897
 30
0.0
 10
3.6107
 20
-29.0897
 30
0.0
 10
3.6107
 20
-29.0897
 30
0.0
 10
3.8111
 20
-29.0897
 30
0.0
 10
3.9762
 20
-29.0192
 30
0.0
 10
4.1069
 20
-28.8776
 30
0.0
 10
4.1069
 20
-28.8776
 30
0.0
 10
4.2372
 20
-28.736
 30
0.0
 10
4.3026
 20
-28.5375
 30
0.0
 10
4.3026
 20
-28.2821
 30
0.0
 10
4.3026
 20
-28.2821
 30
0.0
 10
4.3026
 20
-28.0912
 30
0.0
 10
4.2636
 20
-27.9223
 30
0.0
 10
4.1855
 20
-27.7765
 30
0.0
  0
SPLINE
  5
60
330
1F
100
AcDbEntity
  8
ILUSTRACE
 62
   250
100
AcDbSpline
210
0.0
220
0.0
230
1.0
 70
    11
 71
     3
 72
    68
 73
    64
 74
     0
 42
0.0000000001
 43
0.0000000001
 40
0.0
 40
0.0
 40
0.0
 40
0.0
 40
0.0588235294117647
 40
0.0588235294117647
 40
0.0588235294117647
 40
0.0588235294117647
 40
0.1176470588235294
 40
0.1176470588235294
 40
0.1176470588235294
 40
0.1176470588235294
 40
0.1764705882352941
 40
0.1764705882352941
 40
0.1764705882352941
 40
0.1764705882352941
 40
0.2352941176470588
 40
0.2352941176470588
 40
0.2352941176470588
 40
0.2352941176470588
 40
0.2941176470588235
 40
0.2941176470588235
 40
0.2941176470588235
 40
0.2941176470588235
 40
0.3529411764705883
 40
0.3529411764705883
 40
0.3529411764705883
 40
0.3529411764705883
 40
0.4117647058823529
 40
0.4117647058823529
 40
0.4117647058823529
 40
0.4117647058823529
 40
0.4705882352941176
 40
0.4705882352941176
 40
0.4705882352941176
 40
0.4705882352941176
 40
0.5294117647058824
 40
0.5294117647058824
 40
0.5294117647058824
 40
0.5294117647058824
 40
0.5882352941176471
 40
0.5882352941176471
 40
0.5882352941176471
 40
0.5882352941176471
 40
0.6470588235294118
 40
0.6470588235294118
 40
0.6470588235294118
 40
0.6470588235294118
 40
0.7058823529411765
 40
0.7058823529411765
 40
0.7058823529411765
 40
0.7058823529411765
 40
0.7647058823529411
 40
0.7647058823529411
 40
0.7647058823529411
 40
0.7647058823529411
 40
0.8235294117647058
 40
0.8235294117647058
 40
0.8235294117647058
 40
0.8235294117647058
 40
0.8823529411764706
 40
0.8823529411764706
 40
0.8823529411764706
 40
0.8823529411764706
 40
1.0
 40
1.0
 40
1.0
 40
1.0
 10
5.2095
 20
-28.1885
 30
0.0
 10
5.1064
 20
-28.1509
 30
0.0
 10
5.0302
 20
-28.0973
 30
0.0
 10
4.9804
 20
-28.0272
 30
0.0
 10
4.9804
 20
-28.0272
 30
0.0
 10
4.931
 20
-27.9576
 30
0.0
 10
4.9061
 20
-27.8738
 30
0.0
 10
4.9061
 20
-27.7765
 30
0.0
 10
4.9061
 20
-27.7765
 30
0.0
 10
4.9061
 20
-27.6293
 30
0.0
 10
4.9588
 20
-27.506
 30
0.0
 10
5.0646
 20
-27.4058
 30
0.0
 10
5.0646
 20
-27.4058
 30
0.0
 10
5.1704
 20
-27.3056
 30
0.0
 10
5.3106
 20
-27.2553
 30
0.0
 10
5.486
 20
-27.2553
 30
0.0
 10
5.486
 20
-27.2553
 30
0.0
 10
5.6624
 20
-27.2553
 30
0.0
 10
5.8045
 20
-27.3066
 30
0.0
 10
5.9122
 20
-27.4091
 30
0.0
 10
5.9122
 20
-27.4091
 30
0.0
 10
6.0194
 20
-27.5117
 30
0.0
 10
6.0731
 20
-27.6363
 30
0.0
 10
6.0731
 20
-27.7835
 30
0.0
 10
6.0731
 20
-27.7835
 30
0.0
 10
6.0731
 20
-27.8771
 30
0.0
 10
6.0486
 20
-27.9585
 30
0.0
 10
5.9997
 20
-28.0281
 30
0.0
 10
5.9997
 20
-28.0281
 30
0.0
 10
5.9503
 20
-28.0973
 30
0.0
 10
5.876
 20
-28.1509
 30
0.0
 10
5.7758
 20
-28.1885
 30
0.0
 10
5.7758
 20
-28.1885
 30
0.0
 10
5.8995
 20
-28.229
 30
0.0
 10
5.994
 20
-28.2939
 30
0.0
 10
6.0589
 20
-28.3842
 30
0.0
 10
6.0589
 20
-28.3842
 30
0.0
 10
6.1234
 20
-28.474
 30
0.0
 10
6.1558
 20
-28.5817
 30
0.0
 10
6.1558
 20
-28.7064
 30
0.0
 10
6.1558
 20
-28.7064
 30
0.0
 10
6.1558
 20
-28.8795
 30
0.0
 10
6.0947
 20
-29.0244
 30
0.0
 10
5.9729
 20
-29.1419
 30
0.0
 10
5.9729
 20
-29.1419
 30
0.0
 10
5.8506
 20
-29.2595
 30
0.0
 10
5.6897
 20
-29.3183
 30
0.0
 10
5.4903
 20
-29.3183
 30
0.0
 10
5.4903
 20
-29.3183
 30
0.0
 10
5.2908
 20
-29.3183
 30
0.0
 10
5.1304
 20
-29.2595
 30
0.0
 10
5.0081
 20
-29.1415
 30
0.0
 10
5.0081
 20
-29.1415
 30
0.0
 10
4.8858
 20
-29.0234
 30
0.0
 10
4.8247
 20
-28.8762
 30
0.0
 10
4.8247
 20
-28.6998
 30
0.0
 10
4.8247
 20
-28.6998
 30
0.0
 10
4.8247
 20
-28.5686
 30
0.0
 10
4.8581
 20
-28.4585
 30
0.0
 10
4.9249
 20
-28.3696
 30
0.0
 10
4.9249
 20
-28.3696
 30
0.0
 10
4.9912
 20
-28.2812
 30
0.0
 10
5.0862
 20
-28.2205
 30
0.0
 10
5.2095
 20
-28.1885
 30
0.0
  0
SPLINE
  5
61
330
1F
100
AcDbEntity
  8
ILUSTRACE
 62
   250
100
AcDbSpline
210
0.0
220
0.0
230
1.0
 70
    11
 71
     3
 72
    36
 73
    32
 74
     0
 42
0.0000000001
 43
0.0000000001
 40
0.0
 40
0.0
 40
0.0
 40
0.0
 40
0.1111111111111111
 40
0.1111111111111111
 40
0.1111111111111111
 40
0.1111111111111111
 40
0.2222222222222222
 40
0.2222222222222222
 40
0.2222222222222222
 40
0.2222222222222222
 40
0.3333333333333333
 40
0.3333333333333333
 40
0.3333333333333333
 40
0.3333333333333333
 40
0.4444444444444444
 40
0.4444444444444444
 40
0.4444444444444444
 40
0.4444444444444444
 40
0.5555555555555556
 40
0.5555555555555556
 40
0.5555555555555556
 40
0.5555555555555556
 40
0.6666666666666666
 40
0.6666666666666666
 40
0.6666666666666666
 40
0.6666666666666666
 40
0.7777777777777778
 40
0.7777777777777778
 40
0.7777777777777778
 40
0.7777777777777778
 40
1.0
 40
1.0
 40
1.0
 40
1.0
 10
5.1596
 20
-27.768
 30
0.0
 10
5.1596
 20
-27.8635
 30
0.0
 10
5.1906
 20
-27.9416
 30
0.0
 10
5.2518
 20
-28.0023
 30
0.0
 10
5.2518
 20
-28.0023
 30
0.0
 10
5.3134
 20
-28.0629
 30
0.0
 10
5.3934
 20
-28.0935
 30
0.0
 10
5.4917
 20
-28.0935
 30
0.0
 10
5.4917
 20
-28.0935
 30
0.0
 10
5.5872
 20
-28.0935
 30
0.0
 10
5.6657
 20
-28.0634
 30
0.0
 10
5.7269
 20
-28.0032
 30
0.0
 10
5.7269
 20
-28.0032
 30
0.0
 10
5.788
 20
-27.943
 30
0.0
 10
5.8181
 20
-27.8691
 30
0.0
 10
5.8181
 20
-27.7821
 30
0.0
 10
5.8181
 20
-27.7821
 30
0.0
 10
5.8181
 20
-27.6909
 30
0.0
 10
5.7871
 20
-27.6147
 30
0.0
 10
5.724
 20
-27.5526
 30
0.0
 10
5.724
 20
-27.5526
 30
0.0
 10
5.661
 20
-27.4905
 30
0.0
 10
5.5829
 20
-27.4594
 30
0.0
 10
5.4889
 20
-27.4594
 30
0.0
 10
5.4889
 20
-27.4594
 30
0.0
 10
5.3943
 20
-27.4594
 30
0.0
 10
5.3158
 20
-27.49
 30
0.0
 10
5.2532
 20
-27.5502
 30
0.0
 10
5.2532
 20
-27.5502
 30
0.0
 10
5.1906
 20
-27.6109
 30
0.0
 10
5.1596
 20
-27.6838
 30
0.0
 10
5.1596
 20
-27.768
 30
0.0
  0
SPLINE
  5
62
330
1F
100
AcDbEntity
  8
ILUSTRACE
 62
   250
100
AcDbSpline
210
0.0
220
0.0
230
1.0
 70
    11
 71
     3
 72
    40
 73
    36
 74
     0
 42
0.0000000001
 43
0.0000000001
 40
0.0
 40
0.0
 40
0.0
 40
0.0
 40
0.1
 40
0.1
 40
0.1
 40
0.1
 40
0.2
 40
0.2
 40
0.2
 40
0.2
 40
0.3
 40
0.3
 40
0.3
 40
0.3
 40
0.4
 40
0.4
 40
0.4
 40
0.4
 40
0.5
 40
0.5
 40
0.5
 40
0.5
 40
0.6
 40
0.6
 40
0.6
 40
0.6
 40
0.7
 40
0.7
 40
0.7
 40
0.7
 40
0.8
 40
0.8
 40
0.8
 40
0.8
 40
1.0
 40
1.0
 40
1.0
 40
1.0
 10
5.0796
 20
-28.7012
 30
0.0
 10
5.0796
 20
-28.7718
 30
0.0
 10
5.0966
 20
-28.8404
 30
0.0
 10
5.13
 20
-28.9063
 30
0.0
 10
5.13
 20
-28.9063
 30
0.0
 10
5.1634
 20
-28.9726
 30
0.0
 10
5.2132
 20
-29.0239
 30
0.0
 10
5.2795
 20
-29.0601
 30
0.0
 10
5.2795
 20
-29.0601
 30
0.0
 10
5.3459
 20
-29.0963
 30
0.0
 10
5.4169
 20
-29.1147
 30
0.0
 10
5.4931
 20
-29.1147
 30
0.0
 10
5.4931
 20
-29.1147
 30
0.0
 10
5.6116
 20
-29.1147
 30
0.0
 10
5.7095
 20
-29.0766
 30
0.0
 10
5.7866
 20
-28.9999
 30
0.0
 10
5.7866
 20
-28.9999
 30
0.0
 10
5.8637
 20
-28.9237
 30
0.0
 10
5.9023
 20
-28.8268
 30
0.0
 10
5.9023
 20
-28.7092
 30
0.0
 10
5.9023
 20
-28.7092
 30
0.0
 10
5.9023
 20
-28.5897
 30
0.0
 10
5.8628
 20
-28.491
 30
0.0
 10
5.7833
 20
-28.4129
 30
0.0
 10
5.7833
 20
-28.4129
 30
0.0
 10
5.7038
 20
-28.3348
 30
0.0
 10
5.6041
 20
-28.2958
 30
0.0
 10
5.4846
 20
-28.2958
 30
0.0
 10
5.4846
 20
-28.2958
 30
0.0
 10
5.368
 20
-28.2958
 30
0.0
 10
5.2715
 20
-28.3343
 30
0.0
 10
5.1949
 20
-28.4115
 30
0.0
 10
5.1949
 20
-28.4115
 30
0.0
 10
5.1182
 20
-28.4891
 30
0.0
 10
5.0796
 20
-28.5855
 30
0.0
 10
5.0796
 20
-28.7012
 30
0.0
  0
SPLINE
  5
63
330
1F
100
AcDbEntity
  8
ILUSTRACE
 62
   250
100
AcDbSpline
210
0.0
220
0.0
230
1.0
 70
    11
 71
     3
 72
    92
 73
    88
 74
     0
 42
0.0000000001
 43
0.0000000001
 40
0.0
 40
0.0
 40
0.0
 40
0.0
 40
0.0434782608695652
 40
0.0434782608695652
 40
0.0434782608695652
 40
0.0434782608695652
 40
0.0869565217391304
 40
0.0869565217391304
 40
0.0869565217391304
 40
0.0869565217391304
 40
0.1304347826086956
 40
0.1304347826086956
 40
0.1304347826086956
 40
0.1304347826086956
 40
0.1739130434782609
 40
0.1739130434782609
 40
0.1739130434782609
 40
0.1739130434782609
 40
0.2173913043478261
 40
0.2173913043478261
 40
0.2173913043478261
 40
0.2173913043478261
 40
0.2608695652173913
 40
0.2608695652173913
 40
0.2608695652173913
 40
0.2608695652173913
 40
0.3043478260869565
 40
0.3043478260869565
 40
0.3043478260869565
 40
0.3043478260869565
 40
0.3478260869565217
 40
0.3478260869565217
 40
0.3478260869565217
 40
0.3478260869565217
 40
0.391304347826087
 40
0.391304347826087
 40
0.391304347826087
 40
0.391304347826087
 40
0.4347826086956522
 40
0.4347826086956522
 40
0.4347826086956522
 40
0.4347826086956522
 40
0.4782608695652174
 40
0.4782608695652174
 40
0.4782608695652174
 40
0.4782608695652174
 40
0.5217391304347826
 40
0.5217391304347826
 40
0.5217391304347826
 40
0.5217391304347826
 40
0.5652173913043478
 40
0.5652173913043478
 40
0.5652173913043478
 40
0.5652173913043478
 40
0.6086956521739131
 40
0.6086956521739131
 40
0.6086956521739131
 40
0.6086956521739131
 40
0.6521739130434783
 40
0.6521739130434783
 40
0.6521739130434783
 40
0.6521739130434783
 40
0.6956521739130435
 40
0.6956521739130435
 40
0.6956521739130435
 40
0.6956521739130435
 40
0.7391304347826086
 40
0.7391304347826086
 40
0.7391304347826086
 40
0.7391304347826086
 40
0.782608695652174
 40
0.782608695652174
 40
0.782608695652174
 40
0.782608695652174
 40
0.8260869565217391
 40
0.8260869565217391
 40
0.8260869565217391
 40
0.8260869565217391
 40
0.8695652173913043
 40
0.8695652173913043
 40
0.8695652173913043
 40
0.8695652173913043
 40
0.9130434782608695
 40
0.9130434782608695
 40
0.9130434782608695
 40
0.9130434782608695
 40
1.0
 40
1.0
 40
1.0
 40
1.0
 10
6.4343
 20
-28.8169
 30
0.0
 10
6.4343
 20
-28.8169
 30
0.0
 10
6.6728
 20
-28.7948
 30
0.0
 10
6.6728
 20
-28.7948
 30
0.0
 10
6.6728
 20
-28.7948
 30
0.0
 10
6.693
 20
-28.9068
 30
0.0
 10
6.7316
 20
-28.9881
 30
0.0
 10
6.7885
 20
-29.0389
 30
0.0
 10
6.7885
 20
-29.0389
 30
0.0
 10
6.8454
 20
-29.0893
 30
0.0
 10
6.9183
 20
-29.1147
 30
0.0
 10
7.0077
 20
-29.1147
 30
0.0
 10
7.0077
 20
-29.1147
 30
0.0
 10
7.0839
 20
-29.1147
 30
0.0
 10
7.1506
 20
-29.0973
 30
0.0
 10
7.208
 20
-29.062
 30
0.0
 10
7.208
 20
-29.062
 30
0.0
 10
7.2654
 20
-29.0272
 30
0.0
 10
7.3125
 20
-28.9806
 30
0.0
 10
7.3491
 20
-28.9223
 30
0.0
 10
7.3491
 20
-28.9223
 30
0.0
 10
7.3863
 20
-28.864
 30
0.0
 10
7.4169
 20
-28.7849
 30
0.0
 10
7.4418
 20
-28.6862
 30
0.0
 10
7.4418
 20
-28.6862
 30
0.0
 10
7.4663
 20
-28.5869
 30
0.0
 10
7.479
 20
-28.4858
 30
0.0
 10
7.479
 20
-28.3828
 30
0.0
 10
7.479
 20
-28.3828
 30
0.0
 10
7.479
 20
-28.372
 30
0.0
 10
7.4785
 20
-28.355
 30
0.0
 10
7.4776
 20
-28.3334
 30
0.0
 10
7.4776
 20
-28.3334
 30
0.0
 10
7.4277
 20
-28.4119
 30
0.0
 10
7.36
 20
-28.4764
 30
0.0
 10
7.2744
 20
-28.5253
 30
0.0
 10
7.2744
 20
-28.5253
 30
0.0
 10
7.1883
 20
-28.5747
 30
0.0
 10
7.0951
 20
-28.5991
 30
0.0
 10
6.9954
 20
-28.5991
 30
0.0
 10
6.9954
 20
-28.5991
 30
0.0
 10
6.828
 20
-28.5991
 30
0.0
 10
6.6864
 20
-28.5385
 30
0.0
 10
6.5707
 20
-28.4171
 30
0.0
 10
6.5707
 20
-28.4171
 30
0.0
 10
6.455
 20
-28.2958
 30
0.0
 10
6.3971
 20
-28.1363
 30
0.0
 10
6.3971
 20
-27.9378
 30
0.0
 10
6.3971
 20
-27.9378
 30
0.0
 10
6.3971
 20
-27.7327
 30
0.0
 10
6.4573
 20
-27.5681
 30
0.0
 10
6.5782
 20
-27.443
 30
0.0
 10
6.5782
 20
-27.443
 30
0.0
 10
6.6991
 20
-27.3179
 30
0.0
 10
6.8506
 20
-27.2553
 30
0.0
 10
7.0326
 20
-27.2553
 30
0.0
 10
7.0326
 20
-27.2553
 30
0.0
 10
7.1638
 20
-27.2553
 30
0.0
 10
7.2838
 20
-27.2911
 30
0.0
 10
7.3929
 20
-27.3616
 30
0.0
 10
7.3929
 20
-27.3616
 30
0.0
 10
7.5015
 20
-27.4322
 30
0.0
 10
7.5843
 20
-27.5333
 30
0.0
 10
7.6408
 20
-27.6641
 30
0.0
 10
7.6408
 20
-27.6641
 30
0.0
 10
7.6972
 20
-27.7948
 30
0.0
 10
7.7254
 20
-27.9844
 30
0.0
 10
7.7254
 20
-28.2327
 30
0.0
 10
7.7254
 20
-28.2327
 30
0.0
 10
7.7254
 20
-28.4905
 30
0.0
 10
7.6977
 20
-28.696
 30
0.0
 10
7.6417
 20
-28.8494
 30
0.0
 10
7.6417
 20
-28.8494
 30
0.0
 10
7.5853
 20
-29.0023
 30
0.0
 10
7.502
 20
-29.1184
 30
0.0
 10
7.3915
 20
-29.1984
 30
0.0
 10
7.3915
 20
-29.1984
 30
0.0
 10
7.2805
 20
-29.2784
 30
0.0
 10
7.1511
 20
-29.3183
 30
0.0
 10
7.002
 20
-29.3183
 30
0.0
 10
7.002
 20
-29.3183
 30
0.0
 10
6.844
 20
-29.3183
 30
0.0
 10
6.7151
 20
-29.2746
 30
0.0
 10
6.6149
 20
-29.1866
 30
0.0
 10
6.6149
 20
-29.1866
 30
0.0
 10
6.5147
 20
-29.0991
 30
0.0
 10
6.4545
 20
-28.9759
 30
0.0
 10
6.4343
 20
-28.8169
 30
0.0
  0
SPLINE
  5
64
330
1F
100
AcDbEntity
  8
ILUSTRACE
 62
   250
100
AcDbSpline
210
0.0
220
0.0
230
1.0
 70
    11
 71
     3
 72
    36
 73
    32
 74
     0
 42
0.0000000001
 43
0.0000000001
 40
0.0
 40
0.0
 40
0.0
 40
0.0
 40
0.1111111111111111
 40
0.1111111111111111
 40
0.1111111111111111
 40
0.1111111111111111
 40
0.2222222222222222
 40
0.2222222222222222
 40
0.2222222222222222
 40
0.2222222222222222
 40
0.3333333333333333
 40
0.3333333333333333
 40
0.3333333333333333
 40
0.3333333333333333
 40
0.4444444444444444
 40
0.4444444444444444
 40
0.4444444444444444
 40
0.4444444444444444
 40
0.5555555555555556
 40
0.5555555555555556
 40
0.5555555555555556
 40
0.5555555555555556
 40
0.6666666666666666
 40
0.6666666666666666
 40
0.6666666666666666
 40
0.6666666666666666
 40
0.7777777777777778
 40
0.7777777777777778
 40
0.7777777777777778
 40
0.7777777777777778
 40
1.0
 40
1.0
 40
1.0
 40
1.0
 10
7.4498
 20
-27.9251
 30
0.0
 10
7.4498
 20
-27.7831
 30
0.0
 10
7.4122
 20
-27.6697
 30
0.0
 10
7.3364
 20
-27.5864
 30
0.0
 10
7.3364
 20
-27.5864
 30
0.0
 10
7.2602
 20
-27.5027
 30
0.0
 10
7.1695
 20
-27.4609
 30
0.0
 10
7.0627
 20
-27.4609
 30
0.0
 10
7.0627
 20
-27.4609
 30
0.0
 10
6.9526
 20
-27.4609
 30
0.0
 10
6.8567
 20
-27.506
 30
0.0
 10
6.7748
 20
-27.5959
 30
0.0
 10
6.7748
 20
-27.5959
 30
0.0
 10
6.693
 20
-27.6862
 30
0.0
 10
6.6521
 20
-27.8028
 30
0.0
 10
6.6521
 20
-27.9458
 30
0.0
 10
6.6521
 20
-27.9458
 30
0.0
 10
6.6521
 20
-28.0747
 30
0.0
 10
6.6911
 20
-28.1791
 30
0.0
 10
6.7687
 20
-28.2595
 30
0.0
 10
6.7687
 20
-28.2595
 30
0.0
 10
6.8463
 20
-28.34
 30
0.0
 10
6.9418
 20
-28.38
 30
0.0
 10
7.0556
 20
-28.38
 30
0.0
 10
7.0556
 20
-28.38
 30
0.0
 10
7.1709
 20
-28.38
 30
0.0
 10
7.2649
 20
-28.34
 30
0.0
 10
7.3388
 20
-28.2595
 30
0.0
 10
7.3388
 20
-28.2595
 30
0.0
 10
7.4131
 20
-28.1791
 30
0.0
 10
7.4498
 20
-28.0676
 30
0.0
 10
7.4498
 20
-27.9251
 30
0.0
  0
SPLINE
  5
65
330
1F
100
AcDbEntity
  8
ILUSTRACE
 62
   250
100
AcDbSpline
210
0.0
220
0.0
230
1.0
 70
    11
 71
     3
 72
    44
 73
    40
 74
     0
 42
0.0000000001
 43
0.0000000001
 40
0.0
 40
0.0
 40
0.0
 40
0.0
 40
0.0909090909090909
 40
0.0909090909090909
 40
0.0909090909090909
 40
0.0909090909090909
 40
0.1818181818181818
 40
0.1818181818181818
 40
0.1818181818181818
 40
0.1818181818181818
 40
0.2727272727272727
 40
0.2727272727272727
 40
0.2727272727272727
 40
0.2727272727272727
 40
0.3636363636363636
 40
0.3636363636363636
 40
0.3636363636363636
 40
0.3636363636363636
 40
0.4545454545454545
 40
0.4545454545454545
 40
0.4545454545454545
 40
0.4545454545454545
 40
0.5454545454545454
 40
0.5454545454545454
 40
0.5454545454545454
 40
0.5454545454545454
 40
0.6363636363636364
 40
0.6363636363636364
 40
0.6363636363636364
 40
0.6363636363636364
 40
0.7272727272727273
 40
0.7272727272727273
 40
0.7272727272727273
 40
0.7272727272727273
 40
0.8181818181818182
 40
0.8181818181818182
 40
0.8181818181818182
 40
0.8181818181818182
 40
1.0
 40
1.0
 40
1.0
 40
1.0
 10
8.1981
 20
-29.8781
 30
0.0
 10
8.1981
 20
-29.8781
 30
0.0
 10
8.0203
 20
-29.8781
 30
0.0
 10
8.0203
 20
-29.8781
 30
0.0
 10
8.0203
 20
-29.8781
 30
0.0
 10
8.295
 20
-29.4369
 30
0.0
 10
8.4324
 20
-28.9957
 30
0.0
 10
8.4324
 20
-28.5535
 30
0.0
 10
8.4324
 20
-28.5535
 30
0.0
 10
8.4324
 20
-28.3809
 30
0.0
 10
8.4126
 20
-28.2097
 30
0.0
 10
8.3731
 20
-28.0394
 30
0.0
 10
8.3731
 20
-28.0394
 30
0.0
 10
8.3421
 20
-27.9021
 30
0.0
 10
8.2983
 20
-27.7694
 30
0.0
 10
8.2424
 20
-27.6429
 30
0.0
 10
8.2424
 20
-27.6429
 30
0.0
 10
8.2066
 20
-27.5601
 30
0.0
 10
8.1328
 20
-27.4223
 30
0.0
 10
8.0203
 20
-27.2294
 30
0.0
 10
8.0203
 20
-27.2294
 30
0.0
 10
8.0203
 20
-27.2294
 30
0.0
 10
8.1981
 20
-27.2294
 30
0.0
 10
8.1981
 20
-27.2294
 30
0.0
 10
8.1981
 20
-27.2294
 30
0.0
 10
8.3708
 20
-27.4599
 30
0.0
 10
8.4987
 20
-27.6913
 30
0.0
 10
8.5815
 20
-27.9237
 30
0.0
 10
8.5815
 20
-27.9237
 30
0.0
 10
8.652
 20
-28.1241
 30
0.0
 10
8.6873
 20
-28.3334
 30
0.0
 10
8.6873
 20
-28.5521
 30
0.0
 10
8.6873
 20
-28.5521
 30
0.0
 10
8.6873
 20
-28.8005
 30
0.0
 10
8.6398
 20
-29.0399
 30
0.0
 10
8.5448
 20
-29.2718
 30
0.0
 10
8.5448
 20
-29.2718
 30
0.0
 10
8.4498
 20
-29.5032
 30
0.0
 10
8.3341
 20
-29.7054
 30
0.0
 10
8.1981
 20
-29.8781
 30
0.0
  0
SPLINE
  5
66
330
1F
100
AcDbEntity
  8
ILUSTRACE
100
AcDbSpline
210
0.0
220
0.0
230
1.0
 70
    24
 71
     3
 72
     8
 73
     4
 74
     0
 42
0.0000000001
 43
0.0000000001
 40
0.0
 40
0.0
 40
0.0
 40
0.0
 40
1.0
 40
1.0
 40
1.0
 40
1.0
 10
30.0213
 20
5.181
 30
0.0
 10
30.0213
 20
5.181
 30
0.0
 10
-19.5286
 20
5.181
 30
0.0
 10
-19.5286
 20
5.181
 30
0.0
  0
SPLINE
  5
67
330
1F
100
AcDbEntity
  8
ILUSTRACE
100
AcDbSpline
210
0.0
220
0.0
230
1.0
 70
     8
 71
     3
 72
    12
 73
     8
 74
     0
 42
0.0000000001
 43
0.0000000001
 40
0.0
 40
0.0
 40
0.0
 40
0.0
 40
0.3333333333333333
 40
0.3333333333333333
 40
0.3333333333333333
 40
0.3333333333333333
 40
1.0
 40
1.0
 40
1.0
 40
1.0
 10
29.3954
 20
4.5551
 30
0.0
 10
29.9553
 20
4.5796
 30
0.0
 10
30.2496
 20
5.2809
 30
0.0
 10
29.7976
 20
5.66
 30
0.0
 10
29.7976
 20
5.66
 30
0.0
 10
29.4526
 20
5.9498
 30
0.0
 10
28.6808
 20
5.8064
 30
0.0
 10
28.3944
 20
5.8064
 30
0.0
  0
SPLINE
  5
68
330
1F
100
AcDbEntity
  8
ILUSTRACE
100
AcDbSpline
210
0.0
220
0.0
230
1.0
 70
    24
 71
     3
 72
    12
 73
     8
 74
     0
 42
0.0000000001
 43
0.0000000001
 40
0.0
 40
0.0
 40
0.0
 40
0.0
 40
0.3333333333333333
 40
0.3333333333333333
 40
0.3333333333333333
 40
0.3333333333333333
 40
1.0
 40
1.0
 40
1.0
 40
1.0
 10
28.3944
 20
5.8064
 30
0.0
 10
28.3944
 20
5.8064
 30
0.0
 10
-17.9021
 20
5.8064
 30
0.0
 10
-17.9021
 20
5.8064
 30
0.0
 10
-17.9021
 20
5.8064
 30
0.0
 10
-17.9021
 20
5.8064
 30
0.0
 10
-18.903
 20
5.8064
 30
0.0
 10
-18.903
 20
5.8064
 30
0.0
  0
SPLINE
  5
69
330
1F
100
AcDbEntity
  8
ILUSTRACE
100
AcDbSpline
210
0.0
220
0.0
230
1.0
 70
     8
 71
     3
 72
    12
 73
     8
 74
     0
 42
0.0000000001
 43
0.0000000001
 40
0.0
 40
0.0
 40
0.0
 40
0.0
 40
0.3333333333333333
 40
0.3333333333333333
 40
0.3333333333333333
 40
0.3333333333333333
 40
1.0
 40
1.0
 40
1.0
 40
1.0
 10
-18.903
 20
5.8064
 30
0.0
 10
-19.5144
 20
5.7798
 30
0.0
 10
-19.7729
 20
4.9607
 30
0.0
 10
-19.2159
 20
4.639
 30
0.0
 10
-19.2159
 20
4.639
 30
0.0
 10
-19.1184
 20
4.5828
 30
0.0
 10
-19.0141
 20
4.56
 30
0.0
 10
-18.903
 20
4.5551
 30
0.0
  0
SPLINE
  5
6A
330
1F
100
AcDbEntity
  8
ILUSTRACE
100
AcDbSpline
210
0.0
220
0.0
230
1.0
 70
    24
 71
     3
 72
     8
 73
     4
 74
     0
 42
0.0000000001
 43
0.0000000001
 40
0.0
 40
0.0
 40
0.0
 40
0.0
 40
1.0
 40
1.0
 40
1.0
 40
1.0
 10
21.0846
 20
6.307
 30
0.0
 10
21.0846
 20
6.307
 30
0.0
 10
18.4691
 20
6.307
 30
0.0
 10
18.4691
 20
6.307
 30
0.0
  0
SPLINE
  5
6B
330
1F
100
AcDbEntity
  8
ILUSTRACE
100
AcDbSpline
210
0.0
220
0.0
230
1.0
 70
    24
 71
     3
 72
     8
 73
     4
 74
     0
 42
0.0000000001
 43
0.0000000001
 40
0.0
 40
0.0
 40
0.0
 40
0.0
 40
1.0
 40
1.0
 40
1.0
 40
1.0
 10
25.0884
 20
7.3079
 30
0.0
 10
25.0884
 20
7.3079
 30
0.0
 10
18.8911
 20
7.3079
 30
0.0
 10
18.8911
 20
7.3079
 30
0.0
  0
SPLINE
  5
6C
330
1F
100
AcDbEntity
  8
ILUSTRACE
100
AcDbSpline
210
0.0
220
0.0
230
1.0
 70
    24
 71
     3
 72
     8
 73
     4
 74
     0
 42
0.0000000001
 43
0.0000000001
 40
0.0
 40
0.0
 40
0.0
 40
0.0
 40
1.0
 40
1.0
 40
1.0
 40
1.0
 10
24.0572
 20
7.3079
 30
0.0
 10
24.0572
 20
7.3079
 30
0.0
 10
24.4391
 20
7.3079
 30
0.0
 10
24.4391
 20
7.3079
 30
0.0
  0
SPLINE
  5
6D
330
1F
100
AcDbEntity
  8
ILUSTRACE
100
AcDbSpline
210
0.0
220
0.0
230
1.0
 70
    24
 71
     3
 72
     8
 73
     4
 74
     0
 42
0.0000000001
 43
0.0000000001
 40
0.0
 40
0.0
 40
0.0
 40
0.0
 40
1.0
 40
1.0
 40
1.0
 40
1.0
 10
22.1914
 20
6.307
 30
0.0
 10
22.1914
 20
6.307
 30
0.0
 10
24.3731
 20
6.307
 30
0.0
 10
24.3731
 20
6.307
 30
0.0
  0
SPLINE
  5
6E
330
1F
100
AcDbEntity
  8
ILUSTRACE
100
AcDbSpline
210
0.0
220
0.0
230
1.0
 70
    24
 71
     3
 72
     8
 73
     4
 74
     0
 42
0.0000000001
 43
0.0000000001
 40
0.0
 40
0.0
 40
0.0
 40
0.0
 40
1.0
 40
1.0
 40
1.0
 40
1.0
 10
21.0846
 20
6.0566
 30
0.0
 10
21.0846
 20
6.0566
 30
0.0
 10
22.1914
 20
6.0566
 30
0.0
 10
22.1914
 20
6.0566
 30
0.0
  0
SPLINE
  5
6F
330
1F
100
AcDbEntity
  8
ILUSTRACE
100
AcDbSpline
210
0.0
220
0.0
230
1.0
 70
    24
 71
     3
 72
     8
 73
     4
 74
     0
 42
0.0000000001
 43
0.0000000001
 40
0.0
 40
0.0
 40
0.0
 40
0.0
 40
1.0
 40
1.0
 40
1.0
 40
1.0
 10
22.1914
 20
6.307
 30
0.0
 10
22.1914
 20
6.307
 30
0.0
 10
22.1914
 20
6.0566
 30
0.0
 10
22.1914
 20
6.0566
 30
0.0
  0
SPLINE
  5
70
330
1F
100
AcDbEntity
  8
ILUSTRACE
100
AcDbSpline
210
0.0
220
0.0
230
1.0
 70
    24
 71
     3
 72
     8
 73
     4
 74
     0
 42
0.0000000001
 43
0.0000000001
 40
0.0
 40
0.0
 40
0.0
 40
0.0
 40
1.0
 40
1.0
 40
1.0
 40
1.0
 10
18.4691
 20
6.8072
 30
0.0
 10
18.4691
 20
6.8072
 30
0.0
 10
17.7485
 20
6.8072
 30
0.0
 10
17.7485
 20
6.8072
 30
0.0
  0
SPLINE
  5
71
330
1F
100
AcDbEntity
  8
ILUSTRACE
100
AcDbSpline
210
0.0
220
0.0
230
1.0
 70
    24
 71
     3
 72
     8
 73
     4
 74
     0
 42
0.0000000001
 43
0.0000000001
 40
0.0
 40
0.0
 40
0.0
 40
0.0
 40
1.0
 40
1.0
 40
1.0
 40
1.0
 10
-13.1492
 20
6.307
 30
0.0
 10
-13.1492
 20
6.307
 30
0.0
 10
-15.1107
 20
6.307
 30
0.0
 10
-15.1107
 20
6.307
 30
0.0
  0
SPLINE
  5
72
330
1F
100
AcDbEntity
  8
ILUSTRACE
100
AcDbSpline
210
0.0
220
0.0
230
1.0
 70
    24
 71
     3
 72
     8
 73
     4
 74
     0
 42
0.0000000001
 43
0.0000000001
 40
0.0
 40
0.0
 40
0.0
 40
0.0
 40
1.0
 40
1.0
 40
1.0
 40
1.0
 10
-9.7003
 20
6.307
 30
0.0
 10
-9.7003
 20
6.307
 30
0.0
 10
-12.1349
 20
6.307
 30
0.0
 10
-12.1349
 20
6.307
 30
0.0
  0
SPLINE
  5
73
330
1F
100
AcDbEntity
  8
ILUSTRACE
100
AcDbSpline
210
0.0
220
0.0
230
1.0
 70
    24
 71
     3
 72
     8
 73
     4
 74
     0
 42
0.0000000001
 43
0.0000000001
 40
0.0
 40
0.0
 40
0.0
 40
0.0
 40
1.0
 40
1.0
 40
1.0
 40
1.0
 10
-13.1492
 20
6.307
 30
0.0
 10
-13.1492
 20
6.307
 30
0.0
 10
-13.1492
 20
6.0566
 30
0.0
 10
-13.1492
 20
6.0566
 30
0.0
  0
SPLINE
  5
74
330
1F
100
AcDbEntity
  8
ILUSTRACE
100
AcDbSpline
210
0.0
220
0.0
230
1.0
 70
    24
 71
     3
 72
     8
 73
     4
 74
     0
 42
0.0000000001
 43
0.0000000001
 40
0.0
 40
0.0
 40
0.0
 40
0.0
 40
1.0
 40
1.0
 40
1.0
 40
1.0
 10
-12.1349
 20
6.0566
 30
0.0
 10
-12.1349
 20
6.0566
 30
0.0
 10
-13.1492
 20
6.0566
 30
0.0
 10
-13.1492
 20
6.0566
 30
0.0
  0
SPLINE
  5
75
330
1F
100
AcDbEntity
  8
ILUSTRACE
100
AcDbSpline
210
0.0
220
0.0
230
1.0
 70
    24
 71
     3
 72
     8
 73
     4
 74
     0
 42
0.0000000001
 43
0.0000000001
 40
0.0
 40
0.0
 40
0.0
 40
0.0
 40
1.0
 40
1.0
 40
1.0
 40
1.0
 10
-3.3395
 20
6.8077
 30
0.0
 10
-3.3395
 20
6.8077
 30
0.0
 10
-9.7003
 20
6.8077
 30
0.0
 10
-9.7003
 20
6.8077
 30
0.0
  0
SPLINE
  5
76
330
1F
100
AcDbEntity
  8
ILUSTRACE
100
AcDbSpline
210
0.0
220
0.0
230
1.0
 70
    24
 71
     3
 72
     8
 73
     4
 74
     0
 42
0.0000000001
 43
0.0000000001
 40
0.0
 40
0.0
 40
0.0
 40
0.0
 40
1.0
 40
1.0
 40
1.0
 40
1.0
 10
-9.5398
 20
7.531
 30
0.0
 10
-9.5398
 20
7.531
 30
0.0
 10
-3.056
 20
7.531
 30
0.0
 10
-3.056
 20
7.531
 30
0.0
  0
SPLINE
  5
77
330
1F
100
AcDbEntity
  8
ILUSTRACE
100
AcDbSpline
210
0.0
220
0.0
230
1.0
 70
    24
 71
     3
 72
     8
 73
     4
 74
     0
 42
0.0000000001
 43
0.0000000001
 40
0.0
 40
0.0
 40
0.0
 40
0.0
 40
1.0
 40
1.0
 40
1.0
 40
1.0
 10
-9.5398
 20
7.531
 30
0.0
 10
-9.5398
 20
7.531
 30
0.0
 10
-9.4555
 20
7.531
 30
0.0
 10
-9.4555
 20
7.531
 30
0.0
  0
SPLINE
  5
78
330
1F
100
AcDbEntity
  8
ILUSTRACE
100
AcDbSpline
210
0.0
220
0.0
230
1.0
 70
    24
 71
     3
 72
     8
 73
     4
 74
     0
 42
0.0000000001
 43
0.0000000001
 40
0.0
 40
0.0
 40
0.0
 40
0.0
 40
1.0
 40
1.0
 40
1.0
 40
1.0
 10
25.0884
 20
6.8075
 30
0.0
 10
25.0884
 20
6.8075
 30
0.0
 10
24.3731
 20
6.8075
 30
0.0
 10
24.3731
 20
6.8075
 30
0.0
  0
SPLINE
  5
79
330
1F
100
AcDbEntity
  8
ILUSTRACE
100
AcDbSpline
210
0.0
220
0.0
230
1.0
 70
     8
 71
     3
 72
     8
 73
     4
 74
     0
 42
0.0000000001
 43
0.0000000001
 40
0.0
 40
0.0
 40
0.0
 40
0.0
 40
1.0
 40
1.0
 40
1.0
 40
1.0
 10
18.8911
 20
7.3079
 30
0.0
 10
18.3862
 20
7.2686
 30
0.0
 10
18.4691
 20
6.6508
 30
0.0
 10
18.4691
 20
6.307
 30
0.0
  0
SPLINE
  5
7A
330
1F
100
AcDbEntity
  8
ILUSTRACE
100
AcDbSpline
210
0.0
220
0.0
230
1.0
 70
     8
 71
     3
 72
     8
 73
     4
 74
     0
 42
0.0000000001
 43
0.0000000001
 40
0.0
 40
0.0
 40
0.0
 40
0.0
 40
1.0
 40
1.0
 40
1.0
 40
1.0
 10
24.0572
 20
7.3079
 30
0.0
 10
24.4773
 20
7.2647
 30
0.0
 10
24.3731
 20
6.5339
 30
0.0
 10
24.3731
 20
6.307
 30
0.0
  0
SPLINE
  5
7B
330
1F
100
AcDbEntity
  8
ILUSTRACE
100
AcDbSpline
210
0.0
220
0.0
230
1.0
 70
     8
 71
     3
 72
    12
 73
     8
 74
     0
 42
0.0000000001
 43
0.0000000001
 40
0.0
 40
0.0
 40
0.0
 40
0.0
 40
0.3333333333333333
 40
0.3333333333333333
 40
0.3333333333333333
 40
0.3333333333333333
 40
1.0
 40
1.0
 40
1.0
 40
1.0
 10
-3.2664
 20
7.241
 30
0.0
 10
-3.2223
 20
7.0378
 30
0.0
 10
-3.3206
 20
6.8748
 30
0.0
 10
-3.3872
 20
6.688
 30
0.0
 10
-3.3872
 20
6.688
 30
0.0
 10
-3.4319
 20
6.5633
 30
0.0
 10
-3.4568
 20
6.4375
 30
0.0
 10
-3.4787
 20
6.307
 30
0.0
  0
SPLINE
  5
7C
330
1F
100
AcDbEntity
  8
ILUSTRACE
100
AcDbSpline
210
0.0
220
0.0
230
1.0
 70
     8
 71
     3
 72
    12
 73
     8
 74
     0
 42
0.0000000001
 43
0.0000000001
 40
0.0
 40
0.0
 40
0.0
 40
0.0
 40
0.3333333333333333
 40
0.3333333333333333
 40
0.3333333333333333
 40
0.3333333333333333
 40
1.0
 40
1.0
 40
1.0
 40
1.0
 10
-3.4084
 20
7.3079
 30
0.0
 10
-7.2159
 20
7.3079
 30
0.0
 10
-11.0232
 20
7.3079
 30
0.0
 10
-14.8303
 20
7.3079
 30
0.0
 10
-14.8303
 20
7.3079
 30
0.0
 10
-15.0529
 20
7.2823
 30
0.0
 10
-15.11
 20
6.9905
 30
0.0
 10
-15.1107
 20
6.8075
 30
0.0
  0
SPLINE
  5
7D
330
1F
100
AcDbEntity
  8
ILUSTRACE
100
AcDbSpline
210
0.0
220
0.0
230
1.0
 70
    24
 71
     3
 72
     8
 73
     4
 74
     0
 42
0.0000000001
 43
0.0000000001
 40
0.0
 40
0.0
 40
0.0
 40
0.0
 40
1.0
 40
1.0
 40
1.0
 40
1.0
 10
-15.1107
 20
6.8075
 30
0.0
 10
-15.1107
 20
6.8075
 30
0.0
 10
-15.1107
 20
6.307
 30
0.0
 10
-15.1107
 20
6.307
 30
0.0
  0
SPLINE
  5
7E
330
1F
100
AcDbEntity
  8
ILUSTRACE
100
AcDbSpline
210
0.0
220
0.0
230
1.0
 70
     8
 71
     3
 72
     8
 73
     4
 74
     0
 42
0.0000000001
 43
0.0000000001
 40
0.0
 40
0.0
 40
0.0
 40
0.0
 40
1.0
 40
1.0
 40
1.0
 40
1.0
 10
1.5325
 20
8.7295
 30
0.0
 10
-1.2739
 20
8.5478
 30
0.0
 10
-4.0746
 20
8.3622
 30
0.0
 10
-6.8571
 20
7.9388
 30
0.0
  0
SPLINE
  5
7F
330
1F
100
AcDbEntity
  8
ILUSTRACE
100
AcDbSpline
210
0.0
220
0.0
230
1.0
 70
    24
 71
     3
 72
     8
 73
     4
 74
     0
 42
0.0000000001
 43
0.0000000001
 40
0.0
 40
0.0
 40
0.0
 40
0.0
 40
1.0
 40
1.0
 40
1.0
 40
1.0
 10
-6.8571
 20
7.9388
 30
0.0
 10
-6.8571
 20
7.9388
 30
0.0
 10
-8.5503
 20
7.6814
 30
0.0
 10
-8.5503
 20
7.6814
 30
0.0
  0
SPLINE
  5
80
330
1F
100
AcDbEntity
  8
ILUSTRACE
100
AcDbSpline
210
0.0
220
0.0
230
1.0
 70
     8
 71
     3
 72
     8
 73
     4
 74
     0
 42
0.0000000001
 43
0.0000000001
 40
0.0
 40
0.0
 40
0.0
 40
0.0
 40
1.0
 40
1.0
 40
1.0
 40
1.0
 10
-8.5503
 20
7.6814
 30
0.0
 10
-9.0762
 20
7.6014
 30
0.0
 10
-9.6399
 20
7.5989
 30
0.0
 10
-10.1019
 20
7.3079
 30
0.0
  0
SPLINE
  5
81
330
1F
100
AcDbEntity
  8
ILUSTRACE
100
AcDbSpline
210
0.0
220
0.0
230
1.0
 70
    24
 71
     3
 72
     8
 73
     4
 74
     0
 42
0.0000000001
 43
0.0000000001
 40
0.0
 40
0.0
 40
0.0
 40
0.0
 40
1.0
 40
1.0
 40
1.0
 40
1.0
 10
-10.1019
 20
7.3079
 30
0.0
 10
-10.1019
 20
7.3079
 30
0.0
 10
-11.6442
 20
7.3079
 30
0.0
 10
-11.6442
 20
7.3079
 30
0.0
  0
SPLINE
  5
82
330
1F
100
AcDbEntity
  8
ILUSTRACE
100
AcDbSpline
210
0.0
220
0.0
230
1.0
 70
     8
 71
     3
 72
    12
 73
     8
 74
     0
 42
0.0000000001
 43
0.0000000001
 40
0.0
 40
0.0
 40
0.0
 40
0.0
 40
0.3333333333333333
 40
0.3333333333333333
 40
0.3333333333333333
 40
0.3333333333333333
 40
1.0
 40
1.0
 40
1.0
 40
1.0
 10
-5.8597
 20
8.0896
 30
0.0
 10
-3.3971
 20
8.3562
 30
0.0
 10
-0.941
 20
8.6227
 30
0.0
 10
1.5351
 20
8.7295
 30
0.0
 10
1.5351
 20
8.7295
 30
0.0
 10
5.799
 20
8.9137
 30
0.0
 10
10.0834
 20
8.7687
 30
0.0
 10
14.3252
 20
8.3089
 30
0.0
  0
SPLINE
  5
83
330
1F
100
AcDbEntity
  8
ILUSTRACE
100
AcDbSpline
210
0.0
220
0.0
230
1.0
 70
     8
 71
     3
 72
     8
 73
     4
 74
     0
 42
0.0000000001
 43
0.0000000001
 40
0.0
 40
0.0
 40
0.0
 40
0.0
 40
1.0
 40
1.0
 40
1.0
 40
1.0
 10
-3.2587
 20
7.0581
 30
0.0
 10
-3.2327
 20
7.1903
 30
0.0
 10
-3.2571
 20
7.3002
 30
0.0
 10
-3.4075
 20
7.3092
 30
0.0
  0
SPLINE
  5
84
330
1F
100
AcDbEntity
  8
ILUSTRACE
100
AcDbSpline
210
0.0
220
0.0
230
1.0
 70
     8
 71
     3
 72
     8
 73
     4
 74
     0
 42
0.0000000001
 43
0.0000000001
 40
0.0
 40
0.0
 40
0.0
 40
0.0
 40
1.0
 40
1.0
 40
1.0
 40
1.0
 10
-9.7003
 20
6.307
 30
0.0
 10
-9.7003
 20
6.623
 30
0.0
 10
-9.6112
 20
7.2673
 30
0.0
 10
-10.0964
 20
7.3079
 30
0.0
  0
SPLINE
  5
85
330
1F
100
AcDbEntity
  8
ILUSTRACE
100
AcDbSpline
210
0.0
220
0.0
230
1.0
 70
     8
 71
     3
 72
     8
 73
     4
 74
     0
 42
0.0000000001
 43
0.0000000001
 40
0.0
 40
0.0
 40
0.0
 40
0.0
 40
1.0
 40
1.0
 40
1.0
 40
1.0
 10
14.3318
 20
8.3089
 30
0.0
 10
12.5439
 20
8.5027
 30
0.0
 10
10.7551
 20
8.6133
 30
0.0
 10
8.9601
 20
8.7295
 30
0.0
  0
SPLINE
  5
86
330
1F
100
AcDbEntity
  8
ILUSTRACE
100
AcDbSpline
210
0.0
220
0.0
230
1.0
 70
    24
 71
     3
 72
     8
 73
     4
 74
     0
 42
0.0000000001
 43
0.0000000001
 40
0.0
 40
0.0
 40
0.0
 40
0.0
 40
1.0
 40
1.0
 40
1.0
 40
1.0
 10
-19.0283
 20
4.5551
 30
0.0
 10
-19.0283
 20
4.5551
 30
0.0
 10
29.5207
 20
4.5551
 30
0.0
 10
29.5207
 20
4.5551
 30
0.0
  0
SPLINE
  5
87
330
1F
100
AcDbEntity
  8
ILUSTRACE
100
AcDbSpline
210
0.0
220
0.0
230
1.0
 70
    24
 71
     3
 72
     8
 73
     4
 74
     0
 42
0.0000000001
 43
0.0000000001
 40
0.0
 40
0.0
 40
0.0
 40
0.0
 40
1.0
 40
1.0
 40
1.0
 40
1.0
 10
29.5207
 20
3.8045
 30
0.0
 10
29.5207
 20
3.8045
 30
0.0
 10
29.5207
 20
4.5551
 30
0.0
 10
29.5207
 20
4.5551
 30
0.0
  0
SPLINE
  5
88
330
1F
100
AcDbEntity
  8
ILUSTRACE
100
AcDbSpline
210
0.0
220
0.0
230
1.0
 70
    24
 71
     3
 72
     8
 73
     4
 74
     0
 42
0.0000000001
 43
0.0000000001
 40
0.0
 40
0.0
 40
0.0
 40
0.0
 40
1.0
 40
1.0
 40
1.0
 40
1.0
 10
29.5207
 20
3.8045
 30
0.0
 10
29.5207
 20
3.8045
 30
0.0
 10
-19.0283
 20
3.8045
 30
0.0
 10
-19.0283
 20
3.8045
 30
0.0
  0
SPLINE
  5
89
330
1F
100
AcDbEntity
  8
ILUSTRACE
100
AcDbSpline
210
0.0
220
0.0
230
1.0
 70
    24
 71
     3
 72
     8
 73
     4
 74
     0
 42
0.0000000001
 43
0.0000000001
 40
0.0
 40
0.0
 40
0.0
 40
0.0
 40
1.0
 40
1.0
 40
1.0
 40
1.0
 10
-19.0283
 20
4.5551
 30
0.0
 10
-19.0283
 20
4.5551
 30
0.0
 10
-19.0283
 20
3.8045
 30
0.0
 10
-19.0283
 20
3.8045
 30
0.0
  0
SPLINE
  5
8A
330
1F
100
AcDbEntity
  8
ILUSTRACE
100
AcDbSpline
210
0.0
220
0.0
230
1.0
 70
    24
 71
     3
 72
     8
 73
     4
 74
     0
 42
0.0000000001
 43
0.0000000001
 40
0.0
 40
0.0
 40
0.0
 40
0.0
 40
1.0
 40
1.0
 40
1.0
 40
1.0
 10
27.231
 20
-11.7941
 30
0.0
 10
27.231
 20
-11.7941
 30
0.0
 10
-16.7383
 20
-11.7941
 30
0.0
 10
-16.7383
 20
-11.7941
 30
0.0
  0
SPLINE
  5
8B
330
1F
100
AcDbEntity
  8
ILUSTRACE
100
AcDbSpline
210
0.0
220
0.0
230
1.0
 70
    24
 71
     3
 72
     8
 73
     4
 74
     0
 42
0.0000000001
 43
0.0000000001
 40
0.0
 40
0.0
 40
0.0
 40
0.0
 40
1.0
 40
1.0
 40
1.0
 40
1.0
 10
-11.1221
 20
8.0589
 30
0.0
 10
-11.1221
 20
8.0589
 30
0.0
 10
-11.9182
 20
8.0589
 30
0.0
 10
-11.9182
 20
8.0589
 30
0.0
  0
SPLINE
  5
8C
330
1F
100
AcDbEntity
  8
ILUSTRACE
100
AcDbSpline
210
0.0
220
0.0
230
1.0
 70
    24
 71
     3
 72
     8
 73
     4
 74
     0
 42
0.0000000001
 43
0.0000000001
 40
0.0
 40
0.0
 40
0.0
 40
0.0
 40
1.0
 40
1.0
 40
1.0
 40
1.0
 10
-3.8394
 20
8.3089
 30
0.0
 10
-3.8394
 20
8.3089
 30
0.0
 10
-19.0283
 20
8.3089
 30
0.0
 10
-19.0283
 20
8.3089
 30
0.0
  0
SPLINE
  5
8D
330
1F
100
AcDbEntity
  8
ILUSTRACE
100
AcDbSpline
210
0.0
220
0.0
230
1.0
 70
    24
 71
     3
 72
     8
 73
     4
 74
     0
 42
0.0000000001
 43
0.0000000001
 40
0.0
 40
0.0
 40
0.0
 40
0.0
 40
1.0
 40
1.0
 40
1.0
 40
1.0
 10
-19.0283
 20
5.8064
 30
0.0
 10
-19.0283
 20
5.8064
 30
0.0
 10
-19.0283
 20
8.3089
 30
0.0
 10
-19.0283
 20
8.3089
 30
0.0
  0
SPLINE
  5
8E
330
1F
100
AcDbEntity
  8
ILUSTRACE
100
AcDbSpline
210
0.0
220
0.0
230
1.0
 70
    24
 71
     3
 72
     8
 73
     4
 74
     0
 42
0.0000000001
 43
0.0000000001
 40
0.0
 40
0.0
 40
0.0
 40
0.0
 40
1.0
 40
1.0
 40
1.0
 40
1.0
 10
-18.2776
 20
5.8064
 30
0.0
 10
-18.2776
 20
5.8064
 30
0.0
 10
28.77
 20
5.8064
 30
0.0
 10
28.77
 20
5.8064
 30
0.0
  0
SPLINE
  5
8F
330
1F
100
AcDbEntity
  8
ILUSTRACE
100
AcDbSpline
210
0.0
220
0.0
230
1.0
 70
    24
 71
     3
 72
     8
 73
     4
 74
     0
 42
0.0000000001
 43
0.0000000001
 40
0.0
 40
0.0
 40
0.0
 40
0.0
 40
1.0
 40
1.0
 40
1.0
 40
1.0
 10
29.5207
 20
8.3089
 30
0.0
 10
29.5207
 20
8.3089
 30
0.0
 10
29.5207
 20
5.8064
 30
0.0
 10
29.5207
 20
5.8064
 30
0.0
  0
SPLINE
  5
90
330
1F
100
AcDbEntity
  8
ILUSTRACE
100
AcDbSpline
210
0.0
220
0.0
230
1.0
 70
    24
 71
     3
 72
     8
 73
     4
 74
     0
 42
0.0000000001
 43
0.0000000001
 40
0.0
 40
0.0
 40
0.0
 40
0.0
 40
1.0
 40
1.0
 40
1.0
 40
1.0
 10
-19.0283
 20
5.8064
 30
0.0
 10
-19.0283
 20
5.8064
 30
0.0
 10
29.5207
 20
5.8064
 30
0.0
 10
29.5207
 20
5.8064
 30
0.0
  0
SPLINE
  5
91
330
1F
100
AcDbEntity
  8
ILUSTRACE
100
AcDbSpline
210
0.0
220
0.0
230
1.0
 70
    24
 71
     3
 72
     8
 73
     4
 74
     0
 42
0.0000000001
 43
0.0000000001
 40
0.0
 40
0.0
 40
0.0
 40
0.0
 40
1.0
 40
1.0
 40
1.0
 40
1.0
 10
-13.2755
 20
6.307
 30
0.0
 10
-13.2755
 20
6.307
 30
0.0
 10
-15.561
 20
6.307
 30
0.0
 10
-15.561
 20
6.307
 30
0.0
  0
SPLINE
  5
92
330
1F
100
AcDbEntity
  8
ILUSTRACE
100
AcDbSpline
210
0.0
220
0.0
230
1.0
 70
    24
 71
     3
 72
     8
 73
     4
 74
     0
 42
0.0000000001
 43
0.0000000001
 40
0.0
 40
0.0
 40
0.0
 40
0.0
 40
1.0
 40
1.0
 40
1.0
 40
1.0
 10
-12.441
 20
7.3079
 30
0.0
 10
-12.441
 20
7.3079
 30
0.0
 10
-15.561
 20
7.3079
 30
0.0
 10
-15.561
 20
7.3079
 30
0.0
  0
SPLINE
  5
93
330
1F
100
AcDbEntity
  8
ILUSTRACE
100
AcDbSpline
210
0.0
220
0.0
230
1.0
 70
    24
 71
     3
 72
     8
 73
     4
 74
     0
 42
0.0000000001
 43
0.0000000001
 40
0.0
 40
0.0
 40
0.0
 40
0.0
 40
1.0
 40
1.0
 40
1.0
 40
1.0
 10
-3.056
 20
6.307
 30
0.0
 10
-3.056
 20
6.307
 30
0.0
 10
-11.9182
 20
6.307
 30
0.0
 10
-11.9182
 20
6.307
 30
0.0
  0
SPLINE
  5
94
330
1F
100
AcDbEntity
  8
ILUSTRACE
100
AcDbSpline
210
0.0
220
0.0
230
1.0
 70
    24
 71
     3
 72
     8
 73
     4
 74
     0
 42
0.0000000001
 43
0.0000000001
 40
0.0
 40
0.0
 40
0.0
 40
0.0
 40
1.0
 40
1.0
 40
1.0
 40
1.0
 10
-13.2755
 20
6.0566
 30
0.0
 10
-13.2755
 20
6.0566
 30
0.0
 10
-11.9182
 20
6.0566
 30
0.0
 10
-11.9182
 20
6.0566
 30
0.0
  0
SPLINE
  5
95
330
1F
100
AcDbEntity
  8
ILUSTRACE
100
AcDbSpline
210
0.0
220
0.0
230
1.0
 70
    24
 71
     3
 72
     8
 73
     4
 74
     0
 42
0.0000000001
 43
0.0000000001
 40
0.0
 40
0.0
 40
0.0
 40
0.0
 40
1.0
 40
1.0
 40
1.0
 40
1.0
 10
-11.9182
 20
6.307
 30
0.0
 10
-11.9182
 20
6.307
 30
0.0
 10
-11.9182
 20
6.0566
 30
0.0
 10
-11.9182
 20
6.0566
 30
0.0
  0
SPLINE
  5
96
330
1F
100
AcDbEntity
  8
ILUSTRACE
100
AcDbSpline
210
0.0
220
0.0
230
1.0
 70
    24
 71
     3
 72
     8
 73
     4
 74
     0
 42
0.0000000001
 43
0.0000000001
 40
0.0
 40
0.0
 40
0.0
 40
0.0
 40
1.0
 40
1.0
 40
1.0
 40
1.0
 10
-3.056
 20
8.3089
 30
0.0
 10
-3.056
 20
8.3089
 30
0.0
 10
-3.056
 20
6.307
 30
0.0
 10
-3.056
 20
6.307
 30
0.0
  0
SPLINE
  5
97
330
1F
100
AcDbEntity
  8
ILUSTRACE
100
AcDbSpline
210
0.0
220
0.0
230
1.0
 70
    24
 71
     3
 72
     8
 73
     4
 74
     0
 42
0.0000000001
 43
0.0000000001
 40
0.0
 40
0.0
 40
0.0
 40
0.0
 40
1.0
 40
1.0
 40
1.0
 40
1.0
 10
-3.056
 20
8.3089
 30
0.0
 10
-3.056
 20
8.3089
 30
0.0
 10
29.5207
 20
8.3089
 30
0.0
 10
29.5207
 20
8.3089
 30
0.0
  0
SPLINE
  5
98
330
1F
100
AcDbEntity
  8
ILUSTRACE
100
AcDbSpline
210
0.0
220
0.0
230
1.0
 70
    24
 71
     3
 72
     8
 73
     4
 74
     0
 42
0.0000000001
 43
0.0000000001
 40
0.0
 40
0.0
 40
0.0
 40
0.0
 40
1.0
 40
1.0
 40
1.0
 40
1.0
 10
26.9987
 20
8.3089
 30
0.0
 10
26.9987
 20
8.3089
 30
0.0
 10
26.9987
 20
6.307
 30
0.0
 10
26.9987
 20
6.307
 30
0.0
  0
SPLINE
  5
99
330
1F
100
AcDbEntity
  8
ILUSTRACE
100
AcDbSpline
210
0.0
220
0.0
230
1.0
 70
    24
 71
     3
 72
     8
 73
     4
 74
     0
 42
0.0000000001
 43
0.0000000001
 40
0.0
 40
0.0
 40
0.0
 40
0.0
 40
1.0
 40
1.0
 40
1.0
 40
1.0
 10
22.4108
 20
6.307
 30
0.0
 10
22.4108
 20
6.307
 30
0.0
 10
28.0566
 20
6.307
 30
0.0
 10
28.0566
 20
6.307
 30
0.0
  0
SPLINE
  5
9A
330
1F
100
AcDbEntity
  8
ILUSTRACE
100
AcDbSpline
210
0.0
220
0.0
230
1.0
 70
    24
 71
     3
 72
     8
 73
     4
 74
     0
 42
0.0000000001
 43
0.0000000001
 40
0.0
 40
0.0
 40
0.0
 40
0.0
 40
1.0
 40
1.0
 40
1.0
 40
1.0
 10
22.4108
 20
6.0566
 30
0.0
 10
22.4108
 20
6.0566
 30
0.0
 10
20.9368
 20
6.0566
 30
0.0
 10
20.9368
 20
6.0566
 30
0.0
  0
SPLINE
  5
9B
330
1F
100
AcDbEntity
  8
ILUSTRACE
100
AcDbSpline
210
0.0
220
0.0
230
1.0
 70
    24
 71
     3
 72
     8
 73
     4
 74
     0
 42
0.0000000001
 43
0.0000000001
 40
0.0
 40
0.0
 40
0.0
 40
0.0
 40
1.0
 40
1.0
 40
1.0
 40
1.0
 10
20.9368
 20
6.307
 30
0.0
 10
20.9368
 20
6.307
 30
0.0
 10
20.9368
 20
6.0566
 30
0.0
 10
20.9368
 20
6.0566
 30
0.0
  0
SPLINE
  5
9C
330
1F
100
AcDbEntity
  8
ILUSTRACE
100
AcDbSpline
210
0.0
220
0.0
230
1.0
 70
    24
 71
     3
 72
     8
 73
     4
 74
     0
 42
0.0000000001
 43
0.0000000001
 40
0.0
 40
0.0
 40
0.0
 40
0.0
 40
1.0
 40
1.0
 40
1.0
 40
1.0
 10
20.9368
 20
6.307
 30
0.0
 10
20.9368
 20
6.307
 30
0.0
 10
17.7485
 20
6.307
 30
0.0
 10
17.7485
 20
6.307
 30
0.0
  0
SPLINE
  5
9D
330
1F
100
AcDbEntity
  8
ILUSTRACE
100
AcDbSpline
210
0.0
220
0.0
230
1.0
 70
    24
 71
     3
 72
     8
 73
     4
 74
     0
 42
0.0000000001
 43
0.0000000001
 40
0.0
 40
0.0
 40
0.0
 40
0.0
 40
1.0
 40
1.0
 40
1.0
 40
1.0
 10
17.7485
 20
7.3079
 30
0.0
 10
17.7485
 20
7.3079
 30
0.0
 10
17.7485
 20
6.307
 30
0.0
 10
17.7485
 20
6.307
 30
0.0
  0
SPLINE
  5
9E
330
1F
100
AcDbEntity
  8
ILUSTRACE
100
AcDbSpline
210
0.0
220
0.0
230
1.0
 70
    24
 71
     3
 72
     8
 73
     4
 74
     0
 42
0.0000000001
 43
0.0000000001
 40
0.0
 40
0.0
 40
0.0
 40
0.0
 40
1.0
 40
1.0
 40
1.0
 40
1.0
 10
24.0572
 20
7.3079
 30
0.0
 10
24.0572
 20
7.3079
 30
0.0
 10
25.0884
 20
7.3079
 30
0.0
 10
25.0884
 20
7.3079
 30
0.0
  0
SPLINE
  5
9F
330
1F
100
AcDbEntity
  8
ILUSTRACE
100
AcDbSpline
210
0.0
220
0.0
230
1.0
 70
    24
 71
     3
 72
     8
 73
     4
 74
     0
 42
0.0000000001
 43
0.0000000001
 40
0.0
 40
0.0
 40
0.0
 40
0.0
 40
1.0
 40
1.0
 40
1.0
 40
1.0
 10
25.0884
 20
6.307
 30
0.0
 10
25.0884
 20
6.307
 30
0.0
 10
25.0884
 20
7.3079
 30
0.0
 10
25.0884
 20
7.3079
 30
0.0
  0
SPLINE
  5
A0
330
1F
100
AcDbEntity
  8
ILUSTRACE
100
AcDbSpline
210
0.0
220
0.0
230
1.0
 70
    24
 71
     3
 72
     8
 73
     4
 74
     0
 42
0.0000000001
 43
0.0000000001
 40
0.0
 40
0.0
 40
0.0
 40
0.0
 40
1.0
 40
1.0
 40
1.0
 40
1.0
 10
26.2685
 20
8.3089
 30
0.0
 10
26.2685
 20
8.3089
 30
0.0
 10
26.9987
 20
8.3089
 30
0.0
 10
26.9987
 20
8.3089
 30
0.0
  0
SPLINE
  5
A1
330
1F
100
AcDbEntity
  8
ILUSTRACE
100
AcDbSpline
210
0.0
220
0.0
230
1.0
 70
    24
 71
     3
 72
     8
 73
     4
 74
     0
 42
0.0000000001
 43
0.0000000001
 40
0.0
 40
0.0
 40
0.0
 40
0.0
 40
1.0
 40
1.0
 40
1.0
 40
1.0
 10
-4.9152
 20
8.3089
 30
0.0
 10
-4.9152
 20
8.3089
 30
0.0
 10
-3.8394
 20
8.3089
 30
0.0
 10
-3.8394
 20
8.3089
 30
0.0
  0
SPLINE
  5
A2
330
1F
100
AcDbEntity
  8
ILUSTRACE
100
AcDbSpline
210
0.0
220
0.0
230
1.0
 70
    24
 71
     3
 72
     8
 73
     4
 74
     0
 42
0.0000000001
 43
0.0000000001
 40
0.0
 40
0.0
 40
0.0
 40
0.0
 40
1.0
 40
1.0
 40
1.0
 40
1.0
 10
-4.9152
 20
8.3089
 30
0.0
 10
-4.9152
 20
8.3089
 30
0.0
 10
-4.9152
 20
8.1925
 30
0.0
 10
-4.9152
 20
8.1925
 30
0.0
  0
SPLINE
  5
A3
330
1F
100
AcDbEntity
  8
ILUSTRACE
100
AcDbSpline
210
0.0
220
0.0
230
1.0
 70
    24
 71
     3
 72
     8
 73
     4
 74
     0
 42
0.0000000001
 43
0.0000000001
 40
0.0
 40
0.0
 40
0.0
 40
0.0
 40
1.0
 40
1.0
 40
1.0
 40
1.0
 10
-6.6761
 20
7.3079
 30
0.0
 10
-6.6761
 20
7.3079
 30
0.0
 10
-7.4486
 20
7.3079
 30
0.0
 10
-7.4486
 20
7.3079
 30
0.0
  0
SPLINE
  5
A4
330
1F
100
AcDbEntity
  8
ILUSTRACE
100
AcDbSpline
210
0.0
220
0.0
230
1.0
 70
    24
 71
     3
 72
     8
 73
     4
 74
     0
 42
0.0000000001
 43
0.0000000001
 40
0.0
 40
0.0
 40
0.0
 40
0.0
 40
1.0
 40
1.0
 40
1.0
 40
1.0
 10
28.0566
 20
6.307
 30
0.0
 10
28.0566
 20
6.307
 30
0.0
 10
28.0566
 20
8.3089
 30
0.0
 10
28.0566
 20
8.3089
 30
0.0
  0
SPLINE
  5
A5
330
1F
100
AcDbEntity
  8
ILUSTRACE
100
AcDbSpline
210
0.0
220
0.0
230
1.0
 70
    24
 71
     3
 72
     8
 73
     4
 74
     0
 42
0.0000000001
 43
0.0000000001
 40
0.0
 40
0.0
 40
0.0
 40
0.0
 40
1.0
 40
1.0
 40
1.0
 40
1.0
 10
26.4756
 20
6.307
 30
0.0
 10
26.4756
 20
6.307
 30
0.0
 10
26.4756
 20
8.3089
 30
0.0
 10
26.4756
 20
8.3089
 30
0.0
  0
SPLINE
  5
A6
330
1F
100
AcDbEntity
  8
ILUSTRACE
100
AcDbSpline
210
0.0
220
0.0
230
1.0
 70
    24
 71
     3
 72
     8
 73
     4
 74
     0
 42
0.0000000001
 43
0.0000000001
 40
0.0
 40
0.0
 40
0.0
 40
0.0
 40
1.0
 40
1.0
 40
1.0
 40
1.0
 10
26.0449
 20
8.3089
 30
0.0
 10
26.0449
 20
8.3089
 30
0.0
 10
26.0449
 20
6.307
 30
0.0
 10
26.0449
 20
6.307
 30
0.0
  0
SPLINE
  5
A7
330
1F
100
AcDbEntity
  8
ILUSTRACE
100
AcDbSpline
210
0.0
220
0.0
230
1.0
 70
    24
 71
     3
 72
     8
 73
     4
 74
     0
 42
0.0000000001
 43
0.0000000001
 40
0.0
 40
0.0
 40
0.0
 40
0.0
 40
1.0
 40
1.0
 40
1.0
 40
1.0
 10
-15.561
 20
6.307
 30
0.0
 10
-15.561
 20
6.307
 30
0.0
 10
-15.561
 20
7.3079
 30
0.0
 10
-15.561
 20
7.3079
 30
0.0
  0
SPLINE
  5
A8
330
1F
100
AcDbEntity
  8
ILUSTRACE
100
AcDbSpline
210
0.0
220
0.0
230
1.0
 70
     8
 71
     3
 72
    12
 73
     8
 74
     0
 42
0.0000000001
 43
0.0000000001
 40
0.0
 40
0.0
 40
0.0
 40
0.0
 40
0.3333333333333333
 40
0.3333333333333333
 40
0.3333333333333333
 40
0.3333333333333333
 40
1.0
 40
1.0
 40
1.0
 40
1.0
 10
27.5184
 20
3.8045
 30
0.0
 10
27.5184
 20
3.8045
 30
0.0
 10
27.5003
 20
2.8036
 30
0.0
 10
27.5003
 20
2.8036
 30
0.0
 10
27.5003
 20
2.8036
 30
0.0
 10
27.5003
 20
2.8036
 30
0.0
 10
27.2492
 20
-10.7933
 30
0.0
 10
27.2492
 20
-10.7933
 30
0.0
  0
SPLINE
  5
A9
330
1F
100
AcDbEntity
  8
ILUSTRACE
100
AcDbSpline
210
0.0
220
0.0
230
1.0
 70
     8
 71
     3
 72
    16
 73
    12
 74
     0
 42
0.0000000001
 43
0.0000000001
 40
0.0
 40
0.0
 40
0.0
 40
0.0
 40
0.25
 40
0.25
 40
0.25
 40
0.25
 40
0.5
 40
0.5
 40
0.5
 40
0.5
 40
1.0
 40
1.0
 40
1.0
 40
1.0
 10
27.2492
 20
-10.7933
 30
0.0
 10
27.2358
 20
-11.5213
 30
0.0
 10
27.2603
 20
-12.2382
 30
0.0
 10
27.0597
 20
-12.9439
 30
0.0
 10
27.0597
 20
-12.9439
 30
0.0
 10
26.6658
 20
-14.328
 30
0.0
 10
25.6048
 20
-15.4635
 30
0.0
 10
24.2502
 20
-15.9503
 30
0.0
 10
24.2502
 20
-15.9503
 30
0.0
 10
23.7525
 20
-16.1293
 30
0.0
 10
23.2524
 20
-16.193
 30
0.0
 10
22.7272
 20
-16.2155
 30
0.0
  0
SPLINE
  5
AA
330
1F
100
AcDbEntity
  8
ILUSTRACE
100
AcDbSpline
210
0.0
220
0.0
230
1.0
 70
    24
 71
     3
 72
    12
 73
     8
 74
     0
 42
0.0000000001
 43
0.0000000001
 40
0.0
 40
0.0
 40
0.0
 40
0.0
 40
0.3333333333333333
 40
0.3333333333333333
 40
0.3333333333333333
 40
0.3333333333333333
 40
1.0
 40
1.0
 40
1.0
 40
1.0
 10
22.7272
 20
-16.2155
 30
0.0
 10
22.7272
 20
-16.2155
 30
0.0
 10
21.7262
 20
-16.2155
 30
0.0
 10
21.7262
 20
-16.2155
 30
0.0
 10
21.7262
 20
-16.2155
 30
0.0
 10
21.7262
 20
-16.2155
 30
0.0
 10
-11.2336
 20
-16.2155
 30
0.0
 10
-11.2336
 20
-16.2155
 30
0.0
  0
SPLINE
  5
AB
330
1F
100
AcDbEntity
  8
ILUSTRACE
100
AcDbSpline
210
0.0
220
0.0
230
1.0
 70
     8
 71
     3
 72
    16
 73
    12
 74
     0
 42
0.0000000001
 43
0.0000000001
 40
0.0
 40
0.0
 40
0.0
 40
0.0
 40
0.25
 40
0.25
 40
0.25
 40
0.25
 40
0.5
 40
0.5
 40
0.5
 40
0.5
 40
1.0
 40
1.0
 40
1.0
 40
1.0
 10
-11.2336
 20
-16.2155
 30
0.0
 10
-11.9616
 20
-16.2155
 30
0.0
 10
-12.6779
 20
-16.2532
 30
0.0
 10
-13.3872
 20
-16.0656
 30
0.0
 10
-13.3872
 20
-16.0656
 30
0.0
 10
-14.9094
 20
-15.6628
 30
0.0
 10
-16.1362
 20
-14.4583
 30
0.0
 10
-16.5674
 20
-12.9439
 30
0.0
 10
-16.5674
 20
-12.9439
 30
0.0
 10
-16.7678
 20
-12.2382
 30
0.0
 10
-16.7434
 20
-11.5213
 30
0.0
 10
-16.7569
 20
-10.7933
 30
0.0
  0
SPLINE
  5
AC
330
1F
100
AcDbEntity
  8
ILUSTRACE
100
AcDbSpline
210
0.0
220
0.0
230
1.0
 70
     8
 71
     3
 72
    12
 73
     8
 74
     0
 42
0.0000000001
 43
0.0000000001
 40
0.0
 40
0.0
 40
0.0
 40
0.0
 40
0.3333333333333333
 40
0.3333333333333333
 40
0.3333333333333333
 40
0.3333333333333333
 40
1.0
 40
1.0
 40
1.0
 40
1.0
 10
-16.7569
 20
-10.7933
 30
0.0
 10
-16.7569
 20
-10.7933
 30
0.0
 10
-17.0078
 20
2.8036
 30
0.0
 10
-17.0078
 20
2.8036
 30
0.0
 10
-17.0078
 20
2.8036
 30
0.0
 10
-17.0078
 20
2.8036
 30
0.0
 10
-17.0261
 20
3.8045
 30
0.0
 10
-17.0261
 20
3.8045
 30
0.0
  0
SPLINE
  5
AD
330
1F
100
AcDbEntity
  8
ILUSTRACE
100
AcDbSpline
210
0.0
220
0.0
230
1.0
 70
     8
 71
     3
 72
     8
 73
     4
 74
     0
 42
0.0000000001
 43
0.0000000001
 40
0.0
 40
0.0
 40
0.0
 40
0.0
 40
1.0
 40
1.0
 40
1.0
 40
1.0
 10
-12.441
 20
7.3079
 30
0.0
 10
-11.9516
 20
7.351
 30
0.0
 10
-11.9182
 20
7.9379
 30
0.0
 10
-11.9182
 20
8.3089
 30
0.0
  0
SPLINE
  5
AE
330
1F
100
AcDbEntity
  8
ILUSTRACE
100
AcDbSpline
210
0.0
220
0.0
230
1.0
 70
     8
 71
     3
 72
     8
 73
     4
 74
     0
 42
0.0000000001
 43
0.0000000001
 40
0.0
 40
0.0
 40
0.0
 40
0.0
 40
1.0
 40
1.0
 40
1.0
 40
1.0
 10
-10.5826
 20
7.3079
 30
0.0
 10
-10.9639
 20
7.3397
 30
0.0
 10
-11.1078
 20
7.7239
 30
0.0
 10
-11.1221
 20
8.0589
 30
0.0
  0
SPLINE
  5
AF
330
1F
100
AcDbEntity
  8
ILUSTRACE
100
AcDbSpline
210
0.0
220
0.0
230
1.0
 70
     8
 71
     3
 72
     8
 73
     4
 74
     0
 42
0.0000000001
 43
0.0000000001
 40
0.0
 40
0.0
 40
0.0
 40
0.0
 40
1.0
 40
1.0
 40
1.0
 40
1.0
 10
-11.6442
 20
7.3079
 30
0.0
 10
-11.5412
 20
7.3171
 30
0.0
 10
-11.4829
 20
7.3167
 30
0.0
 10
-11.3791
 20
7.3079
 30
0.0
  0
SPLINE
  5
B0
330
1F
100
AcDbEntity
  8
ILUSTRACE
100
AcDbSpline
210
0.0
220
0.0
230
1.0
 70
     8
 71
     3
 72
     8
 73
     4
 74
     0
 42
0.0000000001
 43
0.0000000001
 40
0.0
 40
0.0
 40
0.0
 40
0.0
 40
1.0
 40
1.0
 40
1.0
 40
1.0
 10
-11.5107
 20
7.3335
 30
0.0
 10
-11.131
 20
7.5108
 30
0.0
 10
-11.1221
 20
7.9469
 30
0.0
 10
-11.1221
 20
8.3089
 30
0.0
  0
SPLINE
  5
B1
330
1F
100
AcDbEntity
  8
ILUSTRACE
100
AcDbSpline
210
0.0
220
0.0
230
1.0
 70
    24
 71
     3
 72
    12
 73
     8
 74
     0
 42
0.0000000001
 43
0.0000000001
 40
0.0
 40
0.0
 40
0.0
 40
0.0
 40
0.3333333333333333
 40
0.3333333333333333
 40
0.3333333333333333
 40
0.3333333333333333
 40
1.0
 40
1.0
 40
1.0
 40
1.0
 10
17.7485
 20
7.3079
 30
0.0
 10
17.7485
 20
7.3079
 30
0.0
 10
18.7495
 20
7.3079
 30
0.0
 10
18.7495
 20
7.3079
 30
0.0
 10
18.7495
 20
7.3079
 30
0.0
 10
18.7495
 20
7.3079
 30
0.0
 10
20.8707
 20
7.3079
 30
0.0
 10
20.8707
 20
7.3079
 30
0.0
  0
SPLINE
  5
B2
330
1F
100
AcDbEntity
  8
ILUSTRACE
100
AcDbSpline
210
0.0
220
0.0
230
1.0
 70
     8
 71
     3
 72
    16
 73
    12
 74
     0
 42
0.0000000001
 43
0.0000000001
 40
0.0
 40
0.0
 40
0.0
 40
0.0
 40
0.25
 40
0.25
 40
0.25
 40
0.25
 40
0.5
 40
0.5
 40
0.5
 40
0.5
 40
1.0
 40
1.0
 40
1.0
 40
1.0
 10
20.8707
 20
7.3079
 30
0.0
 10
21.4087
 20
7.3079
 30
0.0
 10
22.0876
 20
7.0964
 30
0.0
 10
22.3394
 20
7.6835
 30
0.0
 10
22.3394
 20
7.6835
 30
0.0
 10
22.3638
 20
7.7396
 30
0.0
 10
22.385
 20
7.8035
 30
0.0
 10
22.3927
 20
7.8645
 30
0.0
 10
22.3927
 20
7.8645
 30
0.0
 10
22.4187
 20
8.0633
 30
0.0
 10
22.4108
 20
8.0944
 30
0.0
 10
22.4108
 20
8.3089
 30
0.0
  0
SPLINE
  5
B3
330
1F
100
AcDbEntity
  8
ILUSTRACE
100
AcDbSpline
210
0.0
220
0.0
230
1.0
 70
    24
 71
     3
 72
     8
 73
     4
 74
     0
 42
0.0000000001
 43
0.0000000001
 40
0.0
 40
0.0
 40
0.0
 40
0.0
 40
1.0
 40
1.0
 40
1.0
 40
1.0
 10
22.0133
 20
7.3298
 30
0.0
 10
22.0133
 20
7.3298
 30
0.0
 10
22.1369
 20
7.3079
 30
0.0
 10
22.1369
 20
7.3079
 30
0.0
  0
ENDSEC
  0
SECTION
  2
OBJECTS
  0
DICTIONARY
  5
C
330
0
100
AcDbDictionary
  3
ACAD_GROUP
350
D
  3
ACAD_LAYOUT
350
1A
  3
ACAD_MATERIAL
350
3B
  3
ACAD_MLEADERSTYLE
350
D6
  3
ACAD_MLINESTYLE
350
17
  3
ACAD_PLOTSETTINGS
350
19
  3
ACAD_VISUALSTYLE
350
2A
  3
ACDBHEADERROUNDTRIPXREC
350
B4
  3
ACDBVARIABLEDICTIONARY
350
D4
  0
DICTIONARY
  5
D
102
{ACAD_REACTORS
330
C
102
}
330
C
100
AcDbDictionary
  0
DICTIONARY
  5
1A
102
{ACAD_REACTORS
330
C
102
}
330
C
100
AcDbDictionary
  0
DICTIONARY
  5
3B
102
{ACAD_REACTORS
330
C
102
}
330
C
100
AcDbDictionary
  3
BYBLOCK
350
3D
  3
BYLAYER
350
3C
  3
GLOBAL
350
3E
  0
DICTIONARY
  5
D6
102
{ACAD_REACTORS
330
C
102
}
330
C
100
AcDbDictionary
  0
DICTIONARY
  5
17
102
{ACAD_REACTORS
330
C
102
}
330
C
100
AcDbDictionary
  3
STANDARD
350
18
  0
DICTIONARY
  5
19
102
{ACAD_REACTORS
330
C
102
}
330
C
100
AcDbDictionary
  0
DICTIONARY
  5
2A
102
{ACAD_REACTORS
330
C
102
}
330
C
100
AcDbDictionary
  3
2DWIREFRAME
350
2F
  3
3D_HIDDEN
350
31
  3
3DWIREFRAME
350
30
  3
BASIC
350
32
  3
BRIGHTEN
350
36
  3
COLORCHANGE
350
3A
  3
CONCEPTUAL
350
34
  3
DIM
350
35
  3
FACEPATTERN
350
39
  3
FLAT
350
2B
  3
FLATWITHEDGES
350
2C
  3
GOURAUD
350
2D
  3
GOURAUDWITHEDGES
350
2E
  3
LINEPATTERN
350
38
  3
REALISTIC
350
33
  3
THICKEN
350
37
  0
DICTIONARY
  5
B4
102
{ACAD_REACTORS
330
C
102
}
330
C
100
AcDbDictionary
  3
CEPSNTYPE
350
BD
  3
DIMSTYLEDATA
350
D3
  3
FINGERPRINTGUID
350
BE
  3
HYPERLINKBASE
350
B7
  3
INSUNITS
350
BC
  3
LAYOUTDICT
350
B9
  3
LWETCUNION
350
BB
  3
PLOTSETDICT
350
BA
  3
PSVPSCALE
350
C0
  3
PUCSBASE
350
C3
  3
PUCSORGBACK
350
C9
  3
PUCSORGBOTTOM
350
C5
  3
PUCSORGFRONT
350
C8
  3
PUCSORGLEFT
350
C6
  3
PUCSORGRIGHT
350
C7
  3
PUCSORGTOP
350
C4
  3
PUCSORTHOREF
350
C1
  3
PUCSORTHOVIEW
350
C2
  3
STYLESHEET
350
B8
  3
TSTACKALIGN
350
B5
  3
TSTACKSIZE
350
B6
  3
UCSBASE
350
CC
  3
UCSORGBACK
350
D2
  3
UCSORGBOTTOM
350
CE
  3
UCSORGFRONT
350
D1
  3
UCSORGLEFT
350
CF
  3
UCSORGRIGHT
350
D0
  3
UCSORGTOP
350
CD
  3
UCSORTHOREF
350
CA
  3
UCSORTHOVIEW
350
CB
  3
VERSIONGUID
350
BF
  0
DICTIONARY
  5
D4
102
{ACAD_REACTORS
330
C
102
}
330
C
100
AcDbDictionary
  3
DIMASSOC
350
D7
  3
HIDETEXT
350
D8
  0
MATERIAL
  5
3D
102
{ACAD_REACTORS
330
3B
102
}
102
{ACAD_XDICTIONARY
360
DB
102
}
330
3B
100
AcDbMaterial
  1
ByBlock
  0
MATERIAL
  5
3C
102
{ACAD_REACTORS
330
3B
102
}
102
{ACAD_XDICTIONARY
360
D9
102
}
330
3B
100
AcDbMaterial
  1
ByLayer
  0
MATERIAL
  5
3E
102
{ACAD_REACTORS
330
3B
102
}
102
{ACAD_XDICTIONARY
360
DD
102
}
330
3B
100
AcDbMaterial
  1
Global
  0
MLINESTYLE
  5
18
102
{ACAD_REACTORS
330
17
102
}
330
17
100
AcDbMlineStyle
  2
Standard
 70
     0
  3

 62
   256
 51
90.0
 52
90.0
 71
     2
 49
0.5
 62
   256
  6
BYLAYER
 49
-0.5
 62
   256
  6
BYLAYER
  0
ACAD_PROXY_OBJECT
  5
2F
102
{ACAD_REACTORS
330
2A
102
}
330
2A
100
AcDbProxyObject
 90
      499
 91
      501
 93
      436
310
42CC9915DA5C99599C985B595049028333333333333E3BF0000000000000FB0107901411070040501600405405064090741402480A0340
1001
ACAD
1000
AcDbSavedByObjectVersion
1070
     0
  0
ACAD_PROXY_OBJECT
  5
31
102
{ACAD_REACTORS
330
2A
102
}
330
2A
100
AcDbProxyObject
 90
      499
 91
      501
 93
      500
310
424CD108121A5919195B90640502408333333333333E3BF0000000000000FB01079024090700405020000000000001110200405405064090740C02480A0340
1001
ACAD
1000
AcDbSavedByObjectVersion
1070
     0
  0
ACAD_PROXY_OBJECT
  5
30
102
{ACAD_REACTORS
330
2A
102
}
330
2A
100
AcDbProxyObject
 90
      499
 91
      501
 93
      436
310
42CCD915DA5C99599C985B595059028333333333333E3BF0000000000000FB0107901411070040501600405405064090741402480A0340
1001
ACAD
1000
AcDbSavedByObjectVersion
1070
     0
  0
ACAD_PROXY_OBJECT
  5
32
102
{ACAD_REACTORS
330
2A
102
}
330
2A
100
AcDbProxyObject
 90
      499
 91
      501
 93
      388
310
4150985CDA58D07406404333333333333E3BF0000000000000FB0107A41107004050150841D405064090741402480A0350
1001
ACAD
1000
AcDbSavedByObjectVersion
1070
     0
  0
ACAD_PROXY_OBJECT
  5
36
102
{ACAD_REACTORS
330
2A
102
}
330
2A
100
AcDbProxyObject
 90
      499
 91
      501
 93
      428
310
42109C9A59DA1D195B90C409028333333333333E3BF0000000000000FB010790141107004050150841D405064090741402480A029950
1001
ACAD
1000
AcDbSavedByObjectVersion
1070
     0
  0
ACAD_PROXY_OBJECT
  5
3A
102
{ACAD_REACTORS
330
2A
102
}
330
2A
100
AcDbProxyObject
 90
      499
 91
      501
 93
      452
310
42D0DBDB1BDC90DA185B99D95104090240C333333333333E3BF0000000000000FB0108901411070040501508421405064090741402480A0350
1001
ACAD
1000
AcDbSavedByObjectVersion
1070
     0
  0
ACAD_PROXY_OBJECT
  5
34
102
{ACAD_REACTORS
330
2A
102
}
330
2A
100
AcDbProxyObject
 90
      499
 91
      501
 93
      500
310
4290DBDB98D95C1D1D585B10940D028333333333333E3BF0000000000000FB0107902409070040501000000000000111010841D405064090740C02480A0340
1001
ACAD
1000
AcDbSavedByObjectVersion
1070
     0
  0
ACAD_PROXY_OBJECT
  5
35
102
{ACAD_REACTORS
330
2A
102
}
330
2A
100
AcDbProxyObject
 90
      499
 91
      501
 93
      412
310
40D11A5B50B409028333333333333E3BF0000000000000FB010790141107004050150841D405064090741402480A02677FFFFFD0
1001
ACAD
1000
AcDbSavedByObjectVersion
1070
     0
  0
ACAD_PROXY_OBJECT
  5
39
102
{ACAD_REACTORS
330
2A
102
}
330
2A
100
AcDbProxyObject
 90
      499
 91
      501
 93
      444
310
42D19858D95C185D1D195C9B90F409028333333333333E3BF0000000000000FB010790141107004050150841D405064090741402480A0350
1001
ACAD
1000
AcDbSavedByObjectVersion
1070
     0
  0
ACAD_PROXY_OBJECT
  5
2B
102
{ACAD_REACTORS
330
2A
102
}
330
2A
100
AcDbProxyObject
 90
      499
 91
      501
 93
      388
310
41119B185D240901404333333333333E3BF0000000000000F9010740A41107004050150841D405064090741402480A1B50
1001
ACAD
1000
AcDbSavedByObjectVersion
1070
     0
  0
ACAD_PROXY_OBJECT
  5
2C
102
{ACAD_REACTORS
330
2A
102
}
330
2A
100
AcDbProxyObject
 90
      499
 91
      501
 93
      476
310
43519B185D15DA5D1A115919D95CD0140901404333333333333E3BF0000000000000F9010740901411070040501600405405064090741402480A1B50
1001
ACAD
1000
AcDbSavedByObjectVersion
1070
     0
  0
ACAD_PROXY_OBJECT
  5
2D
102
{ACAD_REACTORS
330
2A
102
}
330
2A
100
AcDbProxyObject
 90
      499
 91
      501
 93
      412
310
41D1DBDD5C985D5910240902404333333333333E3BF0000000000000F9010740A411070040501641D405064090741402480A1B50
1001
ACAD
1000
AcDbSavedByObjectVersion
1070
     0
  0
ACAD_PROXY_OBJECT
  5
2E
102
{ACAD_REACTORS
330
2A
102
}
330
2A
100
AcDbProxyObject
 90
      499
 91
      501
 93
      500
310
4411DBDD5C985D5915DA5D1A115919D95CD0340902404333333333333E3BF0000000000000F9010740901411070040501600405405064090741402480A1B50
1001
ACAD
1000
AcDbSavedByObjectVersion
1070
     0
  0
ACAD_PROXY_OBJECT
  5
38
102
{ACAD_REACTORS
330
2A
102
}
330
2A
100
AcDbProxyObject
 90
      499
 91
      501
 93
      444
310
42D31A5B995C185D1D195C9B90E409028333333333333E3BF0000000000000FB010790141107004050750841D405064090741402483A0350
1001
ACAD
1000
AcDbSavedByObjectVersion
1070
     0
  0
ACAD_PROXY_OBJECT
  5
33
102
{ACAD_REACTORS
330
2A
102
}
330
2A
100
AcDbProxyObject
 90
      499
 91
      501
 93
      420
310
425499585B1A5CDD1A58D08409028333333333333E3BF0000000000000FB01079019070040501508421405064090741402480A1B40
1001
ACAD
1000
AcDbSavedByObjectVersion
1070
     0
  0
ACAD_PROXY_OBJECT
  5
37
102
{ACAD_REACTORS
330
2A
102
}
330
2A
100
AcDbProxyObject
 90
      499
 91
      501
 93
      412
310
41D51A1A58DAD95B90D409028333333333333E3BF0000000000000FB010790141107004050150C41D405064090741402480A0350
1001
ACAD
1000
AcDbSavedByObjectVersion
1070
     0
  0
XRECORD
  5
BD
102
{ACAD_REACTORS
330
B4
102
}
330
B4
100
AcDbXrecord
 90
        0
  0
XRECORD
  5
D3
102
{ACAD_REACTORS
330
B4
102
}
330
B4
100
AcDbXrecord
1000
DSTYLE
1002
{
1070
   340
340
11
1002
}
  0
XRECORD
  5
BE
102
{ACAD_REACTORS
330
B4
102
}
330
B4
100
AcDbXrecord
  1
{02B91163-4322-4C8C-A442-A211A1FAD042}
  0
XRECORD
  5
B7
102
{ACAD_REACTORS
330
B4
102
}
330
B4
100
AcDbXrecord
  1

  0
XRECORD
  5
BC
102
{ACAD_REACTORS
330
B4
102
}
330
B4
100
AcDbXrecord
 90
        4
  0
XRECORD
  5
B9
102
{ACAD_REACTORS
330
B4
102
}
330
B4
100
AcDbXrecord
340
1A
  0
XRECORD
  5
BB
102
{ACAD_REACTORS
330
B4
102
}
330
B4
100
AcDbXrecord
 90
    10781
  0
XRECORD
  5
BA
102
{ACAD_REACTORS
330
B4
102
}
330
B4
100
AcDbXrecord
340
19
  0
XRECORD
  5
C0
102
{ACAD_REACTORS
330
B4
102
}
330
B4
100
AcDbXrecord
 40
0.0
  0
XRECORD
  5
C3
102
{ACAD_REACTORS
330
B4
102
}
330
B4
100
AcDbXrecord
340
0
  0
XRECORD
  5
C9
102
{ACAD_REACTORS
330
B4
102
}
330
B4
100
AcDbXrecord
 10
0.0
 20
0.0
 30
0.0
  0
XRECORD
  5
C5
102
{ACAD_REACTORS
330
B4
102
}
330
B4
100
AcDbXrecord
 10
0.0
 20
0.0
 30
0.0
  0
XRECORD
  5
C8
102
{ACAD_REACTORS
330
B4
102
}
330
B4
100
AcDbXrecord
 10
0.0
 20
0.0
 30
0.0
  0
XRECORD
  5
C6
102
{ACAD_REACTORS
330
B4
102
}
330
B4
100
AcDbXrecord
 10
0.0
 20
0.0
 30
0.0
  0
XRECORD
  5
C7
102
{ACAD_REACTORS
330
B4
102
}
330
B4
100
AcDbXrecord
 10
0.0
 20
0.0
 30
0.0
  0
XRECORD
  5
C4
102
{ACAD_REACTORS
330
B4
102
}
330
B4
100
AcDbXrecord
 10
0.0
 20
0.0
 30
0.0
  0
XRECORD
  5
C1
102
{ACAD_REACTORS
330
B4
102
}
330
B4
100
AcDbXrecord
340
0
  0
XRECORD
  5
C2
102
{ACAD_REACTORS
330
B4
102
}
330
B4
100
AcDbXrecord
 70
     0
  0
XRECORD
  5
B8
102
{ACAD_REACTORS
330
B4
102
}
330
B4
100
AcDbXrecord
  1

  0
XRECORD
  5
B5
102
{ACAD_REACTORS
330
B4
102
}
330
B4
100
AcDbXrecord
 90
        1
  0
XRECORD
  5
B6
102
{ACAD_REACTORS
330
B4
102
}
330
B4
100
AcDbXrecord
 90
       70
  0
XRECORD
  5
CC
102
{ACAD_REACTORS
330
B4
102
}
330
B4
100
AcDbXrecord
340
0
  0
XRECORD
  5
D2
102
{ACAD_REACTORS
330
B4
102
}
330
B4
100
AcDbXrecord
 10
0.0
 20
0.0
 30
0.0
  0
XRECORD
  5
CE
102
{ACAD_REACTORS
330
B4
102
}
330
B4
100
AcDbXrecord
 10
0.0
 20
0.0
 30
0.0
  0
XRECORD
  5
D1
102
{ACAD_REACTORS
330
B4
102
}
330
B4
100
AcDbXrecord
 10
0.0
 20
0.0
 30
0.0
  0
XRECORD
  5
CF
102
{ACAD_REACTORS
330
B4
102
}
330
B4
100
AcDbXrecord
 10
0.0
 20
0.0
 30
0.0
  0
XRECORD
  5
D0
102
{ACAD_REACTORS
330
B4
102
}
330
B4
100
AcDbXrecord
 10
0.0
 20
0.0
 30
0.0
  0
XRECORD
  5
CD
102
{ACAD_REACTORS
330
B4
102
}
330
B4
100
AcDbXrecord
 10
0.0
 20
0.0
 30
0.0
  0
XRECORD
  5
CA
102
{ACAD_REACTORS
330
B4
102
}
330
B4
100
AcDbXrecord
340
0
  0
XRECORD
  5
CB
102
{ACAD_REACTORS
330
B4
102
}
330
B4
100
AcDbXrecord
 70
     0
  0
XRECORD
  5
BF
102
{ACAD_REACTORS
330
B4
102
}
330
B4
100
AcDbXrecord
  1
{FAEB1C32-E019-11D5-929B-00C0DF256EC4}
  0
DICTIONARYVAR
  5
D7
102
{ACAD_REACTORS
330
D4
102
}
330
D4
100
DictionaryVariables
280
     0
  1
2
  0
DICTIONARYVAR
  5
D8
102
{ACAD_REACTORS
330
D4
102
}
330
D4
100
DictionaryVariables
280
     0
  1
1
  0
DICTIONARY
  5
DB
330
3D
100
AcDbDictionary
280
     1
  3
ACAD_XREC_ROUNDTRIP
360
DC
  0
DICTIONARY
  5
D9
330
3C
100
AcDbDictionary
280
     1
  3
ACAD_XREC_ROUNDTRIP
360
DA
  0
DICTIONARY
  5
DD
330
3E
100
AcDbDictionary
280
     1
  3
ACAD_XREC_ROUNDTRIP
360
DE
  0
XRECORD
  5
DC
102
{ACAD_REACTORS
330
DB
102
}
330
DB
100
AcDbXrecord
102
MATERIAL
148
0.0
149
0.0
149
0.0
 93
        0
 94
      127
282
     0
 72
     1
 77
     1
171
     1
175
     1
179
     1
273
     0
  0
XRECORD
  5
DA
102
{ACAD_REACTORS
330
D9
102
}
330
D9
100
AcDbXrecord
102
MATERIAL
148
0.0
149
0.0
149
0.0
 93
        0
 94
      127
282
     0
 72
     1
 77
     1
171
     1
175
     1
179
     1
273
     0
  0
XRECORD
  5
DE
102
{ACAD_REACTORS
330
DD
102
}
330
DD
100
AcDbXrecord
102
MATERIAL
148
0.0
149
0.0
149
0.0
 93
        0
 94
      127
282
     0
 72
     1
 77
     1
171
     1
175
     1
179
     1
273
     0
  0
ENDSEC
  0
EOF
