  0
SECTION
  2
HEADER
  9
$ACADVER
  1
AC1014
  9
$ACADMAINTVER
 70
     9
  9
$DWGCODEPAGE
  3
ANSI_1250
  9
$INSBASE
 10
0.0
 20
0.0
 30
0.0
  9
$EXTMIN
 10
-29.4449
 20
-29.3398
 30
0.0
  9
$EXTMAX
 10
29.4449
 20
29.3401
 30
0.0
  9
$LIMMIN
 10
0.0
 20
0.0
  9
$LIMMAX
 10
12.0
 20
9.0
  9
$ORTHOMODE
 70
     0
  9
$REGENMODE
 70
     1
  9
$FILLMODE
 70
     1
  9
$QTEXTMODE
 70
     0
  9
$MIRRTEXT
 70
     1
  9
$DRAGMODE
 70
     2
  9
$LTSCALE
 40
1.0
  9
$OSMODE
 70
    37
  9
$ATTMODE
 70
     1
  9
$TEXTSIZE
 40
0.2
  9
$TRACEWID
 40
0.05
  9
$TEXTSTYLE
  7
STANDARD
  9
$CLAYER
  8
0
  9
$CELTYPE
  6
BYLAYER
  9
$CECOLOR
 62
   256
  9
$CELTSCALE
 40
1.0
  9
$DELOBJ
 70
     1
  9
$DISPSILH
 70
     0
  9
$DIMSCALE
 40
1.0
  9
$DIMASZ
 40
0.18
  9
$DIMEXO
 40
0.0625
  9
$DIMDLI
 40
0.38
  9
$DIMRND
 40
0.0
  9
$DIMDLE
 40
0.0
  9
$DIMEXE
 40
0.18
  9
$DIMTP
 40
0.0
  9
$DIMTM
 40
0.0
  9
$DIMTXT
 40
0.18
  9
$DIMCEN
 40
0.09
  9
$DIMTSZ
 40
0.0
  9
$DIMTOL
 70
     0
  9
$DIMLIM
 70
     0
  9
$DIMTIH
 70
     1
  9
$DIMTOH
 70
     1
  9
$DIMSE1
 70
     0
  9
$DIMSE2
 70
     0
  9
$DIMTAD
 70
     0
  9
$DIMZIN
 70
     0
  9
$DIMBLK
  1

  9
$DIMASO
 70
     1
  9
$DIMSHO
 70
     1
  9
$DIMPOST
  1

  9
$DIMAPOST
  1

  9
$DIMALT
 70
     0
  9
$DIMALTD
 70
     2
  9
$DIMALTF
 40
25.4
  9
$DIMLFAC
 40
1.0
  9
$DIMTOFL
 70
     0
  9
$DIMTVP
 40
0.0
  9
$DIMTIX
 70
     0
  9
$DIMSOXD
 70
     0
  9
$DIMSAH
 70
     0
  9
$DIMBLK1
  1

  9
$DIMBLK2
  1

  9
$DIMSTYLE
  2
STANDARD
  9
$DIMCLRD
 70
     0
  9
$DIMCLRE
 70
     0
  9
$DIMCLRT
 70
     0
  9
$DIMTFAC
 40
1.0
  9
$DIMGAP
 40
0.09
  9
$DIMJUST
 70
     0
  9
$DIMSD1
 70
     0
  9
$DIMSD2
 70
     0
  9
$DIMTOLJ
 70
     1
  9
$DIMTZIN
 70
     0
  9
$DIMALTZ
 70
     0
  9
$DIMALTTZ
 70
     0
  9
$DIMFIT
 70
     3
  9
$DIMUPT
 70
     0
  9
$DIMUNIT
 70
     2
  9
$DIMDEC
 70
     4
  9
$DIMTDEC
 70
     4
  9
$DIMALTU
 70
     2
  9
$DIMALTTD
 70
     2
  9
$DIMTXSTY
  7
STANDARD
  9
$DIMAUNIT
 70
     0
  9
$LUNITS
 70
     2
  9
$LUPREC
 70
     4
  9
$SKETCHINC
 40
0.1
  9
$FILLETRAD
 40
0.5
  9
$AUNITS
 70
     0
  9
$AUPREC
 70
     0
  9
$MENU
  1
.
  9
$ELEVATION
 40
0.0
  9
$PELEVATION
 40
0.0
  9
$THICKNESS
 40
0.0
  9
$LIMCHECK
 70
     0
  9
$CHAMFERA
 40
0.5
  9
$CHAMFERB
 40
0.5
  9
$CHAMFERC
 40
1.0
  9
$CHAMFERD
 40
0.0
  9
$SKPOLY
 70
     0
  9
$TDCREATE
 40
2456269.40888537
  9
$TDUPDATE
 40
2456269.408885382
  9
$TDINDWG
 40
0.0000000116
  9
$TDUSRTIMER
 40
0.0000000116
  9
$USRTIMER
 70
     1
  9
$ANGBASE
 50
0.0
  9
$ANGDIR
 70
     0
  9
$PDMODE
 70
     0
  9
$PDSIZE
 40
0.0
  9
$PLINEWID
 40
0.0
  9
$COORDS
 70
     1
  9
$SPLFRAME
 70
     0
  9
$SPLINETYPE
 70
     6
  9
$SPLINESEGS
 70
     8
  9
$ATTDIA
 70
     0
  9
$ATTREQ
 70
     1
  9
$HANDLING
 70
     1
  9
$HANDSEED
  5
8F
  9
$SURFTAB1
 70
     6
  9
$SURFTAB2
 70
     6
  9
$SURFTYPE
 70
     6
  9
$SURFU
 70
     6
  9
$SURFV
 70
     6
  9
$UCSNAME
  2

  9
$UCSORG
 10
0.0
 20
0.0
 30
0.0
  9
$UCSXDIR
 10
1.0
 20
0.0
 30
0.0
  9
$UCSYDIR
 10
0.0
 20
1.0
 30
0.0
  9
$PUCSNAME
  2

  9
$PUCSORG
 10
0.0
 20
0.0
 30
0.0
  9
$PUCSXDIR
 10
1.0
 20
0.0
 30
0.0
  9
$PUCSYDIR
 10
0.0
 20
1.0
 30
0.0
  9
$USERI1
 70
     0
  9
$USERI2
 70
     0
  9
$USERI3
 70
     0
  9
$USERI4
 70
     0
  9
$USERI5
 70
     0
  9
$USERR1
 40
0.0
  9
$USERR2
 40
0.0
  9
$USERR3
 40
0.0
  9
$USERR4
 40
0.0
  9
$USERR5
 40
0.0
  9
$WORLDVIEW
 70
     1
  9
$SHADEDGE
 70
     3
  9
$SHADEDIF
 70
    70
  9
$TILEMODE
 70
     1
  9
$MAXACTVP
 70
    64
  9
$PINSBASE
 10
0.0
 20
0.0
 30
0.0
  9
$PLIMCHECK
 70
     0
  9
$PEXTMIN
 10
1.000000000000000E+20
 20
1.000000000000000E+20
 30
1.000000000000000E+20
  9
$PEXTMAX
 10
-1.000000000000000E+20
 20
-1.000000000000000E+20
 30
-1.000000000000000E+20
  9
$PLIMMIN
 10
0.0
 20
0.0
  9
$PLIMMAX
 10
12.0
 20
9.0
  9
$UNITMODE
 70
     0
  9
$VISRETAIN
 70
     1
  9
$PLINEGEN
 70
     0
  9
$PSLTSCALE
 70
     1
  9
$TREEDEPTH
 70
  3020
  9
$PICKSTYLE
 70
     1
  9
$CMLSTYLE
  2
STANDARD
  9
$CMLJUST
 70
     0
  9
$CMLSCALE
 40
1.0
  9
$PROXYGRAPHICS
 70
     1
  9
$MEASUREMENT
 70
     0
  0
ENDSEC
  0
SECTION
  2
CLASSES
  0
CLASS
  1
ACDBDICTIONARYWDFLT
  2
AcDbDictionaryWithDefault
  3
ObjectDBX Classes
 90
        0
280
     0
281
     0
  0
CLASS
  1
VISUALSTYLE
  2
AcDbVisualStyle
  3
ObjectDBX Classes
 90
     4095
280
     0
281
     0
  0
CLASS
  1
MATERIAL
  2
AcDbMaterial
  3
ObjectDBX Classes
 90
     1153
280
     0
281
     0
  0
CLASS
  1
DICTIONARYVAR
  2
AcDbDictionaryVar
  3
ObjectDBX Classes
 90
        0
280
     0
281
     0
  0
CLASS
  1
XRECORD
  2
AcDbXrecord
  3
AutoCAD 2000
 90
        0
280
     0
281
     0
  0
CLASS
  1
LWPOLYLINE
  2
AcDbPolyline
  3
AutoCAD 2000
 90
        0
280
     0
281
     1
  0
CLASS
  1
HATCH
  2
AcDbHatch
  3
AutoCAD 2000
 90
        0
280
     0
281
     1
  0
CLASS
  1
ACDBPLACEHOLDER
  2
AcDbPlaceHolder
  3
ObjectDBX Classes
 90
        0
280
     0
281
     0
  0
CLASS
  1
LAYOUT
  2
AcDbLayout
  3
ObjectDBX Classes
 90
        0
280
     0
281
     0
  0
ENDSEC
  0
SECTION
  2
TABLES
  0
TABLE
  2
VPORT
  5
8
330
0
100
AcDbSymbolTable
 70
     1
  0
VPORT
  5
29
330
8
100
AcDbSymbolTableRecord
100
AcDbViewportTableRecord
  2
*ACTIVE
 70
     0
 10
0.0
 20
0.0
 11
1.0
 21
1.0
 12
10.42990654205607
 22
4.5
 13
0.0
 23
0.0
 14
0.5
 24
0.5
 15
0.5
 25
0.5
 16
0.0
 26
0.0
 36
1.0
 17
0.0
 27
0.0
 37
0.0
 40
9.0
 41
1.972972972850329
 42
50.0
 43
0.0
 44
0.0
 50
0.0
 51
0.0
 71
     0
 72
   100
 73
     1
 74
     3
 75
     0
 76
     0
 77
     0
 78
     0
  0
ENDTAB
  0
TABLE
  2
LTYPE
  5
5
330
0
100
AcDbSymbolTable
 70
     3
  0
LTYPE
  5
14
330
5
100
AcDbSymbolTableRecord
100
AcDbLinetypeTableRecord
  2
BYBLOCK
 70
     0
  3

 72
    65
 73
     0
 40
0.0
  0
LTYPE
  5
15
330
5
100
AcDbSymbolTableRecord
100
AcDbLinetypeTableRecord
  2
BYLAYER
 70
     0
  3

 72
    65
 73
     0
 40
0.0
  0
LTYPE
  5
16
330
5
100
AcDbSymbolTableRecord
100
AcDbLinetypeTableRecord
  2
CONTINUOUS
 70
     0
  3
Solid line
 72
    65
 73
     0
 40
0.0
  0
LTYPE
  5
44
330
5
100
AcDbSymbolTableRecord
100
AcDbLinetypeTableRecord
  2
NEW_LINE1
 70
     0
  3

 72
    65
 73
     4
 40
1.2
 49
0.5
 74
     4
 75
     0
340
0
 46
1.0
 50
0.0
 44
0.0
 45
0.0
 49
-0.3
 74
     4
 75
     0
340
0
 46
1.0
 50
0.0
 44
0.0
 45
0.0
 49
0.1
 74
     4
 75
     0
340
0
 46
1.0
 50
0.0
 44
0.0
 45
0.0
 49
-0.3
 74
     4
 75
     0
340
0
 46
1.0
 50
0.0
 44
0.0
 45
0.0
  0
LTYPE
  5
46
330
5
100
AcDbSymbolTableRecord
100
AcDbLinetypeTableRecord
  2
NEW_LINE2
 70
     0
  3

 72
    65
 73
     4
 40
1.2
 49
0.5
 74
     4
 75
     0
340
0
 46
1.0
 50
0.0
 44
0.0
 45
0.0
 49
-0.3
 74
     4
 75
     0
340
0
 46
1.0
 50
0.0
 44
0.0
 45
0.0
 49
0.1
 74
     4
 75
     0
340
0
 46
1.0
 50
0.0
 44
0.0
 45
0.0
 49
-0.3
 74
     4
 75
     0
340
0
 46
1.0
 50
0.0
 44
0.0
 45
0.0
  0
ENDTAB
  0
TABLE
  2
LAYER
  5
2
330
0
100
AcDbSymbolTable
 70
     2
  0
LAYER
  5
10
330
2
100
AcDbSymbolTableRecord
100
AcDbLayerTableRecord
  2
0
 70
     0
 62
     7
  6
CONTINUOUS
  0
LAYER
  5
40
330
2
100
AcDbSymbolTableRecord
100
AcDbLayerTableRecord
  2
VRSTVA_1
 70
     0
 62
     7
  6
CONTINUOUS
  0
ENDTAB
  0
TABLE
  2
STYLE
  5
3
330
0
100
AcDbSymbolTable
 70
     1
  0
STYLE
  5
11
330
3
100
AcDbSymbolTableRecord
100
AcDbTextStyleTableRecord
  2
STANDARD
 70
     0
 40
0.0
 41
1.0
 50
0.0
 71
     0
 42
0.2
  3
txt
  4

  0
ENDTAB
  0
TABLE
  2
VIEW
  5
6
330
0
100
AcDbSymbolTable
 70
     0
  0
ENDTAB
  0
TABLE
  2
UCS
  5
7
330
0
100
AcDbSymbolTable
 70
     0
  0
ENDTAB
  0
TABLE
  2
APPID
  5
9
330
0
100
AcDbSymbolTable
 70
     2
  0
APPID
  5
12
330
9
100
AcDbSymbolTableRecord
100
AcDbRegAppTableRecord
  2
ACAD
 70
     0
  0
APPID
  5
3F
330
9
100
AcDbSymbolTableRecord
100
AcDbRegAppTableRecord
  2
ODA
 70
     0
  0
ENDTAB
  0
TABLE
  2
DIMSTYLE
  5
A
330
0
100
AcDbSymbolTable
 70
     1
  0
DIMSTYLE
105
27
330
A
100
AcDbSymbolTableRecord
100
AcDbDimStyleTableRecord
  2
STANDARD
 70
     0
  3

  4

  5

  6

  7

 40
1.0
 41
0.18
 42
0.0625
 43
0.38
 44
0.18
 45
0.0
 46
0.0
 47
0.0
 48
0.0
140
0.18
141
0.09
142
0.0
143
25.4
144
1.0
145
0.0
146
1.0
147
0.09
 71
     0
 72
     0
 73
     1
 74
     1
 75
     0
 76
     0
 77
     0
 78
     0
170
     0
171
     2
172
     0
173
     0
174
     0
175
     0
176
     0
177
     0
178
     0
270
     2
271
     4
272
     4
273
     2
274
     2
340
11
275
     0
280
     0
281
     0
282
     0
283
     1
284
     0
285
     0
286
     0
287
     3
288
     0
  0
ENDTAB
  0
TABLE
  2
BLOCK_RECORD
  5
1
330
0
100
AcDbSymbolTable
 70
     1
  0
BLOCK_RECORD
  5
1F
330
1
100
AcDbSymbolTableRecord
100
AcDbBlockTableRecord
  2
*MODEL_SPACE
  0
BLOCK_RECORD
  5
1B
330
1
100
AcDbSymbolTableRecord
100
AcDbBlockTableRecord
  2
*PAPER_SPACE
  0
ENDTAB
  0
ENDSEC
  0
SECTION
  2
BLOCKS
  0
BLOCK
  5
20
330
1F
100
AcDbEntity
  8
0
100
AcDbBlockBegin
  2
*MODEL_SPACE
 70
     0
 10
0.0
 20
0.0
 30
0.0
  3
*MODEL_SPACE
  1

  0
ENDBLK
  5
21
330
1F
100
AcDbEntity
  8
0
100
AcDbBlockEnd
  0
BLOCK
  5
1C
330
1B
100
AcDbEntity
 67
     1
  8
0
100
AcDbBlockBegin
  2
*PAPER_SPACE
 70
     0
 10
0.0
 20
0.0
 30
0.0
  3
*PAPER_SPACE
  1

  0
ENDBLK
  5
1D
330
1B
100
AcDbEntity
 67
     1
  8
0
100
AcDbBlockEnd
  0
ENDSEC
  0
SECTION
  2
ENTITIES
  0
SPLINE
  5
41
330
1F
100
AcDbEntity
  8
VRSTVA_1
 62
   250
100
AcDbSpline
210
0.0
220
0.0
230
1.0
 70
    11
 71
     3
 72
    20
 73
    16
 74
     0
 42
0.0000000001
 43
0.0000000001
 40
0.0
 40
0.0
 40
0.0
 40
0.0
 40
0.2
 40
0.2
 40
0.2
 40
0.2
 40
0.4
 40
0.4
 40
0.4
 40
0.4
 40
0.6
 40
0.6
 40
0.6
 40
0.6
 40
1.0
 40
1.0
 40
1.0
 40
1.0
 10
-27.8949
 20
27.7901
 30
0.0
 10
-27.8949
 20
27.7901
 30
0.0
 10
22.1051
 20
27.7901
 30
0.0
 10
22.1051
 20
27.7901
 30
0.0
 10
22.1051
 20
27.7901
 30
0.0
 10
22.1051
 20
27.7901
 30
0.0
 10
22.1051
 20
-22.2099
 30
0.0
 10
22.1051
 20
-22.2099
 30
0.0
 10
22.1051
 20
-22.2099
 30
0.0
 10
22.1051
 20
-22.2099
 30
0.0
 10
-27.8949
 20
-22.2099
 30
0.0
 10
-27.8949
 20
-22.2099
 30
0.0
 10
-27.8949
 20
-22.2099
 30
0.0
 10
-27.8949
 20
-22.2099
 30
0.0
 10
-27.8949
 20
27.7901
 30
0.0
 10
-27.8949
 20
27.7901
 30
0.0
  0
SPLINE
  5
42
330
1F
100
AcDbEntity
  8
VRSTVA_1
 62
   250
100
AcDbSpline
210
0.0
220
0.0
230
1.0
 70
    11
 71
     3
 72
    20
 73
    16
 74
     0
 42
0.0000000001
 43
0.0000000001
 40
0.0
 40
0.0
 40
0.0
 40
0.0
 40
0.2
 40
0.2
 40
0.2
 40
0.2
 40
0.4
 40
0.4
 40
0.4
 40
0.4
 40
0.6
 40
0.6
 40
0.6
 40
0.6
 40
1.0
 40
1.0
 40
1.0
 40
1.0
 10
-2.8949
 20
12.7901
 30
0.0
 10
2.6279
 20
12.7901
 30
0.0
 10
7.1051
 20
8.3129
 30
0.0
 10
7.1051
 20
2.7901
 30
0.0
 10
7.1051
 20
2.7901
 30
0.0
 10
7.1051
 20
-2.7327
 30
0.0
 10
2.6279
 20
-7.2099
 30
0.0
 10
-2.8949
 20
-7.2099
 30
0.0
 10
-2.8949
 20
-7.2099
 30
0.0
 10
-8.4177
 20
-7.2099
 30
0.0
 10
-12.8949
 20
-2.7327
 30
0.0
 10
-12.8949
 20
2.7901
 30
0.0
 10
-12.8949
 20
2.7901
 30
0.0
 10
-12.8949
 20
8.3129
 30
0.0
 10
-8.4177
 20
12.7901
 30
0.0
 10
-2.8949
 20
12.7901
 30
0.0
  0
SPLINE
  5
43
330
1F
100
AcDbEntity
  8
VRSTVA_1
  6
NEW_LINE1
 62
   250
100
AcDbSpline
210
0.0
220
0.0
230
1.0
 70
    24
 71
     3
 72
     8
 73
     4
 74
     0
 42
0.0000000001
 43
0.0000000001
 40
0.0
 40
0.0
 40
0.0
 40
0.0
 40
1.0
 40
1.0
 40
1.0
 40
1.0
 10
-2.8949
 20
29.3401
 30
0.0
 10
-2.8949
 20
29.3401
 30
0.0
 10
-2.8949
 20
-23.7599
 30
0.0
 10
-2.8949
 20
-23.7599
 30
0.0
  0
SPLINE
  5
45
330
1F
100
AcDbEntity
  8
VRSTVA_1
  6
NEW_LINE2
 62
   250
100
AcDbSpline
210
0.0
220
0.0
230
1.0
 70
    24
 71
     3
 72
     8
 73
     4
 74
     0
 42
0.0000000001
 43
0.0000000001
 40
0.0
 40
0.0
 40
0.0
 40
0.0
 40
1.0
 40
1.0
 40
1.0
 40
1.0
 10
-29.4449
 20
2.7901
 30
0.0
 10
-29.4449
 20
2.7901
 30
0.0
 10
23.6551
 20
2.7901
 30
0.0
 10
23.6551
 20
2.7901
 30
0.0
  0
SPLINE
  5
47
330
1F
100
AcDbEntity
  8
VRSTVA_1
 62
   250
100
AcDbSpline
210
0.0
220
0.0
230
1.0
 70
    24
 71
     3
 72
     8
 73
     4
 74
     0
 42
0.0000000001
 43
0.0000000001
 40
0.0
 40
0.0
 40
0.0
 40
0.0
 40
1.0
 40
1.0
 40
1.0
 40
1.0
 10
22.7437
 20
-22.2356
 30
0.0
 10
22.7437
 20
-22.2356
 30
0.0
 10
29.3999
 20
-22.2356
 30
0.0
 10
29.3999
 20
-22.2356
 30
0.0
  0
SPLINE
  5
48
330
1F
100
AcDbEntity
  8
VRSTVA_1
 62
   250
100
AcDbSpline
210
0.0
220
0.0
230
1.0
 70
    24
 71
     3
 72
     8
 73
     4
 74
     0
 42
0.0000000001
 43
0.0000000001
 40
0.0
 40
0.0
 40
0.0
 40
0.0
 40
1.0
 40
1.0
 40
1.0
 40
1.0
 10
22.7551
 20
27.7835
 30
0.0
 10
22.7551
 20
27.7835
 30
0.0
 10
29.4449
 20
27.7835
 30
0.0
 10
29.4449
 20
27.7835
 30
0.0
  0
SPLINE
  5
49
330
1F
100
AcDbEntity
  8
VRSTVA_1
 62
   250
100
AcDbSpline
210
0.0
220
0.0
230
1.0
 70
    24
 71
     3
 72
     8
 73
     4
 74
     0
 42
0.0000000001
 43
0.0000000001
 40
0.0
 40
0.0
 40
0.0
 40
0.0
 40
1.0
 40
1.0
 40
1.0
 40
1.0
 10
28.8319
 20
-21.7413
 30
0.0
 10
28.8319
 20
-21.7413
 30
0.0
 10
28.8319
 20
27.2815
 30
0.0
 10
28.8319
 20
27.2815
 30
0.0
  0
SPLINE
  5
4A
330
1F
100
AcDbEntity
  8
VRSTVA_1
 62
   250
100
AcDbSpline
210
0.0
220
0.0
230
1.0
 70
    11
 71
     3
 72
    20
 73
    16
 74
     0
 42
0.0000000001
 43
0.0000000001
 40
0.0
 40
0.0
 40
0.0
 40
0.0
 40
0.2
 40
0.2
 40
0.2
 40
0.2
 40
0.4
 40
0.4
 40
0.4
 40
0.4
 40
0.6
 40
0.6
 40
0.6
 40
0.6
 40
1.0
 40
1.0
 40
1.0
 40
1.0
 10
28.332
 20
24.6104
 30
0.0
 10
28.332
 20
24.6104
 30
0.0
 10
28.7689
 20
27.7063
 30
0.0
 10
28.7689
 20
27.7063
 30
0.0
 10
28.7689
 20
27.7063
 30
0.0
 10
28.7689
 20
27.7063
 30
0.0
 10
28.8659
 20
27.7063
 30
0.0
 10
28.8659
 20
27.7063
 30
0.0
 10
28.8659
 20
27.7063
 30
0.0
 10
28.8659
 20
27.7063
 30
0.0
 10
29.3319
 20
24.6104
 30
0.0
 10
29.3319
 20
24.6104
 30
0.0
 10
29.3319
 20
24.6104
 30
0.0
 10
29.3319
 20
24.6104
 30
0.0
 10
28.332
 20
24.6104
 30
0.0
 10
28.332
 20
24.6104
 30
0.0
  0
SPLINE
  5
4B
330
1F
100
AcDbEntity
  8
VRSTVA_1
 62
   250
100
AcDbSpline
210
0.0
220
0.0
230
1.0
 70
    11
 71
     3
 72
    20
 73
    16
 74
     0
 42
0.0000000001
 43
0.0000000001
 40
0.0
 40
0.0
 40
0.0
 40
0.0
 40
0.2
 40
0.2
 40
0.2
 40
0.2
 40
0.4
 40
0.4
 40
0.4
 40
0.4
 40
0.6
 40
0.6
 40
0.6
 40
0.6
 40
1.0
 40
1.0
 40
1.0
 40
1.0
 10
29.3476
 20
-19.0716
 30
0.0
 10
29.3476
 20
-19.0716
 30
0.0
 10
28.9107
 20
-22.1675
 30
0.0
 10
28.9107
 20
-22.1675
 30
0.0
 10
28.9107
 20
-22.1675
 30
0.0
 10
28.9107
 20
-22.1675
 30
0.0
 10
28.8137
 20
-22.1675
 30
0.0
 10
28.8137
 20
-22.1675
 30
0.0
 10
28.8137
 20
-22.1675
 30
0.0
 10
28.8137
 20
-22.1675
 30
0.0
 10
28.3478
 20
-19.0716
 30
0.0
 10
28.3478
 20
-19.0716
 30
0.0
 10
28.3478
 20
-19.0716
 30
0.0
 10
28.3478
 20
-19.0716
 30
0.0
 10
29.3476
 20
-19.0716
 30
0.0
 10
29.3476
 20
-19.0716
 30
0.0
  0
SPLINE
  5
4C
330
1F
100
AcDbEntity
  8
VRSTVA_1
 62
   250
100
AcDbSpline
210
0.0
220
0.0
230
1.0
 70
    11
 71
     3
 72
   124
 73
   120
 74
     0
 42
0.0000000001
 43
0.0000000001
 40
0.0
 40
0.0
 40
0.0
 40
0.0
 40
0.032258064516129
 40
0.032258064516129
 40
0.032258064516129
 40
0.032258064516129
 40
0.0645161290322581
 40
0.0645161290322581
 40
0.0645161290322581
 40
0.0645161290322581
 40
0.0967741935483871
 40
0.0967741935483871
 40
0.0967741935483871
 40
0.0967741935483871
 40
0.1290322580645161
 40
0.1290322580645161
 40
0.1290322580645161
 40
0.1290322580645161
 40
0.1612903225806452
 40
0.1612903225806452
 40
0.1612903225806452
 40
0.1612903225806452
 40
0.1935483870967742
 40
0.1935483870967742
 40
0.1935483870967742
 40
0.1935483870967742
 40
0.2258064516129032
 40
0.2258064516129032
 40
0.2258064516129032
 40
0.2258064516129032
 40
0.2580645161290323
 40
0.2580645161290323
 40
0.2580645161290323
 40
0.2580645161290323
 40
0.2903225806451613
 40
0.2903225806451613
 40
0.2903225806451613
 40
0.2903225806451613
 40
0.3225806451612903
 40
0.3225806451612903
 40
0.3225806451612903
 40
0.3225806451612903
 40
0.3548387096774194
 40
0.3548387096774194
 40
0.3548387096774194
 40
0.3548387096774194
 40
0.3870967741935484
 40
0.3870967741935484
 40
0.3870967741935484
 40
0.3870967741935484
 40
0.4193548387096774
 40
0.4193548387096774
 40
0.4193548387096774
 40
0.4193548387096774
 40
0.4516129032258064
 40
0.4516129032258064
 40
0.4516129032258064
 40
0.4516129032258064
 40
0.4838709677419355
 40
0.4838709677419355
 40
0.4838709677419355
 40
0.4838709677419355
 40
0.5161290322580645
 40
0.5161290322580645
 40
0.5161290322580645
 40
0.5161290322580645
 40
0.5483870967741935
 40
0.5483870967741935
 40
0.5483870967741935
 40
0.5483870967741935
 40
0.5806451612903226
 40
0.5806451612903226
 40
0.5806451612903226
 40
0.5806451612903226
 40
0.6129032258064516
 40
0.6129032258064516
 40
0.6129032258064516
 40
0.6129032258064516
 40
0.6451612903225806
 40
0.6451612903225806
 40
0.6451612903225806
 40
0.6451612903225806
 40
0.6774193548387096
 40
0.6774193548387096
 40
0.6774193548387096
 40
0.6774193548387096
 40
0.7096774193548387
 40
0.7096774193548387
 40
0.7096774193548387
 40
0.7096774193548387
 40
0.7419354838709677
 40
0.7419354838709677
 40
0.7419354838709677
 40
0.7419354838709677
 40
0.7741935483870968
 40
0.7741935483870968
 40
0.7741935483870968
 40
0.7741935483870968
 40
0.8064516129032258
 40
0.8064516129032258
 40
0.8064516129032258
 40
0.8064516129032258
 40
0.8387096774193549
 40
0.8387096774193549
 40
0.8387096774193549
 40
0.8387096774193549
 40
0.8709677419354839
 40
0.8709677419354839
 40
0.8709677419354839
 40
0.8709677419354839
 40
0.9032258064516129
 40
0.9032258064516129
 40
0.9032258064516129
 40
0.9032258064516129
 40
0.9354838709677419
 40
0.9354838709677419
 40
0.9354838709677419
 40
0.9354838709677419
 40
1.0
 40
1.0
 40
1.0
 40
1.0
 10
27.6373
 20
0.8497
 30
0.0
 10
27.6373
 20
0.8497
 30
0.0
 10
27.6044
 20
1.0976
 30
0.0
 10
27.6044
 20
1.0976
 30
0.0
 10
27.6044
 20
1.0976
 30
0.0
 10
27.745
 20
1.1263
 30
0.0
 10
27.8461
 20
1.1748
 30
0.0
 10
27.9082
 20
1.243
 30
0.0
 10
27.9082
 20
1.243
 30
0.0
 10
27.9703
 20
1.3116
 30
0.0
 10
28.0014
 20
1.3949
 30
0.0
 10
28.0014
 20
1.4932
 30
0.0
 10
28.0014
 20
1.4932
 30
0.0
 10
28.0014
 20
1.6098
 30
0.0
 10
27.9609
 20
1.7086
 30
0.0
 10
27.88
 20
1.7891
 30
0.0
 10
27.88
 20
1.7891
 30
0.0
 10
27.7991
 20
1.869
 30
0.0
 10
27.6989
 20
1.9095
 30
0.0
 10
27.5794
 20
1.9095
 30
0.0
 10
27.5794
 20
1.9095
 30
0.0
 10
27.4656
 20
1.9095
 30
0.0
 10
27.3715
 20
1.8723
 30
0.0
 10
27.2977
 20
1.798
 30
0.0
 10
27.2977
 20
1.798
 30
0.0
 10
27.2239
 20
1.7232
 30
0.0
 10
27.1867
 20
1.6287
 30
0.0
 10
27.1867
 20
1.5139
 30
0.0
 10
27.1867
 20
1.5139
 30
0.0
 10
27.1867
 20
1.4669
 30
0.0
 10
27.1961
 20
1.4085
 30
0.0
 10
27.2144
 20
1.3389
 30
0.0
 10
27.2144
 20
1.3389
 30
0.0
 10
27.2144
 20
1.3389
 30
0.0
 10
26.9967
 20
1.3667
 30
0.0
 10
26.9967
 20
1.3667
 30
0.0
 10
26.9967
 20
1.3667
 30
0.0
 10
26.9985
 20
1.3831
 30
0.0
 10
26.9995
 20
1.3963
 30
0.0
 10
26.9995
 20
1.4066
 30
0.0
 10
26.9995
 20
1.4066
 30
0.0
 10
26.9995
 20
1.512
 30
0.0
 10
26.9717
 20
1.607
 30
0.0
 10
26.9167
 20
1.6917
 30
0.0
 10
26.9167
 20
1.6917
 30
0.0
 10
26.8617
 20
1.7764
 30
0.0
 10
26.7765
 20
1.8187
 30
0.0
 10
26.6618
 20
1.8187
 30
0.0
 10
26.6618
 20
1.8187
 30
0.0
 10
26.571
 20
1.8187
 30
0.0
 10
26.4953
 20
1.7876
 30
0.0
 10
26.436
 20
1.726
 30
0.0
 10
26.436
 20
1.726
 30
0.0
 10
26.3763
 20
1.6644
 30
0.0
 10
26.3461
 20
1.5849
 30
0.0
 10
26.3461
 20
1.4875
 30
0.0
 10
26.3461
 20
1.4875
 30
0.0
 10
26.3461
 20
1.3911
 30
0.0
 10
26.3767
 20
1.3107
 30
0.0
 10
26.4369
 20
1.2467
 30
0.0
 10
26.4369
 20
1.2467
 30
0.0
 10
26.4976
 20
1.1823
 30
0.0
 10
26.5889
 20
1.1409
 30
0.0
 10
26.7102
 20
1.1225
 30
0.0
 10
26.7102
 20
1.1225
 30
0.0
 10
26.7102
 20
1.1225
 30
0.0
 10
26.666
 20
0.8747
 30
0.0
 10
26.666
 20
0.8747
 30
0.0
 10
26.666
 20
0.8747
 30
0.0
 10
26.4995
 20
0.9048
 30
0.0
 10
26.3706
 20
0.9739
 30
0.0
 10
26.2794
 20
1.0812
 30
0.0
 10
26.2794
 20
1.0812
 30
0.0
 10
26.1881
 20
1.1889
 30
0.0
 10
26.142
 20
1.3225
 30
0.0
 10
26.142
 20
1.4824
 30
0.0
 10
26.142
 20
1.4824
 30
0.0
 10
26.142
 20
1.5924
 30
0.0
 10
26.166
 20
1.694
 30
0.0
 10
26.213
 20
1.7867
 30
0.0
 10
26.213
 20
1.7867
 30
0.0
 10
26.2605
 20
1.8794
 30
0.0
 10
26.325
 20
1.9504
 30
0.0
 10
26.4068
 20
1.9998
 30
0.0
 10
26.4068
 20
1.9998
 30
0.0
 10
26.4887
 20
2.0487
 30
0.0
 10
26.5752
 20
2.0736
 30
0.0
 10
26.6674
 20
2.0736
 30
0.0
 10
26.6674
 20
2.0736
 30
0.0
 10
26.7544
 20
2.0736
 30
0.0
 10
26.8339
 20
2.0501
 30
0.0
 10
26.9059
 20
2.0031
 30
0.0
 10
26.9059
 20
2.0031
 30
0.0
 10
26.9774
 20
1.956
 30
0.0
 10
27.0343
 20
1.8869
 30
0.0
 10
27.0766
 20
1.7952
 30
0.0
 10
27.0766
 20
1.7952
 30
0.0
 10
27.1039
 20
1.9146
 30
0.0
 10
27.1613
 20
2.0073
 30
0.0
 10
27.2483
 20
2.0736
 30
0.0
 10
27.2483
 20
2.0736
 30
0.0
 10
27.3349
 20
2.1395
 30
0.0
 10
27.4435
 20
2.1724
 30
0.0
 10
27.5738
 20
2.1724
 30
0.0
 10
27.5738
 20
2.1724
 30
0.0
 10
27.7502
 20
2.1724
 30
0.0
 10
27.8998
 20
2.1084
 30
0.0
 10
28.0225
 20
1.9796
 30
0.0
 10
28.0225
 20
1.9796
 30
0.0
 10
28.1453
 20
1.8511
 30
0.0
 10
28.2064
 20
1.6884
 30
0.0
 10
28.2064
 20
1.4918
 30
0.0
 10
28.2064
 20
1.4918
 30
0.0
 10
28.2064
 20
1.3145
 30
0.0
 10
28.1538
 20
1.1672
 30
0.0
 10
28.0479
 20
1.0501
 30
0.0
 10
28.0479
 20
1.0501
 30
0.0
 10
27.9426
 20
0.933
 30
0.0
 10
27.8057
 20
0.8662
 30
0.0
 10
27.6373
 20
0.8497
 30
0.0
  0
SPLINE
  5
4D
330
1F
100
AcDbEntity
  8
VRSTVA_1
 62
   250
100
AcDbSpline
210
0.0
220
0.0
230
1.0
 70
    11
 71
     3
 72
    52
 73
    48
 74
     0
 42
0.0000000001
 43
0.0000000001
 40
0.0
 40
0.0
 40
0.0
 40
0.0
 40
0.0769230769230769
 40
0.0769230769230769
 40
0.0769230769230769
 40
0.0769230769230769
 40
0.1538461538461539
 40
0.1538461538461539
 40
0.1538461538461539
 40
0.1538461538461539
 40
0.2307692307692308
 40
0.2307692307692308
 40
0.2307692307692308
 40
0.2307692307692308
 40
0.3076923076923077
 40
0.3076923076923077
 40
0.3076923076923077
 40
0.3076923076923077
 40
0.3846153846153846
 40
0.3846153846153846
 40
0.3846153846153846
 40
0.3846153846153846
 40
0.4615384615384616
 40
0.4615384615384616
 40
0.4615384615384616
 40
0.4615384615384616
 40
0.5384615384615384
 40
0.5384615384615384
 40
0.5384615384615384
 40
0.5384615384615384
 40
0.6153846153846154
 40
0.6153846153846154
 40
0.6153846153846154
 40
0.6153846153846154
 40
0.6923076923076923
 40
0.6923076923076923
 40
0.6923076923076923
 40
0.6923076923076923
 40
0.7692307692307693
 40
0.7692307692307693
 40
0.7692307692307693
 40
0.7692307692307693
 40
0.8461538461538461
 40
0.8461538461538461
 40
0.8461538461538461
 40
0.8461538461538461
 40
1.0
 40
1.0
 40
1.0
 40
1.0
 10
27.1745
 20
2.4179
 30
0.0
 10
26.9355
 20
2.4179
 30
0.0
 10
26.7431
 20
2.4424
 30
0.0
 10
26.5978
 20
2.4918
 30
0.0
 10
26.5978
 20
2.4918
 30
0.0
 10
26.452
 20
2.5407
 30
0.0
 10
26.3396
 20
2.6141
 30
0.0
 10
26.2605
 20
2.711
 30
0.0
 10
26.2605
 20
2.711
 30
0.0
 10
26.1815
 20
2.8079
 30
0.0
 10
26.142
 20
2.9297
 30
0.0
 10
26.142
 20
3.0764
 30
0.0
 10
26.142
 20
3.0764
 30
0.0
 10
26.142
 20
3.1851
 30
0.0
 10
26.1641
 20
3.2801
 30
0.0
 10
26.2079
 20
3.3619
 30
0.0
 10
26.2079
 20
3.3619
 30
0.0
 10
26.2511
 20
3.4438
 30
0.0
 10
26.3142
 20
3.5111
 30
0.0
 10
26.3965
 20
3.5647
 30
0.0
 10
26.3965
 20
3.5647
 30
0.0
 10
26.4788
 20
3.6178
 30
0.0
 10
26.579
 20
3.6597
 30
0.0
 10
26.697
 20
3.6898
 30
0.0
 10
26.697
 20
3.6898
 30
0.0
 10
26.8151
 20
3.7204
 30
0.0
 10
26.9741
 20
3.7354
 30
0.0
 10
27.1745
 20
3.7354
 30
0.0
 10
27.1745
 20
3.7354
 30
0.0
 10
27.4115
 20
3.7354
 30
0.0
 10
27.6025
 20
3.711
 30
0.0
 10
27.7483
 20
3.6625
 30
0.0
 10
27.7483
 20
3.6625
 30
0.0
 10
27.8941
 20
3.6136
 30
0.0
 10
28.0065
 20
3.5407
 30
0.0
 10
28.086
 20
3.4438
 30
0.0
 10
28.086
 20
3.4438
 30
0.0
 10
28.1655
 20
3.3469
 30
0.0
 10
28.205
 20
3.2246
 30
0.0
 10
28.205
 20
3.0764
 30
0.0
 10
28.205
 20
3.0764
 30
0.0
 10
28.205
 20
2.8817
 30
0.0
 10
28.1354
 20
2.7288
 30
0.0
 10
27.9957
 20
2.6178
 30
0.0
 10
27.9957
 20
2.6178
 30
0.0
 10
27.8278
 20
2.4847
 30
0.0
 10
27.5536
 20
2.4179
 30
0.0
 10
27.1745
 20
2.4179
 30
0.0
  0
SPLINE
  5
4E
330
1F
100
AcDbEntity
  8
VRSTVA_1
 62
   250
100
AcDbSpline
210
0.0
220
0.0
230
1.0
 70
    11
 71
     3
 72
    36
 73
    32
 74
     0
 42
0.0000000001
 43
0.0000000001
 40
0.0
 40
0.0
 40
0.0
 40
0.0
 40
0.1111111111111111
 40
0.1111111111111111
 40
0.1111111111111111
 40
0.1111111111111111
 40
0.2222222222222222
 40
0.2222222222222222
 40
0.2222222222222222
 40
0.2222222222222222
 40
0.3333333333333333
 40
0.3333333333333333
 40
0.3333333333333333
 40
0.3333333333333333
 40
0.4444444444444444
 40
0.4444444444444444
 40
0.4444444444444444
 40
0.4444444444444444
 40
0.5555555555555556
 40
0.5555555555555556
 40
0.5555555555555556
 40
0.5555555555555556
 40
0.6666666666666666
 40
0.6666666666666666
 40
0.6666666666666666
 40
0.6666666666666666
 40
0.7777777777777778
 40
0.7777777777777778
 40
0.7777777777777778
 40
0.7777777777777778
 40
1.0
 40
1.0
 40
1.0
 40
1.0
 10
27.1745
 20
2.6729
 30
0.0
 10
27.5061
 20
2.6729
 30
0.0
 10
27.7267
 20
2.7119
 30
0.0
 10
27.8367
 20
2.7895
 30
0.0
 10
27.8367
 20
2.7895
 30
0.0
 10
27.9463
 20
2.8671
 30
0.0
 10
28.0014
 20
2.9626
 30
0.0
 10
28.0014
 20
3.0764
 30
0.0
 10
28.0014
 20
3.0764
 30
0.0
 10
28.0014
 20
3.1907
 30
0.0
 10
27.9459
 20
3.2862
 30
0.0
 10
27.8358
 20
3.3638
 30
0.0
 10
27.8358
 20
3.3638
 30
0.0
 10
27.7257
 20
3.4414
 30
0.0
 10
27.5051
 20
3.4805
 30
0.0
 10
27.1745
 20
3.4805
 30
0.0
 10
27.1745
 20
3.4805
 30
0.0
 10
26.8419
 20
3.4805
 30
0.0
 10
26.6208
 20
3.4414
 30
0.0
 10
26.5117
 20
3.3638
 30
0.0
 10
26.5117
 20
3.3638
 30
0.0
 10
26.4021
 20
3.2862
 30
0.0
 10
26.3476
 20
3.1898
 30
0.0
 10
26.3476
 20
3.0741
 30
0.0
 10
26.3476
 20
3.0741
 30
0.0
 10
26.3476
 20
2.9598
 30
0.0
 10
26.396
 20
2.869
 30
0.0
 10
26.4924
 20
2.8008
 30
0.0
 10
26.4924
 20
2.8008
 30
0.0
 10
26.6152
 20
2.7157
 30
0.0
 10
26.8429
 20
2.6729
 30
0.0
 10
27.1745
 20
2.6729
 30
0.0
  0
SPLINE
  5
4F
330
1F
100
AcDbEntity
  8
VRSTVA_1
 62
   250
100
AcDbSpline
210
0.0
220
0.0
230
1.0
 70
    11
 71
     3
 72
    52
 73
    48
 74
     0
 42
0.0000000001
 43
0.0000000001
 40
0.0
 40
0.0
 40
0.0
 40
0.0
 40
0.0769230769230769
 40
0.0769230769230769
 40
0.0769230769230769
 40
0.0769230769230769
 40
0.1538461538461539
 40
0.1538461538461539
 40
0.1538461538461539
 40
0.1538461538461539
 40
0.2307692307692308
 40
0.2307692307692308
 40
0.2307692307692308
 40
0.2307692307692308
 40
0.3076923076923077
 40
0.3076923076923077
 40
0.3076923076923077
 40
0.3076923076923077
 40
0.3846153846153846
 40
0.3846153846153846
 40
0.3846153846153846
 40
0.3846153846153846
 40
0.4615384615384616
 40
0.4615384615384616
 40
0.4615384615384616
 40
0.4615384615384616
 40
0.5384615384615384
 40
0.5384615384615384
 40
0.5384615384615384
 40
0.5384615384615384
 40
0.6153846153846154
 40
0.6153846153846154
 40
0.6153846153846154
 40
0.6153846153846154
 40
0.6923076923076923
 40
0.6923076923076923
 40
0.6923076923076923
 40
0.6923076923076923
 40
0.7692307692307693
 40
0.7692307692307693
 40
0.7692307692307693
 40
0.7692307692307693
 40
0.8461538461538461
 40
0.8461538461538461
 40
0.8461538461538461
 40
0.8461538461538461
 40
1.0
 40
1.0
 40
1.0
 40
1.0
 10
27.1745
 20
3.9875
 30
0.0
 10
26.9355
 20
3.9875
 30
0.0
 10
26.7431
 20
4.012
 30
0.0
 10
26.5978
 20
4.0614
 30
0.0
 10
26.5978
 20
4.0614
 30
0.0
 10
26.452
 20
4.1103
 30
0.0
 10
26.3396
 20
4.1837
 30
0.0
 10
26.2605
 20
4.2806
 30
0.0
 10
26.2605
 20
4.2806
 30
0.0
 10
26.1815
 20
4.3775
 30
0.0
 10
26.142
 20
4.4993
 30
0.0
 10
26.142
 20
4.646
 30
0.0
 10
26.142
 20
4.646
 30
0.0
 10
26.142
 20
4.7547
 30
0.0
 10
26.1641
 20
4.8497
 30
0.0
 10
26.2079
 20
4.9315
 30
0.0
 10
26.2079
 20
4.9315
 30
0.0
 10
26.2511
 20
5.0134
 30
0.0
 10
26.3142
 20
5.0807
 30
0.0
 10
26.3965
 20
5.1343
 30
0.0
 10
26.3965
 20
5.1343
 30
0.0
 10
26.4788
 20
5.1874
 30
0.0
 10
26.579
 20
5.2293
 30
0.0
 10
26.697
 20
5.2594
 30
0.0
 10
26.697
 20
5.2594
 30
0.0
 10
26.8151
 20
5.29
 30
0.0
 10
26.9741
 20
5.305
 30
0.0
 10
27.1745
 20
5.305
 30
0.0
 10
27.1745
 20
5.305
 30
0.0
 10
27.4115
 20
5.305
 30
0.0
 10
27.6025
 20
5.2806
 30
0.0
 10
27.7483
 20
5.2321
 30
0.0
 10
27.7483
 20
5.2321
 30
0.0
 10
27.8941
 20
5.1832
 30
0.0
 10
28.0065
 20
5.1103
 30
0.0
 10
28.086
 20
5.0134
 30
0.0
 10
28.086
 20
5.0134
 30
0.0
 10
28.1655
 20
4.9165
 30
0.0
 10
28.205
 20
4.7942
 30
0.0
 10
28.205
 20
4.646
 30
0.0
 10
28.205
 20
4.646
 30
0.0
 10
28.205
 20
4.4513
 30
0.0
 10
28.1354
 20
4.2984
 30
0.0
 10
27.9957
 20
4.1874
 30
0.0
 10
27.9957
 20
4.1874
 30
0.0
 10
27.8278
 20
4.0543
 30
0.0
 10
27.5536
 20
3.9875
 30
0.0
 10
27.1745
 20
3.9875
 30
0.0
  0
SPLINE
  5
50
330
1F
100
AcDbEntity
  8
VRSTVA_1
 62
   250
100
AcDbSpline
210
0.0
220
0.0
230
1.0
 70
    11
 71
     3
 72
    36
 73
    32
 74
     0
 42
0.0000000001
 43
0.0000000001
 40
0.0
 40
0.0
 40
0.0
 40
0.0
 40
0.1111111111111111
 40
0.1111111111111111
 40
0.1111111111111111
 40
0.1111111111111111
 40
0.2222222222222222
 40
0.2222222222222222
 40
0.2222222222222222
 40
0.2222222222222222
 40
0.3333333333333333
 40
0.3333333333333333
 40
0.3333333333333333
 40
0.3333333333333333
 40
0.4444444444444444
 40
0.4444444444444444
 40
0.4444444444444444
 40
0.4444444444444444
 40
0.5555555555555556
 40
0.5555555555555556
 40
0.5555555555555556
 40
0.5555555555555556
 40
0.6666666666666666
 40
0.6666666666666666
 40
0.6666666666666666
 40
0.6666666666666666
 40
0.7777777777777778
 40
0.7777777777777778
 40
0.7777777777777778
 40
0.7777777777777778
 40
1.0
 40
1.0
 40
1.0
 40
1.0
 10
27.1745
 20
4.2425
 30
0.0
 10
27.5061
 20
4.2425
 30
0.0
 10
27.7267
 20
4.2815
 30
0.0
 10
27.8367
 20
4.3591
 30
0.0
 10
27.8367
 20
4.3591
 30
0.0
 10
27.9463
 20
4.4367
 30
0.0
 10
28.0014
 20
4.5322
 30
0.0
 10
28.0014
 20
4.646
 30
0.0
 10
28.0014
 20
4.646
 30
0.0
 10
28.0014
 20
4.7603
 30
0.0
 10
27.9459
 20
4.8558
 30
0.0
 10
27.8358
 20
4.9334
 30
0.0
 10
27.8358
 20
4.9334
 30
0.0
 10
27.7257
 20
5.011
 30
0.0
 10
27.5051
 20
5.0501
 30
0.0
 10
27.1745
 20
5.0501
 30
0.0
 10
27.1745
 20
5.0501
 30
0.0
 10
26.8419
 20
5.0501
 30
0.0
 10
26.6208
 20
5.011
 30
0.0
 10
26.5117
 20
4.9334
 30
0.0
 10
26.5117
 20
4.9334
 30
0.0
 10
26.4021
 20
4.8558
 30
0.0
 10
26.3476
 20
4.7594
 30
0.0
 10
26.3476
 20
4.6437
 30
0.0
 10
26.3476
 20
4.6437
 30
0.0
 10
26.3476
 20
4.5294
 30
0.0
 10
26.396
 20
4.4386
 30
0.0
 10
26.4924
 20
4.3704
 30
0.0
 10
26.4924
 20
4.3704
 30
0.0
 10
26.6152
 20
4.2853
 30
0.0
 10
26.8429
 20
4.2425
 30
0.0
 10
27.1745
 20
4.2425
 30
0.0
  0
SPLINE
  5
51
330
1F
100
AcDbEntity
  8
VRSTVA_1
 62
   250
100
AcDbSpline
210
0.0
220
0.0
230
1.0
 70
    24
 71
     3
 72
     8
 73
     4
 74
     0
 42
0.0000000001
 43
0.0000000001
 40
0.0
 40
0.0
 40
0.0
 40
0.0
 40
1.0
 40
1.0
 40
1.0
 40
1.0
 10
-27.8773
 20
-22.6386
 30
0.0
 10
-27.8773
 20
-22.6386
 30
0.0
 10
-27.8773
 20
-29.2948
 30
0.0
 10
-27.8773
 20
-29.2948
 30
0.0
  0
SPLINE
  5
52
330
1F
100
AcDbEntity
  8
VRSTVA_1
 62
   250
100
AcDbSpline
210
0.0
220
0.0
230
1.0
 70
    24
 71
     3
 72
     8
 73
     4
 74
     0
 42
0.0000000001
 43
0.0000000001
 40
0.0
 40
0.0
 40
0.0
 40
0.0
 40
1.0
 40
1.0
 40
1.0
 40
1.0
 10
22.1418
 20
-22.65
 30
0.0
 10
22.1418
 20
-22.65
 30
0.0
 10
22.1418
 20
-29.3398
 30
0.0
 10
22.1418
 20
-29.3398
 30
0.0
  0
SPLINE
  5
53
330
1F
100
AcDbEntity
  8
VRSTVA_1
 62
   250
100
AcDbSpline
210
0.0
220
0.0
230
1.0
 70
    24
 71
     3
 72
     8
 73
     4
 74
     0
 42
0.0000000001
 43
0.0000000001
 40
0.0
 40
0.0
 40
0.0
 40
0.0
 40
1.0
 40
1.0
 40
1.0
 40
1.0
 10
-27.383
 20
-28.7268
 30
0.0
 10
-27.383
 20
-28.7268
 30
0.0
 10
21.6398
 20
-28.7268
 30
0.0
 10
21.6398
 20
-28.7268
 30
0.0
  0
SPLINE
  5
54
330
1F
100
AcDbEntity
  8
VRSTVA_1
 62
   250
100
AcDbSpline
210
0.0
220
0.0
230
1.0
 70
    11
 71
     3
 72
    20
 73
    16
 74
     0
 42
0.0000000001
 43
0.0000000001
 40
0.0
 40
0.0
 40
0.0
 40
0.0
 40
0.2
 40
0.2
 40
0.2
 40
0.2
 40
0.4
 40
0.4
 40
0.4
 40
0.4
 40
0.6
 40
0.6
 40
0.6
 40
0.6
 40
1.0
 40
1.0
 40
1.0
 40
1.0
 10
18.96
 20
-28.2269
 30
0.0
 10
18.96
 20
-28.2269
 30
0.0
 10
22.0558
 20
-28.6638
 30
0.0
 10
22.0558
 20
-28.6638
 30
0.0
 10
22.0558
 20
-28.6638
 30
0.0
 10
22.0558
 20
-28.6638
 30
0.0
 10
22.0558
 20
-28.7609
 30
0.0
 10
22.0558
 20
-28.7609
 30
0.0
 10
22.0558
 20
-28.7609
 30
0.0
 10
22.0558
 20
-28.7609
 30
0.0
 10
18.96
 20
-29.2268
 30
0.0
 10
18.96
 20
-29.2268
 30
0.0
 10
18.96
 20
-29.2268
 30
0.0
 10
18.96
 20
-29.2268
 30
0.0
 10
18.96
 20
-28.2269
 30
0.0
 10
18.96
 20
-28.2269
 30
0.0
  0
SPLINE
  5
55
330
1F
100
AcDbEntity
  8
VRSTVA_1
 62
   250
100
AcDbSpline
210
0.0
220
0.0
230
1.0
 70
    11
 71
     3
 72
    20
 73
    16
 74
     0
 42
0.0000000001
 43
0.0000000001
 40
0.0
 40
0.0
 40
0.0
 40
0.0
 40
0.2
 40
0.2
 40
0.2
 40
0.2
 40
0.4
 40
0.4
 40
0.4
 40
0.4
 40
0.6
 40
0.6
 40
0.6
 40
0.6
 40
1.0
 40
1.0
 40
1.0
 40
1.0
 10
-24.6959
 20
-29.1374
 30
0.0
 10
-24.6959
 20
-29.1374
 30
0.0
 10
-27.7918
 20
-28.7005
 30
0.0
 10
-27.7918
 20
-28.7005
 30
0.0
 10
-27.7918
 20
-28.7005
 30
0.0
 10
-27.7918
 20
-28.7005
 30
0.0
 10
-27.7918
 20
-28.6034
 30
0.0
 10
-27.7918
 20
-28.6034
 30
0.0
 10
-27.7918
 20
-28.6034
 30
0.0
 10
-27.7918
 20
-28.6034
 30
0.0
 10
-24.6959
 20
-28.1375
 30
0.0
 10
-24.6959
 20
-28.1375
 30
0.0
 10
-24.6959
 20
-28.1375
 30
0.0
 10
-24.6959
 20
-28.1375
 30
0.0
 10
-24.6959
 20
-29.1374
 30
0.0
 10
-24.6959
 20
-29.1374
 30
0.0
  0
SPLINE
  5
56
330
1F
100
AcDbEntity
  8
VRSTVA_1
 62
   250
100
AcDbSpline
210
0.0
220
0.0
230
1.0
 70
    11
 71
     3
 72
   124
 73
   120
 74
     0
 42
0.0000000001
 43
0.0000000001
 40
0.0
 40
0.0
 40
0.0
 40
0.0
 40
0.032258064516129
 40
0.032258064516129
 40
0.032258064516129
 40
0.032258064516129
 40
0.0645161290322581
 40
0.0645161290322581
 40
0.0645161290322581
 40
0.0645161290322581
 40
0.0967741935483871
 40
0.0967741935483871
 40
0.0967741935483871
 40
0.0967741935483871
 40
0.1290322580645161
 40
0.1290322580645161
 40
0.1290322580645161
 40
0.1290322580645161
 40
0.1612903225806452
 40
0.1612903225806452
 40
0.1612903225806452
 40
0.1612903225806452
 40
0.1935483870967742
 40
0.1935483870967742
 40
0.1935483870967742
 40
0.1935483870967742
 40
0.2258064516129032
 40
0.2258064516129032
 40
0.2258064516129032
 40
0.2258064516129032
 40
0.2580645161290323
 40
0.2580645161290323
 40
0.2580645161290323
 40
0.2580645161290323
 40
0.2903225806451613
 40
0.2903225806451613
 40
0.2903225806451613
 40
0.2903225806451613
 40
0.3225806451612903
 40
0.3225806451612903
 40
0.3225806451612903
 40
0.3225806451612903
 40
0.3548387096774194
 40
0.3548387096774194
 40
0.3548387096774194
 40
0.3548387096774194
 40
0.3870967741935484
 40
0.3870967741935484
 40
0.3870967741935484
 40
0.3870967741935484
 40
0.4193548387096774
 40
0.4193548387096774
 40
0.4193548387096774
 40
0.4193548387096774
 40
0.4516129032258064
 40
0.4516129032258064
 40
0.4516129032258064
 40
0.4516129032258064
 40
0.4838709677419355
 40
0.4838709677419355
 40
0.4838709677419355
 40
0.4838709677419355
 40
0.5161290322580645
 40
0.5161290322580645
 40
0.5161290322580645
 40
0.5161290322580645
 40
0.5483870967741935
 40
0.5483870967741935
 40
0.5483870967741935
 40
0.5483870967741935
 40
0.5806451612903226
 40
0.5806451612903226
 40
0.5806451612903226
 40
0.5806451612903226
 40
0.6129032258064516
 40
0.6129032258064516
 40
0.6129032258064516
 40
0.6129032258064516
 40
0.6451612903225806
 40
0.6451612903225806
 40
0.6451612903225806
 40
0.6451612903225806
 40
0.6774193548387096
 40
0.6774193548387096
 40
0.6774193548387096
 40
0.6774193548387096
 40
0.7096774193548387
 40
0.7096774193548387
 40
0.7096774193548387
 40
0.7096774193548387
 40
0.7419354838709677
 40
0.7419354838709677
 40
0.7419354838709677
 40
0.7419354838709677
 40
0.7741935483870968
 40
0.7741935483870968
 40
0.7741935483870968
 40
0.7741935483870968
 40
0.8064516129032258
 40
0.8064516129032258
 40
0.8064516129032258
 40
0.8064516129032258
 40
0.8387096774193549
 40
0.8387096774193549
 40
0.8387096774193549
 40
0.8387096774193549
 40
0.8709677419354839
 40
0.8709677419354839
 40
0.8709677419354839
 40
0.8709677419354839
 40
0.9032258064516129
 40
0.9032258064516129
 40
0.9032258064516129
 40
0.9032258064516129
 40
0.9354838709677419
 40
0.9354838709677419
 40
0.9354838709677419
 40
0.9354838709677419
 40
1.0
 40
1.0
 40
1.0
 40
1.0
 10
-4.792
 20
-27.5322
 30
0.0
 10
-4.792
 20
-27.5322
 30
0.0
 10
-4.5441
 20
-27.4993
 30
0.0
 10
-4.5441
 20
-27.4993
 30
0.0
 10
-4.5441
 20
-27.4993
 30
0.0
 10
-4.5154
 20
-27.6399
 30
0.0
 10
-4.4669
 20
-27.741
 30
0.0
 10
-4.3987
 20
-27.8031
 30
0.0
 10
-4.3987
 20
-27.8031
 30
0.0
 10
-4.3301
 20
-27.8652
 30
0.0
 10
-4.2468
 20
-27.8963
 30
0.0
 10
-4.1485
 20
-27.8963
 30
0.0
 10
-4.1485
 20
-27.8963
 30
0.0
 10
-4.0319
 20
-27.8963
 30
0.0
 10
-3.9331
 20
-27.8558
 30
0.0
 10
-3.8526
 20
-27.7749
 30
0.0
 10
-3.8526
 20
-27.7749
 30
0.0
 10
-3.7727
 20
-27.694
 30
0.0
 10
-3.7322
 20
-27.5938
 30
0.0
 10
-3.7322
 20
-27.4743
 30
0.0
 10
-3.7322
 20
-27.4743
 30
0.0
 10
-3.7322
 20
-27.3605
 30
0.0
 10
-3.7694
 20
-27.2664
 30
0.0
 10
-3.8437
 20
-27.1926
 30
0.0
 10
-3.8437
 20
-27.1926
 30
0.0
 10
-3.9185
 20
-27.1188
 30
0.0
 10
-4.013
 20
-27.0816
 30
0.0
 10
-4.1278
 20
-27.0816
 30
0.0
 10
-4.1278
 20
-27.0816
 30
0.0
 10
-4.1748
 20
-27.0816
 30
0.0
 10
-4.2332
 20
-27.091
 30
0.0
 10
-4.3028
 20
-27.1093
 30
0.0
 10
-4.3028
 20
-27.1093
 30
0.0
 10
-4.3028
 20
-27.1093
 30
0.0
 10
-4.275
 20
-26.8916
 30
0.0
 10
-4.275
 20
-26.8916
 30
0.0
 10
-4.275
 20
-26.8916
 30
0.0
 10
-4.2586
 20
-26.8934
 30
0.0
 10
-4.2454
 20
-26.8944
 30
0.0
 10
-4.2351
 20
-26.8944
 30
0.0
 10
-4.2351
 20
-26.8944
 30
0.0
 10
-4.1297
 20
-26.8944
 30
0.0
 10
-4.0347
 20
-26.8666
 30
0.0
 10
-3.95
 20
-26.8116
 30
0.0
 10
-3.95
 20
-26.8116
 30
0.0
 10
-3.8653
 20
-26.7566
 30
0.0
 10
-3.823
 20
-26.6714
 30
0.0
 10
-3.823
 20
-26.5567
 30
0.0
 10
-3.823
 20
-26.5567
 30
0.0
 10
-3.823
 20
-26.4659
 30
0.0
 10
-3.8541
 20
-26.3902
 30
0.0
 10
-3.9157
 20
-26.3309
 30
0.0
 10
-3.9157
 20
-26.3309
 30
0.0
 10
-3.9773
 20
-26.2712
 30
0.0
 10
-4.0568
 20
-26.241
 30
0.0
 10
-4.1542
 20
-26.241
 30
0.0
 10
-4.1542
 20
-26.241
 30
0.0
 10
-4.2506
 20
-26.241
 30
0.0
 10
-4.331
 20
-26.2716
 30
0.0
 10
-4.395
 20
-26.3318
 30
0.0
 10
-4.395
 20
-26.3318
 30
0.0
 10
-4.4594
 20
-26.3925
 30
0.0
 10
-4.5008
 20
-26.4838
 30
0.0
 10
-4.5192
 20
-26.6051
 30
0.0
 10
-4.5192
 20
-26.6051
 30
0.0
 10
-4.5192
 20
-26.6051
 30
0.0
 10
-4.767
 20
-26.5609
 30
0.0
 10
-4.767
 20
-26.5609
 30
0.0
 10
-4.767
 20
-26.5609
 30
0.0
 10
-4.7369
 20
-26.3944
 30
0.0
 10
-4.6678
 20
-26.2655
 30
0.0
 10
-4.5605
 20
-26.1743
 30
0.0
 10
-4.5605
 20
-26.1743
 30
0.0
 10
-4.4528
 20
-26.083
 30
0.0
 10
-4.3192
 20
-26.0369
 30
0.0
 10
-4.1593
 20
-26.0369
 30
0.0
 10
-4.1593
 20
-26.0369
 30
0.0
 10
-4.0493
 20
-26.0369
 30
0.0
 10
-3.9477
 20
-26.0609
 30
0.0
 10
-3.855
 20
-26.1079
 30
0.0
 10
-3.855
 20
-26.1079
 30
0.0
 10
-3.7623
 20
-26.1554
 30
0.0
 10
-3.6913
 20
-26.2199
 30
0.0
 10
-3.6419
 20
-26.3017
 30
0.0
 10
-3.6419
 20
-26.3017
 30
0.0
 10
-3.593
 20
-26.3836
 30
0.0
 10
-3.5681
 20
-26.4701
 30
0.0
 10
-3.5681
 20
-26.5623
 30
0.0
 10
-3.5681
 20
-26.5623
 30
0.0
 10
-3.5681
 20
-26.6493
 30
0.0
 10
-3.5916
 20
-26.7288
 30
0.0
 10
-3.6386
 20
-26.8008
 30
0.0
 10
-3.6386
 20
-26.8008
 30
0.0
 10
-3.6857
 20
-26.8723
 30
0.0
 10
-3.7548
 20
-26.9292
 30
0.0
 10
-3.8465
 20
-26.9715
 30
0.0
 10
-3.8465
 20
-26.9715
 30
0.0
 10
-3.7271
 20
-26.9988
 30
0.0
 10
-3.6344
 20
-27.0562
 30
0.0
 10
-3.5681
 20
-27.1432
 30
0.0
 10
-3.5681
 20
-27.1432
 30
0.0
 10
-3.5022
 20
-27.2298
 30
0.0
 10
-3.4693
 20
-27.3384
 30
0.0
 10
-3.4693
 20
-27.4687
 30
0.0
 10
-3.4693
 20
-27.4687
 30
0.0
 10
-3.4693
 20
-27.6451
 30
0.0
 10
-3.5333
 20
-27.7947
 30
0.0
 10
-3.6621
 20
-27.9174
 30
0.0
 10
-3.6621
 20
-27.9174
 30
0.0
 10
-3.7906
 20
-28.0402
 30
0.0
 10
-3.9533
 20
-28.1013
 30
0.0
 10
-4.1499
 20
-28.1013
 30
0.0
 10
-4.1499
 20
-28.1013
 30
0.0
 10
-4.3272
 20
-28.1013
 30
0.0
 10
-4.4745
 20
-28.0487
 30
0.0
 10
-4.5916
 20
-27.9428
 30
0.0
 10
-4.5916
 20
-27.9428
 30
0.0
 10
-4.7087
 20
-27.8375
 30
0.0
 10
-4.7755
 20
-27.7006
 30
0.0
 10
-4.792
 20
-27.5322
 30
0.0
  0
SPLINE
  5
57
330
1F
100
AcDbEntity
  8
VRSTVA_1
 62
   250
100
AcDbSpline
210
0.0
220
0.0
230
1.0
 70
    11
 71
     3
 72
    52
 73
    48
 74
     0
 42
0.0000000001
 43
0.0000000001
 40
0.0
 40
0.0
 40
0.0
 40
0.0
 40
0.0769230769230769
 40
0.0769230769230769
 40
0.0769230769230769
 40
0.0769230769230769
 40
0.1538461538461539
 40
0.1538461538461539
 40
0.1538461538461539
 40
0.1538461538461539
 40
0.2307692307692308
 40
0.2307692307692308
 40
0.2307692307692308
 40
0.2307692307692308
 40
0.3076923076923077
 40
0.3076923076923077
 40
0.3076923076923077
 40
0.3076923076923077
 40
0.3846153846153846
 40
0.3846153846153846
 40
0.3846153846153846
 40
0.3846153846153846
 40
0.4615384615384616
 40
0.4615384615384616
 40
0.4615384615384616
 40
0.4615384615384616
 40
0.5384615384615384
 40
0.5384615384615384
 40
0.5384615384615384
 40
0.5384615384615384
 40
0.6153846153846154
 40
0.6153846153846154
 40
0.6153846153846154
 40
0.6153846153846154
 40
0.6923076923076923
 40
0.6923076923076923
 40
0.6923076923076923
 40
0.6923076923076923
 40
0.7692307692307693
 40
0.7692307692307693
 40
0.7692307692307693
 40
0.7692307692307693
 40
0.8461538461538461
 40
0.8461538461538461
 40
0.8461538461538461
 40
0.8461538461538461
 40
1.0
 40
1.0
 40
1.0
 40
1.0
 10
-3.2238
 20
-27.0694
 30
0.0
 10
-3.2238
 20
-26.8304
 30
0.0
 10
-3.1993
 20
-26.638
 30
0.0
 10
-3.1499
 20
-26.4927
 30
0.0
 10
-3.1499
 20
-26.4927
 30
0.0
 10
-3.101
 20
-26.3469
 30
0.0
 10
-3.0276
 20
-26.2345
 30
0.0
 10
-2.9307
 20
-26.1554
 30
0.0
 10
-2.9307
 20
-26.1554
 30
0.0
 10
-2.8338
 20
-26.0764
 30
0.0
 10
-2.712
 20
-26.0369
 30
0.0
 10
-2.5653
 20
-26.0369
 30
0.0
 10
-2.5653
 20
-26.0369
 30
0.0
 10
-2.4566
 20
-26.0369
 30
0.0
 10
-2.3616
 20
-26.059
 30
0.0
 10
-2.2798
 20
-26.1028
 30
0.0
 10
-2.2798
 20
-26.1028
 30
0.0
 10
-2.1979
 20
-26.146
 30
0.0
 10
-2.1306
 20
-26.2091
 30
0.0
 10
-2.077
 20
-26.2914
 30
0.0
 10
-2.077
 20
-26.2914
 30
0.0
 10
-2.0239
 20
-26.3737
 30
0.0
 10
-1.982
 20
-26.4739
 30
0.0
 10
-1.9519
 20
-26.5919
 30
0.0
 10
-1.9519
 20
-26.5919
 30
0.0
 10
-1.9213
 20
-26.71
 30
0.0
 10
-1.9063
 20
-26.869
 30
0.0
 10
-1.9063
 20
-27.0694
 30
0.0
 10
-1.9063
 20
-27.0694
 30
0.0
 10
-1.9063
 20
-27.3064
 30
0.0
 10
-1.9307
 20
-27.4974
 30
0.0
 10
-1.9792
 20
-27.6432
 30
0.0
 10
-1.9792
 20
-27.6432
 30
0.0
 10
-2.0281
 20
-27.789
 30
0.0
 10
-2.101
 20
-27.9014
 30
0.0
 10
-2.1979
 20
-27.9809
 30
0.0
 10
-2.1979
 20
-27.9809
 30
0.0
 10
-2.2948
 20
-28.0604
 30
0.0
 10
-2.4171
 20
-28.0999
 30
0.0
 10
-2.5653
 20
-28.0999
 30
0.0
 10
-2.5653
 20
-28.0999
 30
0.0
 10
-2.76
 20
-28.0999
 30
0.0
 10
-2.9129
 20
-28.0303
 30
0.0
 10
-3.0239
 20
-27.8906
 30
0.0
 10
-3.0239
 20
-27.8906
 30
0.0
 10
-3.157
 20
-27.7227
 30
0.0
 10
-3.2238
 20
-27.4485
 30
0.0
 10
-3.2238
 20
-27.0694
 30
0.0
  0
SPLINE
  5
58
330
1F
100
AcDbEntity
  8
VRSTVA_1
 62
   250
100
AcDbSpline
210
0.0
220
0.0
230
1.0
 70
    11
 71
     3
 72
    36
 73
    32
 74
     0
 42
0.0000000001
 43
0.0000000001
 40
0.0
 40
0.0
 40
0.0
 40
0.0
 40
0.1111111111111111
 40
0.1111111111111111
 40
0.1111111111111111
 40
0.1111111111111111
 40
0.2222222222222222
 40
0.2222222222222222
 40
0.2222222222222222
 40
0.2222222222222222
 40
0.3333333333333333
 40
0.3333333333333333
 40
0.3333333333333333
 40
0.3333333333333333
 40
0.4444444444444444
 40
0.4444444444444444
 40
0.4444444444444444
 40
0.4444444444444444
 40
0.5555555555555556
 40
0.5555555555555556
 40
0.5555555555555556
 40
0.5555555555555556
 40
0.6666666666666666
 40
0.6666666666666666
 40
0.6666666666666666
 40
0.6666666666666666
 40
0.7777777777777778
 40
0.7777777777777778
 40
0.7777777777777778
 40
0.7777777777777778
 40
1.0
 40
1.0
 40
1.0
 40
1.0
 10
-2.9688
 20
-27.0694
 30
0.0
 10
-2.9688
 20
-27.401
 30
0.0
 10
-2.9298
 20
-27.6216
 30
0.0
 10
-2.8522
 20
-27.7316
 30
0.0
 10
-2.8522
 20
-27.7316
 30
0.0
 10
-2.7746
 20
-27.8412
 30
0.0
 10
-2.6791
 20
-27.8963
 30
0.0
 10
-2.5653
 20
-27.8963
 30
0.0
 10
-2.5653
 20
-27.8963
 30
0.0
 10
-2.451
 20
-27.8963
 30
0.0
 10
-2.3555
 20
-27.8408
 30
0.0
 10
-2.2779
 20
-27.7307
 30
0.0
 10
-2.2779
 20
-27.7307
 30
0.0
 10
-2.2003
 20
-27.6206
 30
0.0
 10
-2.1612
 20
-27.4
 30
0.0
 10
-2.1612
 20
-27.0694
 30
0.0
 10
-2.1612
 20
-27.0694
 30
0.0
 10
-2.1612
 20
-26.7368
 30
0.0
 10
-2.2003
 20
-26.5157
 30
0.0
 10
-2.2779
 20
-26.4066
 30
0.0
 10
-2.2779
 20
-26.4066
 30
0.0
 10
-2.3555
 20
-26.297
 30
0.0
 10
-2.4519
 20
-26.2425
 30
0.0
 10
-2.5676
 20
-26.2425
 30
0.0
 10
-2.5676
 20
-26.2425
 30
0.0
 10
-2.6819
 20
-26.2425
 30
0.0
 10
-2.7727
 20
-26.2909
 30
0.0
 10
-2.8409
 20
-26.3873
 30
0.0
 10
-2.8409
 20
-26.3873
 30
0.0
 10
-2.926
 20
-26.5101
 30
0.0
 10
-2.9688
 20
-26.7378
 30
0.0
 10
-2.9688
 20
-27.0694
 30
0.0
  0
SPLINE
  5
59
330
1F
100
AcDbEntity
  8
VRSTVA_1
 62
   250
100
AcDbSpline
210
0.0
220
0.0
230
1.0
 70
    11
 71
     3
 72
    52
 73
    48
 74
     0
 42
0.0000000001
 43
0.0000000001
 40
0.0
 40
0.0
 40
0.0
 40
0.0
 40
0.0769230769230769
 40
0.0769230769230769
 40
0.0769230769230769
 40
0.0769230769230769
 40
0.1538461538461539
 40
0.1538461538461539
 40
0.1538461538461539
 40
0.1538461538461539
 40
0.2307692307692308
 40
0.2307692307692308
 40
0.2307692307692308
 40
0.2307692307692308
 40
0.3076923076923077
 40
0.3076923076923077
 40
0.3076923076923077
 40
0.3076923076923077
 40
0.3846153846153846
 40
0.3846153846153846
 40
0.3846153846153846
 40
0.3846153846153846
 40
0.4615384615384616
 40
0.4615384615384616
 40
0.4615384615384616
 40
0.4615384615384616
 40
0.5384615384615384
 40
0.5384615384615384
 40
0.5384615384615384
 40
0.5384615384615384
 40
0.6153846153846154
 40
0.6153846153846154
 40
0.6153846153846154
 40
0.6153846153846154
 40
0.6923076923076923
 40
0.6923076923076923
 40
0.6923076923076923
 40
0.6923076923076923
 40
0.7692307692307693
 40
0.7692307692307693
 40
0.7692307692307693
 40
0.7692307692307693
 40
0.8461538461538461
 40
0.8461538461538461
 40
0.8461538461538461
 40
0.8461538461538461
 40
1.0
 40
1.0
 40
1.0
 40
1.0
 10
-1.6542
 20
-27.0694
 30
0.0
 10
-1.6542
 20
-26.8304
 30
0.0
 10
-1.6297
 20
-26.638
 30
0.0
 10
-1.5803
 20
-26.4927
 30
0.0
 10
-1.5803
 20
-26.4927
 30
0.0
 10
-1.5314
 20
-26.3469
 30
0.0
 10
-1.458
 20
-26.2345
 30
0.0
 10
-1.3611
 20
-26.1554
 30
0.0
 10
-1.3611
 20
-26.1554
 30
0.0
 10
-1.2642
 20
-26.0764
 30
0.0
 10
-1.1424
 20
-26.0369
 30
0.0
 10
-0.9957
 20
-26.0369
 30
0.0
 10
-0.9957
 20
-26.0369
 30
0.0
 10
-0.887
 20
-26.0369
 30
0.0
 10
-0.792
 20
-26.059
 30
0.0
 10
-0.7102
 20
-26.1028
 30
0.0
 10
-0.7102
 20
-26.1028
 30
0.0
 10
-0.6283
 20
-26.146
 30
0.0
 10
-0.561
 20
-26.2091
 30
0.0
 10
-0.5074
 20
-26.2914
 30
0.0
 10
-0.5074
 20
-26.2914
 30
0.0
 10
-0.4543
 20
-26.3737
 30
0.0
 10
-0.4124
 20
-26.4739
 30
0.0
 10
-0.3823
 20
-26.5919
 30
0.0
 10
-0.3823
 20
-26.5919
 30
0.0
 10
-0.3517
 20
-26.71
 30
0.0
 10
-0.3367
 20
-26.869
 30
0.0
 10
-0.3367
 20
-27.0694
 30
0.0
 10
-0.3367
 20
-27.0694
 30
0.0
 10
-0.3367
 20
-27.3064
 30
0.0
 10
-0.3611
 20
-27.4974
 30
0.0
 10
-0.4096
 20
-27.6432
 30
0.0
 10
-0.4096
 20
-27.6432
 30
0.0
 10
-0.4585
 20
-27.789
 30
0.0
 10
-0.5314
 20
-27.9014
 30
0.0
 10
-0.6283
 20
-27.9809
 30
0.0
 10
-0.6283
 20
-27.9809
 30
0.0
 10
-0.7252
 20
-28.0604
 30
0.0
 10
-0.8475
 20
-28.0999
 30
0.0
 10
-0.9957
 20
-28.0999
 30
0.0
 10
-0.9957
 20
-28.0999
 30
0.0
 10
-1.1904
 20
-28.0999
 30
0.0
 10
-1.3433
 20
-28.0303
 30
0.0
 10
-1.4543
 20
-27.8906
 30
0.0
 10
-1.4543
 20
-27.8906
 30
0.0
 10
-1.5874
 20
-27.7227
 30
0.0
 10
-1.6542
 20
-27.4485
 30
0.0
 10
-1.6542
 20
-27.0694
 30
0.0
  0
SPLINE
  5
5A
330
1F
100
AcDbEntity
  8
VRSTVA_1
 62
   250
100
AcDbSpline
210
0.0
220
0.0
230
1.0
 70
    11
 71
     3
 72
    36
 73
    32
 74
     0
 42
0.0000000001
 43
0.0000000001
 40
0.0
 40
0.0
 40
0.0
 40
0.0
 40
0.1111111111111111
 40
0.1111111111111111
 40
0.1111111111111111
 40
0.1111111111111111
 40
0.2222222222222222
 40
0.2222222222222222
 40
0.2222222222222222
 40
0.2222222222222222
 40
0.3333333333333333
 40
0.3333333333333333
 40
0.3333333333333333
 40
0.3333333333333333
 40
0.4444444444444444
 40
0.4444444444444444
 40
0.4444444444444444
 40
0.4444444444444444
 40
0.5555555555555556
 40
0.5555555555555556
 40
0.5555555555555556
 40
0.5555555555555556
 40
0.6666666666666666
 40
0.6666666666666666
 40
0.6666666666666666
 40
0.6666666666666666
 40
0.7777777777777778
 40
0.7777777777777778
 40
0.7777777777777778
 40
0.7777777777777778
 40
1.0
 40
1.0
 40
1.0
 40
1.0
 10
-1.3992
 20
-27.0694
 30
0.0
 10
-1.3992
 20
-27.401
 30
0.0
 10
-1.3602
 20
-27.6216
 30
0.0
 10
-1.2826
 20
-27.7316
 30
0.0
 10
-1.2826
 20
-27.7316
 30
0.0
 10
-1.205
 20
-27.8412
 30
0.0
 10
-1.1095
 20
-27.8963
 30
0.0
 10
-0.9957
 20
-27.8963
 30
0.0
 10
-0.9957
 20
-27.8963
 30
0.0
 10
-0.8814
 20
-27.8963
 30
0.0
 10
-0.7859
 20
-27.8408
 30
0.0
 10
-0.7083
 20
-27.7307
 30
0.0
 10
-0.7083
 20
-27.7307
 30
0.0
 10
-0.6307
 20
-27.6206
 30
0.0
 10
-0.5916
 20
-27.4
 30
0.0
 10
-0.5916
 20
-27.0694
 30
0.0
 10
-0.5916
 20
-27.0694
 30
0.0
 10
-0.5916
 20
-26.7368
 30
0.0
 10
-0.6307
 20
-26.5157
 30
0.0
 10
-0.7083
 20
-26.4066
 30
0.0
 10
-0.7083
 20
-26.4066
 30
0.0
 10
-0.7859
 20
-26.297
 30
0.0
 10
-0.8823
 20
-26.2425
 30
0.0
 10
-0.998
 20
-26.2425
 30
0.0
 10
-0.998
 20
-26.2425
 30
0.0
 10
-1.1123
 20
-26.2425
 30
0.0
 10
-1.2031
 20
-26.2909
 30
0.0
 10
-1.2713
 20
-26.3873
 30
0.0
 10
-1.2713
 20
-26.3873
 30
0.0
 10
-1.3564
 20
-26.5101
 30
0.0
 10
-1.3992
 20
-26.7378
 30
0.0
 10
-1.3992
 20
-27.0694
 30
0.0
  0
SPLINE
  5
5B
330
1F
100
AcDbEntity
  8
VRSTVA_1
 62
   250
100
AcDbSpline
210
0.0
220
0.0
230
1.0
 70
    24
 71
     3
 72
     8
 73
     4
 74
     0
 42
0.0000000001
 43
0.0000000001
 40
0.0
 40
0.0
 40
0.0
 40
0.0
 40
1.0
 40
1.0
 40
1.0
 40
1.0
 10
-10.6752
 20
8.1593
 30
0.0
 10
-10.6752
 20
8.1593
 30
0.0
 10
4.6807
 20
-2.593
 30
0.0
 10
4.6807
 20
-2.593
 30
0.0
  0
SPLINE
  5
5C
330
1F
100
AcDbEntity
  8
VRSTVA_1
 62
   250
100
AcDbSpline
210
0.0
220
0.0
230
1.0
 70
    11
 71
     3
 72
    20
 73
    16
 74
     0
 42
0.0000000001
 43
0.0000000001
 40
0.0
 40
0.0
 40
0.0
 40
0.0
 40
0.2
 40
0.2
 40
0.2
 40
0.2
 40
0.4
 40
0.4
 40
0.4
 40
0.4
 40
0.6
 40
0.6
 40
0.6
 40
0.6
 40
1.0
 40
1.0
 40
1.0
 40
1.0
 10
2.8561
 20
-0.7372
 30
0.0
 10
2.8561
 20
-0.7372
 30
0.0
 10
5.1414
 20
-2.8708
 30
0.0
 10
5.1414
 20
-2.8708
 30
0.0
 10
5.1414
 20
-2.8708
 30
0.0
 10
5.1414
 20
-2.8708
 30
0.0
 10
5.0858
 20
-2.9503
 30
0.0
 10
5.0858
 20
-2.9503
 30
0.0
 10
5.0858
 20
-2.9503
 30
0.0
 10
5.0858
 20
-2.9503
 30
0.0
 10
2.2826
 20
-1.5563
 30
0.0
 10
2.2826
 20
-1.5563
 30
0.0
 10
2.2826
 20
-1.5563
 30
0.0
 10
2.2826
 20
-1.5563
 30
0.0
 10
2.8561
 20
-0.7372
 30
0.0
 10
2.8561
 20
-0.7372
 30
0.0
  0
SPLINE
  5
5D
330
1F
100
AcDbEntity
  8
VRSTVA_1
 62
   250
100
AcDbSpline
210
0.0
220
0.0
230
1.0
 70
    11
 71
     3
 72
    20
 73
    16
 74
     0
 42
0.0000000001
 43
0.0000000001
 40
0.0
 40
0.0
 40
0.0
 40
0.0
 40
0.2
 40
0.2
 40
0.2
 40
0.2
 40
0.4
 40
0.4
 40
0.4
 40
0.4
 40
0.6
 40
0.6
 40
0.6
 40
0.6
 40
1.0
 40
1.0
 40
1.0
 40
1.0
 10
-8.7495
 20
6.1781
 30
0.0
 10
-8.7495
 20
6.1781
 30
0.0
 10
-11.0349
 20
8.3117
 30
0.0
 10
-11.0349
 20
8.3117
 30
0.0
 10
-11.0349
 20
8.3117
 30
0.0
 10
-11.0349
 20
8.3117
 30
0.0
 10
-10.9792
 20
8.3912
 30
0.0
 10
-10.9792
 20
8.3912
 30
0.0
 10
-10.9792
 20
8.3912
 30
0.0
 10
-10.9792
 20
8.3912
 30
0.0
 10
-8.176
 20
6.9971
 30
0.0
 10
-8.176
 20
6.9971
 30
0.0
 10
-8.176
 20
6.9971
 30
0.0
 10
-8.176
 20
6.9971
 30
0.0
 10
-8.7495
 20
6.1781
 30
0.0
 10
-8.7495
 20
6.1781
 30
0.0
  0
SPLINE
  5
5E
330
1F
100
AcDbEntity
  8
VRSTVA_1
 62
   250
100
AcDbSpline
210
0.0
220
0.0
230
1.0
 70
    11
 71
     3
 72
    84
 73
    80
 74
     0
 42
0.0000000001
 43
0.0000000001
 40
0.0
 40
0.0
 40
0.0
 40
0.0
 40
0.0476190476190476
 40
0.0476190476190476
 40
0.0476190476190476
 40
0.0476190476190476
 40
0.0952380952380952
 40
0.0952380952380952
 40
0.0952380952380952
 40
0.0952380952380952
 40
0.1428571428571428
 40
0.1428571428571428
 40
0.1428571428571428
 40
0.1428571428571428
 40
0.1904761904761905
 40
0.1904761904761905
 40
0.1904761904761905
 40
0.1904761904761905
 40
0.2380952380952381
 40
0.2380952380952381
 40
0.2380952380952381
 40
0.2380952380952381
 40
0.2857142857142857
 40
0.2857142857142857
 40
0.2857142857142857
 40
0.2857142857142857
 40
0.3333333333333333
 40
0.3333333333333333
 40
0.3333333333333333
 40
0.3333333333333333
 40
0.3809523809523809
 40
0.3809523809523809
 40
0.3809523809523809
 40
0.3809523809523809
 40
0.4285714285714285
 40
0.4285714285714285
 40
0.4285714285714285
 40
0.4285714285714285
 40
0.4761904761904762
 40
0.4761904761904762
 40
0.4761904761904762
 40
0.4761904761904762
 40
0.5238095238095238
 40
0.5238095238095238
 40
0.5238095238095238
 40
0.5238095238095238
 40
0.5714285714285714
 40
0.5714285714285714
 40
0.5714285714285714
 40
0.5714285714285714
 40
0.6190476190476191
 40
0.6190476190476191
 40
0.6190476190476191
 40
0.6190476190476191
 40
0.6666666666666666
 40
0.6666666666666666
 40
0.6666666666666666
 40
0.6666666666666666
 40
0.7142857142857143
 40
0.7142857142857143
 40
0.7142857142857143
 40
0.7142857142857143
 40
0.7619047619047619
 40
0.7619047619047619
 40
0.7619047619047619
 40
0.7619047619047619
 40
0.8095238095238095
 40
0.8095238095238095
 40
0.8095238095238095
 40
0.8095238095238095
 40
0.8571428571428571
 40
0.8571428571428571
 40
0.8571428571428571
 40
0.8571428571428571
 40
0.9047619047619048
 40
0.9047619047619048
 40
0.9047619047619048
 40
0.9047619047619048
 40
1.0
 40
1.0
 40
1.0
 40
1.0
 10
-2.7709
 20
5.2882
 30
0.0
 10
-2.7709
 20
5.2882
 30
0.0
 10
-2.4327
 20
5.3678
 30
0.0
 10
-2.4327
 20
5.3678
 30
0.0
 10
-2.4327
 20
5.3678
 30
0.0
 10
-2.4327
 20
5.3678
 30
0.0
 10
-2.3873
 20
5.1948
 30
0.0
 10
-2.3873
 20
5.1948
 30
0.0
 10
-2.3873
 20
5.1948
 30
0.0
 10
-2.3873
 20
5.1948
 30
0.0
 10
-2.7422
 20
5.1102
 30
0.0
 10
-2.7422
 20
5.1102
 30
0.0
 10
-2.7422
 20
5.1102
 30
0.0
 10
-2.745
 20
4.9686
 30
0.0
 10
-2.7605
 20
4.8537
 30
0.0
 10
-2.7882
 20
4.7658
 30
0.0
 10
-2.7882
 20
4.7658
 30
0.0
 10
-2.8245
 20
4.6499
 30
0.0
 10
-2.884
 20
4.5331
 30
0.0
 10
-2.966
 20
4.4159
 30
0.0
 10
-2.966
 20
4.4159
 30
0.0
 10
-3.0847
 20
4.2464
 30
0.0
 10
-3.2247
 20
4.1194
 30
0.0
 10
-3.3859
 20
4.0353
 30
0.0
 10
-3.3859
 20
4.0353
 30
0.0
 10
-3.5473
 20
3.9507
 30
0.0
 10
-3.7133
 20
3.9177
 30
0.0
 10
-3.8845
 20
3.9365
 30
0.0
 10
-3.8845
 20
3.9365
 30
0.0
 10
-4.0558
 20
3.956
 30
0.0
 10
-4.2109
 20
4.014
 30
0.0
 10
-4.3499
 20
4.1114
 30
0.0
 10
-4.3499
 20
4.1114
 30
0.0
 10
-4.454
 20
4.1843
 30
0.0
 10
-4.5378
 20
4.2647
 30
0.0
 10
-4.6016
 20
4.3531
 30
0.0
 10
-4.6016
 20
4.3531
 30
0.0
 10
-4.6505
 20
4.4211
 30
0.0
 10
-4.6958
 20
4.5172
 30
0.0
 10
-4.7377
 20
4.6419
 30
0.0
 10
-4.7377
 20
4.6419
 30
0.0
 10
-4.7377
 20
4.6419
 30
0.0
 10
-5.0759
 20
4.5623
 30
0.0
 10
-5.0759
 20
4.5623
 30
0.0
 10
-5.0759
 20
4.5623
 30
0.0
 10
-5.0759
 20
4.5623
 30
0.0
 10
-5.1213
 20
4.7353
 30
0.0
 10
-5.1213
 20
4.7353
 30
0.0
 10
-5.1213
 20
4.7353
 30
0.0
 10
-5.1213
 20
4.7353
 30
0.0
 10
-4.7668
 20
4.8184
 30
0.0
 10
-4.7668
 20
4.8184
 30
0.0
 10
-4.7668
 20
4.8184
 30
0.0
 10
-4.7623
 20
4.9823
 30
0.0
 10
-4.7444
 20
5.1128
 30
0.0
 10
-4.7135
 20
5.2094
 30
0.0
 10
-4.7135
 20
5.2094
 30
0.0
 10
-4.6826
 20
5.3061
 30
0.0
 10
-4.6283
 20
5.4106
 30
0.0
 10
-4.5504
 20
5.5219
 30
0.0
 10
-4.5504
 20
5.5219
 30
0.0
 10
-4.4314
 20
5.6918
 30
0.0
 10
-4.2915
 20
5.8195
 30
0.0
 10
-4.1306
 20
5.905
 30
0.0
 10
-4.1306
 20
5.905
 30
0.0
 10
-3.9697
 20
5.9905
 30
0.0
 10
-3.8046
 20
6.0246
 30
0.0
 10
-3.634
 20
6.0074
 30
0.0
 10
-3.634
 20
6.0074
 30
0.0
 10
-3.4641
 20
5.9901
 30
0.0
 10
-3.304
 20
5.9291
 30
0.0
 10
-3.1542
 20
5.8242
 30
0.0
 10
-3.1542
 20
5.8242
 30
0.0
 10
-3.0532
 20
5.7535
 30
0.0
 10
-2.9741
 20
5.6786
 30
0.0
 10
-2.9175
 20
5.5987
 30
0.0
 10
-2.9175
 20
5.5987
 30
0.0
 10
-2.8606
 20
5.5193
 30
0.0
 10
-2.8116
 20
5.4155
 30
0.0
 10
-2.7709
 20
5.2882
 30
0.0
  0
SPLINE
  5
5F
330
1F
100
AcDbEntity
  8
VRSTVA_1
 62
   250
100
AcDbSpline
210
0.0
220
0.0
230
1.0
 70
    11
 71
     3
 72
    32
 73
    28
 74
     0
 42
0.0000000001
 43
0.0000000001
 40
0.0
 40
0.0
 40
0.0
 40
0.0
 40
0.125
 40
0.125
 40
0.125
 40
0.125
 40
0.25
 40
0.25
 40
0.25
 40
0.25
 40
0.375
 40
0.375
 40
0.375
 40
0.375
 40
0.5
 40
0.5
 40
0.5
 40
0.5
 40
0.625
 40
0.625
 40
0.625
 40
0.625
 40
0.75
 40
0.75
 40
0.75
 40
0.75
 40
1.0
 40
1.0
 40
1.0
 40
1.0
 10
-3.0127
 20
5.2307
 30
0.0
 10
-3.0448
 20
5.3359
 30
0.0
 10
-3.0801
 20
5.4175
 30
0.0
 10
-3.1186
 20
5.4748
 30
0.0
 10
-3.1186
 20
5.4748
 30
0.0
 10
-3.1577
 20
5.5321
 30
0.0
 10
-3.2128
 20
5.5862
 30
0.0
 10
-3.2841
 20
5.6362
 30
0.0
 10
-3.2841
 20
5.6362
 30
0.0
 10
-3.449
 20
5.7516
 30
0.0
 10
-3.6241
 20
5.791
 30
0.0
 10
-3.8103
 20
5.7548
 30
0.0
 10
-3.8103
 20
5.7548
 30
0.0
 10
-3.9961
 20
5.7183
 30
0.0
 10
-4.1668
 20
5.5892
 30
0.0
 10
-4.3225
 20
5.3669
 30
0.0
 10
-4.3225
 20
5.3669
 30
0.0
 10
-4.3834
 20
5.2798
 30
0.0
 10
-4.4293
 20
5.1964
 30
0.0
 10
-4.4601
 20
5.117
 30
0.0
 10
-4.4601
 20
5.117
 30
0.0
 10
-4.4835
 20
5.0581
 30
0.0
 10
-4.5019
 20
4.9786
 30
0.0
 10
-4.5148
 20
4.8781
 30
0.0
 10
-4.5148
 20
4.8781
 30
0.0
 10
-4.5148
 20
4.8781
 30
0.0
 10
-3.0127
 20
5.2307
 30
0.0
 10
-3.0127
 20
5.2307
 30
0.0
  0
SPLINE
  5
60
330
1F
100
AcDbEntity
  8
VRSTVA_1
 62
   250
100
AcDbSpline
210
0.0
220
0.0
230
1.0
 70
    11
 71
     3
 72
    28
 73
    24
 74
     0
 42
0.0000000001
 43
0.0000000001
 40
0.0
 40
0.0
 40
0.0
 40
0.0
 40
0.1428571428571428
 40
0.1428571428571428
 40
0.1428571428571428
 40
0.1428571428571428
 40
0.2857142857142857
 40
0.2857142857142857
 40
0.2857142857142857
 40
0.2857142857142857
 40
0.4285714285714285
 40
0.4285714285714285
 40
0.4285714285714285
 40
0.4285714285714285
 40
0.5714285714285714
 40
0.5714285714285714
 40
0.5714285714285714
 40
0.5714285714285714
 40
0.7142857142857143
 40
0.7142857142857143
 40
0.7142857142857143
 40
0.7142857142857143
 40
1.0
 40
1.0
 40
1.0
 40
1.0
 10
-3.0017
 20
5.0496
 30
0.0
 10
-3.0017
 20
5.0496
 30
0.0
 10
-4.498
 20
4.6979
 30
0.0
 10
-4.498
 20
4.6979
 30
0.0
 10
-4.498
 20
4.6979
 30
0.0
 10
-4.4734
 20
4.6102
 30
0.0
 10
-4.4431
 20
4.5395
 30
0.0
 10
-4.4073
 20
4.4863
 30
0.0
 10
-4.4073
 20
4.4863
 30
0.0
 10
-4.3609
 20
4.4165
 30
0.0
 10
-4.3002
 20
4.3556
 30
0.0
 10
-4.2258
 20
4.3036
 30
0.0
 10
-4.2258
 20
4.3036
 30
0.0
 10
-4.0616
 20
4.1886
 30
0.0
 10
-3.886
 20
4.1517
 30
0.0
 10
-3.6977
 20
4.1927
 30
0.0
 10
-3.6977
 20
4.1927
 30
0.0
 10
-3.5097
 20
4.234
 30
0.0
 10
-3.3423
 20
4.359
 30
0.0
 10
-3.1958
 20
4.5683
 30
0.0
 10
-3.1958
 20
4.5683
 30
0.0
 10
-3.0863
 20
4.7246
 30
0.0
 10
-3.0214
 20
4.8854
 30
0.0
 10
-3.0017
 20
5.0496
 30
0.0
  0
SPLINE
  5
61
330
1F
100
AcDbEntity
  8
VRSTVA_1
 62
   250
100
AcDbSpline
210
0.0
220
0.0
230
1.0
 70
    11
 71
     3
 72
    40
 73
    36
 74
     0
 42
0.0000000001
 43
0.0000000001
 40
0.0
 40
0.0
 40
0.0
 40
0.0
 40
0.1
 40
0.1
 40
0.1
 40
0.1
 40
0.2
 40
0.2
 40
0.2
 40
0.2
 40
0.3
 40
0.3
 40
0.3
 40
0.3
 40
0.4
 40
0.4
 40
0.4
 40
0.4
 40
0.5
 40
0.5
 40
0.5
 40
0.5
 40
0.6
 40
0.6
 40
0.6
 40
0.6
 40
0.7
 40
0.7
 40
0.7
 40
0.7
 40
0.8
 40
0.8
 40
0.8
 40
0.8
 40
1.0
 40
1.0
 40
1.0
 40
1.0
 10
-2.5752
 20
2.9106
 30
0.0
 10
-2.5752
 20
2.9106
 30
0.0
 10
-2.7783
 20
3.0528
 30
0.0
 10
-2.7783
 20
3.0528
 30
0.0
 10
-2.7783
 20
3.0528
 30
0.0
 10
-2.7783
 20
3.0528
 30
0.0
 10
-1.8718
 20
4.3474
 30
0.0
 10
-1.8718
 20
4.3474
 30
0.0
 10
-1.8718
 20
4.3474
 30
0.0
 10
-1.9534
 20
4.3351
 30
0.0
 10
-2.05
 20
4.3332
 30
0.0
 10
-2.162
 20
4.3422
 30
0.0
 10
-2.162
 20
4.3422
 30
0.0
 10
-2.2744
 20
4.3515
 30
0.0
 10
-2.3702
 20
4.3663
 30
0.0
 10
-2.4497
 20
4.3874
 30
0.0
 10
-2.4497
 20
4.3874
 30
0.0
 10
-2.4497
 20
4.3874
 30
0.0
 10
-2.3123
 20
4.5836
 30
0.0
 10
-2.3123
 20
4.5836
 30
0.0
 10
-2.3123
 20
4.5836
 30
0.0
 10
-2.1612
 20
4.5575
 30
0.0
 10
-2.0164
 20
4.5526
 30
0.0
 10
-1.8781
 20
4.5689
 30
0.0
 10
-1.8781
 20
4.5689
 30
0.0
 10
-1.7399
 20
4.5859
 30
0.0
 10
-1.6279
 20
4.6171
 30
0.0
 10
-1.5423
 20
4.6639
 30
0.0
 10
-1.5423
 20
4.6639
 30
0.0
 10
-1.5423
 20
4.6639
 30
0.0
 10
-1.4116
 20
4.5725
 30
0.0
 10
-1.4116
 20
4.5725
 30
0.0
 10
-1.4116
 20
4.5725
 30
0.0
 10
-1.4116
 20
4.5725
 30
0.0
 10
-2.5752
 20
2.9106
 30
0.0
 10
-2.5752
 20
2.9106
 30
0.0
  0
SPLINE
  5
62
330
1F
100
AcDbEntity
  8
VRSTVA_1
 62
   250
100
AcDbSpline
210
0.0
220
0.0
230
1.0
 70
    11
 71
     3
 72
    40
 73
    36
 74
     0
 42
0.0000000001
 43
0.0000000001
 40
0.0
 40
0.0
 40
0.0
 40
0.0
 40
0.1
 40
0.1
 40
0.1
 40
0.1
 40
0.2
 40
0.2
 40
0.2
 40
0.2
 40
0.3
 40
0.3
 40
0.3
 40
0.3
 40
0.4
 40
0.4
 40
0.4
 40
0.4
 40
0.5
 40
0.5
 40
0.5
 40
0.5
 40
0.6
 40
0.6
 40
0.6
 40
0.6
 40
0.7
 40
0.7
 40
0.7
 40
0.7
 40
0.8
 40
0.8
 40
0.8
 40
0.8
 40
1.0
 40
1.0
 40
1.0
 40
1.0
 10
-1.4609
 20
2.1304
 30
0.0
 10
-1.4609
 20
2.1304
 30
0.0
 10
-1.664
 20
2.2726
 30
0.0
 10
-1.664
 20
2.2726
 30
0.0
 10
-1.664
 20
2.2726
 30
0.0
 10
-1.664
 20
2.2726
 30
0.0
 10
-0.7575
 20
3.5672
 30
0.0
 10
-0.7575
 20
3.5672
 30
0.0
 10
-0.7575
 20
3.5672
 30
0.0
 10
-0.8392
 20
3.5549
 30
0.0
 10
-0.9357
 20
3.553
 30
0.0
 10
-1.0477
 20
3.562
 30
0.0
 10
-1.0477
 20
3.562
 30
0.0
 10
-1.1601
 20
3.5712
 30
0.0
 10
-1.2559
 20
3.5861
 30
0.0
 10
-1.3354
 20
3.6072
 30
0.0
 10
-1.3354
 20
3.6072
 30
0.0
 10
-1.3354
 20
3.6072
 30
0.0
 10
-1.198
 20
3.8034
 30
0.0
 10
-1.198
 20
3.8034
 30
0.0
 10
-1.198
 20
3.8034
 30
0.0
 10
-1.0469
 20
3.7772
 30
0.0
 10
-0.9021
 20
3.7724
 30
0.0
 10
-0.7638
 20
3.7887
 30
0.0
 10
-0.7638
 20
3.7887
 30
0.0
 10
-0.6256
 20
3.8056
 30
0.0
 10
-0.5136
 20
3.8369
 30
0.0
 10
-0.428
 20
3.8837
 30
0.0
 10
-0.428
 20
3.8837
 30
0.0
 10
-0.428
 20
3.8837
 30
0.0
 10
-0.2973
 20
3.7922
 30
0.0
 10
-0.2973
 20
3.7922
 30
0.0
 10
-0.2973
 20
3.7922
 30
0.0
 10
-0.2973
 20
3.7922
 30
0.0
 10
-1.4609
 20
2.1304
 30
0.0
 10
-1.4609
 20
2.1304
 30
0.0
  0
SPLINE
  5
63
330
1F
100
AcDbEntity
  8
VRSTVA_1
 62
   250
100
AcDbSpline
210
0.0
220
0.0
230
1.0
 70
    11
 71
     3
 72
   124
 73
   120
 74
     0
 42
0.0000000001
 43
0.0000000001
 40
0.0
 40
0.0
 40
0.0
 40
0.0
 40
0.032258064516129
 40
0.032258064516129
 40
0.032258064516129
 40
0.032258064516129
 40
0.0645161290322581
 40
0.0645161290322581
 40
0.0645161290322581
 40
0.0645161290322581
 40
0.0967741935483871
 40
0.0967741935483871
 40
0.0967741935483871
 40
0.0967741935483871
 40
0.1290322580645161
 40
0.1290322580645161
 40
0.1290322580645161
 40
0.1290322580645161
 40
0.1612903225806452
 40
0.1612903225806452
 40
0.1612903225806452
 40
0.1612903225806452
 40
0.1935483870967742
 40
0.1935483870967742
 40
0.1935483870967742
 40
0.1935483870967742
 40
0.2258064516129032
 40
0.2258064516129032
 40
0.2258064516129032
 40
0.2258064516129032
 40
0.2580645161290323
 40
0.2580645161290323
 40
0.2580645161290323
 40
0.2580645161290323
 40
0.2903225806451613
 40
0.2903225806451613
 40
0.2903225806451613
 40
0.2903225806451613
 40
0.3225806451612903
 40
0.3225806451612903
 40
0.3225806451612903
 40
0.3225806451612903
 40
0.3548387096774194
 40
0.3548387096774194
 40
0.3548387096774194
 40
0.3548387096774194
 40
0.3870967741935484
 40
0.3870967741935484
 40
0.3870967741935484
 40
0.3870967741935484
 40
0.4193548387096774
 40
0.4193548387096774
 40
0.4193548387096774
 40
0.4193548387096774
 40
0.4516129032258064
 40
0.4516129032258064
 40
0.4516129032258064
 40
0.4516129032258064
 40
0.4838709677419355
 40
0.4838709677419355
 40
0.4838709677419355
 40
0.4838709677419355
 40
0.5161290322580645
 40
0.5161290322580645
 40
0.5161290322580645
 40
0.5161290322580645
 40
0.5483870967741935
 40
0.5483870967741935
 40
0.5483870967741935
 40
0.5483870967741935
 40
0.5806451612903226
 40
0.5806451612903226
 40
0.5806451612903226
 40
0.5806451612903226
 40
0.6129032258064516
 40
0.6129032258064516
 40
0.6129032258064516
 40
0.6129032258064516
 40
0.6451612903225806
 40
0.6451612903225806
 40
0.6451612903225806
 40
0.6451612903225806
 40
0.6774193548387096
 40
0.6774193548387096
 40
0.6774193548387096
 40
0.6774193548387096
 40
0.7096774193548387
 40
0.7096774193548387
 40
0.7096774193548387
 40
0.7096774193548387
 40
0.7419354838709677
 40
0.7419354838709677
 40
0.7419354838709677
 40
0.7419354838709677
 40
0.7741935483870968
 40
0.7741935483870968
 40
0.7741935483870968
 40
0.7741935483870968
 40
0.8064516129032258
 40
0.8064516129032258
 40
0.8064516129032258
 40
0.8064516129032258
 40
0.8387096774193549
 40
0.8387096774193549
 40
0.8387096774193549
 40
0.8387096774193549
 40
0.8709677419354839
 40
0.8709677419354839
 40
0.8709677419354839
 40
0.8709677419354839
 40
0.9032258064516129
 40
0.9032258064516129
 40
0.9032258064516129
 40
0.9032258064516129
 40
0.9354838709677419
 40
0.9354838709677419
 40
0.9354838709677419
 40
0.9354838709677419
 40
1.0
 40
1.0
 40
1.0
 40
1.0
 10
-0.6334
 20
2.2021
 30
0.0
 10
-0.6334
 20
2.2021
 30
0.0
 10
-0.4114
 20
2.0869
 30
0.0
 10
-0.4114
 20
2.0869
 30
0.0
 10
-0.4114
 20
2.0869
 30
0.0
 10
-0.4686
 20
1.9552
 30
0.0
 10
-0.4868
 20
1.8446
 30
0.0
 10
-0.4666
 20
1.7546
 30
0.0
 10
-0.4666
 20
1.7546
 30
0.0
 10
-0.446
 20
1.6644
 30
0.0
 10
-0.3956
 20
1.5911
 30
0.0
 10
-0.3151
 20
1.5347
 30
0.0
 10
-0.3151
 20
1.5347
 30
0.0
 10
-0.2196
 20
1.4679
 30
0.0
 10
-0.1154
 20
1.4444
 30
0.0
 10
-0.0031
 20
1.4645
 30
0.0
 10
-0.0031
 20
1.4645
 30
0.0
 10
0.1088
 20
1.4849
 30
0.0
 10
0.1994
 20
1.5438
 30
0.0
 10
0.268
 20
1.6416
 30
0.0
 10
0.268
 20
1.6416
 30
0.0
 10
0.3333
 20
1.7349
 30
0.0
 10
0.3568
 20
1.8333
 30
0.0
 10
0.3382
 20
1.9364
 30
0.0
 10
0.3382
 20
1.9364
 30
0.0
 10
0.3193
 20
2.0397
 30
0.0
 10
0.2632
 20
2.1244
 30
0.0
 10
0.1692
 20
2.1902
 30
0.0
 10
0.1692
 20
2.1902
 30
0.0
 10
0.1307
 20
2.2172
 30
0.0
 10
0.0774
 20
2.243
 30
0.0
 10
0.0099
 20
2.2679
 30
0.0
 10
0.0099
 20
2.2679
 30
0.0
 10
0.0099
 20
2.2679
 30
0.0
 10
0.1576
 20
2.4303
 30
0.0
 10
0.1576
 20
2.4303
 30
0.0
 10
0.1576
 20
2.4303
 30
0.0
 10
0.17
 20
2.4194
 30
0.0
 10
0.1802
 20
2.411
 30
0.0
 10
0.1886
 20
2.4051
 30
0.0
 10
0.1886
 20
2.4051
 30
0.0
 10
0.275
 20
2.3447
 30
0.0
 10
0.3688
 20
2.3129
 30
0.0
 10
0.4697
 20
2.3094
 30
0.0
 10
0.4697
 20
2.3094
 30
0.0
 10
0.5706
 20
2.3059
 30
0.0
 10
0.6541
 20
2.3514
 30
0.0
 10
0.7199
 20
2.4454
 30
0.0
 10
0.7199
 20
2.4454
 30
0.0
 10
0.772
 20
2.5198
 30
0.0
 10
0.7899
 20
2.5996
 30
0.0
 10
0.7735
 20
2.6835
 30
0.0
 10
0.7735
 20
2.6835
 30
0.0
 10
0.7573
 20
2.7677
 30
0.0
 10
0.7095
 20
2.8381
 30
0.0
 10
0.6297
 20
2.894
 30
0.0
 10
0.6297
 20
2.894
 30
0.0
 10
0.5507
 20
2.9492
 30
0.0
 10
0.4673
 20
2.9703
 30
0.0
 10
0.3804
 20
2.9577
 30
0.0
 10
0.3804
 20
2.9577
 30
0.0
 10
0.2928
 20
2.9449
 30
0.0
 10
0.2065
 20
2.8939
 30
0.0
 10
0.1219
 20
2.8051
 30
0.0
 10
0.1219
 20
2.8051
 30
0.0
 10
0.1219
 20
2.8051
 30
0.0
 10
-0.0558
 20
2.9834
 30
0.0
 10
-0.0558
 20
2.9834
 30
0.0
 10
-0.0558
 20
2.9834
 30
0.0
 10
0.0644
 20
3.1025
 30
0.0
 10
0.1949
 20
3.1685
 30
0.0
 10
0.3351
 20
3.1816
 30
0.0
 10
0.3351
 20
3.1816
 30
0.0
 10
0.4757
 20
3.1946
 30
0.0
 10
0.6116
 20
3.1558
 30
0.0
 10
0.7426
 20
3.0641
 30
0.0
 10
0.7426
 20
3.0641
 30
0.0
 10
0.8327
 20
3.001
 30
0.0
 10
0.9021
 20
2.923
 30
0.0
 10
0.9511
 20
2.8314
 30
0.0
 10
0.9511
 20
2.8314
 30
0.0
 10
0.9998
 20
2.7393
 30
0.0
 10
1.021
 20
2.6457
 30
0.0
 10
1.0145
 20
2.5504
 30
0.0
 10
1.0145
 20
2.5504
 30
0.0
 10
1.0076
 20
2.4553
 30
0.0
 10
0.9784
 20
2.3701
 30
0.0
 10
0.9255
 20
2.2946
 30
0.0
 10
0.9255
 20
2.2946
 30
0.0
 10
0.8756
 20
2.2233
 30
0.0
 10
0.8108
 20
2.1717
 30
0.0
 10
0.731
 20
2.1397
 30
0.0
 10
0.731
 20
2.1397
 30
0.0
 10
0.6514
 20
2.1081
 30
0.0
 10
0.5621
 20
2.1011
 30
0.0
 10
0.4627
 20
2.1191
 30
0.0
 10
0.4627
 20
2.1191
 30
0.0
 10
0.5449
 20
2.0282
 30
0.0
 10
0.5879
 20
1.928
 30
0.0
 10
0.5923
 20
1.8187
 30
0.0
 10
0.5923
 20
1.8187
 30
0.0
 10
0.5966
 20
1.71
 30
0.0
 10
0.5613
 20
1.6022
 30
0.0
 10
0.4866
 20
1.4954
 30
0.0
 10
0.4866
 20
1.4954
 30
0.0
 10
0.3854
 20
1.3509
 30
0.0
 10
0.2471
 20
1.2651
 30
0.0
 10
0.0713
 20
1.2385
 30
0.0
 10
0.0713
 20
1.2385
 30
0.0
 10
-0.1044
 20
1.2116
 30
0.0
 10
-0.2728
 20
1.2549
 30
0.0
 10
-0.4338
 20
1.3676
 30
0.0
 10
-0.4338
 20
1.3676
 30
0.0
 10
-0.579
 20
1.4693
 30
0.0
 10
-0.6695
 20
1.5969
 30
0.0
 10
-0.7047
 20
1.7508
 30
0.0
 10
-0.7047
 20
1.7508
 30
0.0
 10
-0.7402
 20
1.9042
 30
0.0
 10
-0.7164
 20
2.0547
 30
0.0
 10
-0.6334
 20
2.2021
 30
0.0
  0
ENDSEC
  0
SECTION
  2
OBJECTS
  0
DICTIONARY
  5
C
330
0
100
AcDbDictionary
  3
ACAD_GROUP
350
D
  3
ACAD_LAYOUT
350
1A
  3
ACAD_MATERIAL
350
3B
  3
ACAD_MLEADERSTYLE
350
86
  3
ACAD_MLINESTYLE
350
17
  3
ACAD_PLOTSETTINGS
350
19
  3
ACAD_VISUALSTYLE
350
2A
  3
ACDBHEADERROUNDTRIPXREC
350
64
  3
ACDBVARIABLEDICTIONARY
350
84
  0
DICTIONARY
  5
D
102
{ACAD_REACTORS
330
C
102
}
330
C
100
AcDbDictionary
  0
DICTIONARY
  5
1A
102
{ACAD_REACTORS
330
C
102
}
330
C
100
AcDbDictionary
  0
DICTIONARY
  5
3B
102
{ACAD_REACTORS
330
C
102
}
330
C
100
AcDbDictionary
  3
BYBLOCK
350
3D
  3
BYLAYER
350
3C
  3
GLOBAL
350
3E
  0
DICTIONARY
  5
86
102
{ACAD_REACTORS
330
C
102
}
330
C
100
AcDbDictionary
  0
DICTIONARY
  5
17
102
{ACAD_REACTORS
330
C
102
}
330
C
100
AcDbDictionary
  3
STANDARD
350
18
  0
DICTIONARY
  5
19
102
{ACAD_REACTORS
330
C
102
}
330
C
100
AcDbDictionary
  0
DICTIONARY
  5
2A
102
{ACAD_REACTORS
330
C
102
}
330
C
100
AcDbDictionary
  3
2DWIREFRAME
350
2F
  3
3D_HIDDEN
350
31
  3
3DWIREFRAME
350
30
  3
BASIC
350
32
  3
BRIGHTEN
350
36
  3
COLORCHANGE
350
3A
  3
CONCEPTUAL
350
34
  3
DIM
350
35
  3
FACEPATTERN
350
39
  3
FLAT
350
2B
  3
FLATWITHEDGES
350
2C
  3
GOURAUD
350
2D
  3
GOURAUDWITHEDGES
350
2E
  3
LINEPATTERN
350
38
  3
REALISTIC
350
33
  3
THICKEN
350
37
  0
DICTIONARY
  5
64
102
{ACAD_REACTORS
330
C
102
}
330
C
100
AcDbDictionary
  3
CEPSNTYPE
350
6D
  3
DIMSTYLEDATA
350
83
  3
FINGERPRINTGUID
350
6E
  3
HYPERLINKBASE
350
67
  3
INSUNITS
350
6C
  3
LAYOUTDICT
350
69
  3
LWETCUNION
350
6B
  3
PLOTSETDICT
350
6A
  3
PSVPSCALE
350
70
  3
PUCSBASE
350
73
  3
PUCSORGBACK
350
79
  3
PUCSORGBOTTOM
350
75
  3
PUCSORGFRONT
350
78
  3
PUCSORGLEFT
350
76
  3
PUCSORGRIGHT
350
77
  3
PUCSORGTOP
350
74
  3
PUCSORTHOREF
350
71
  3
PUCSORTHOVIEW
350
72
  3
STYLESHEET
350
68
  3
TSTACKALIGN
350
65
  3
TSTACKSIZE
350
66
  3
UCSBASE
350
7C
  3
UCSORGBACK
350
82
  3
UCSORGBOTTOM
350
7E
  3
UCSORGFRONT
350
81
  3
UCSORGLEFT
350
7F
  3
UCSORGRIGHT
350
80
  3
UCSORGTOP
350
7D
  3
UCSORTHOREF
350
7A
  3
UCSORTHOVIEW
350
7B
  3
VERSIONGUID
350
6F
  0
DICTIONARY
  5
84
102
{ACAD_REACTORS
330
C
102
}
330
C
100
AcDbDictionary
  3
DIMASSOC
350
87
  3
HIDETEXT
350
88
  0
MATERIAL
  5
3D
102
{ACAD_REACTORS
330
3B
102
}
102
{ACAD_XDICTIONARY
360
8B
102
}
330
3B
100
AcDbMaterial
  1
ByBlock
  0
MATERIAL
  5
3C
102
{ACAD_REACTORS
330
3B
102
}
102
{ACAD_XDICTIONARY
360
89
102
}
330
3B
100
AcDbMaterial
  1
ByLayer
  0
MATERIAL
  5
3E
102
{ACAD_REACTORS
330
3B
102
}
102
{ACAD_XDICTIONARY
360
8D
102
}
330
3B
100
AcDbMaterial
  1
Global
  0
MLINESTYLE
  5
18
102
{ACAD_REACTORS
330
17
102
}
330
17
100
AcDbMlineStyle
  2
Standard
 70
     0
  3

 62
   256
 51
90.0
 52
90.0
 71
     2
 49
0.5
 62
   256
  6
BYLAYER
 49
-0.5
 62
   256
  6
BYLAYER
  0
ACAD_PROXY_OBJECT
  5
2F
102
{ACAD_REACTORS
330
2A
102
}
330
2A
100
AcDbProxyObject
 90
      499
 91
      501
 93
      436
310
42CC9915DA5C99599C985B595049028333333333333E3BF0000000000000FB0107901411070040501600405405064090741402480A0340
1001
ACAD
1000
AcDbSavedByObjectVersion
1070
     0
  0
ACAD_PROXY_OBJECT
  5
31
102
{ACAD_REACTORS
330
2A
102
}
330
2A
100
AcDbProxyObject
 90
      499
 91
      501
 93
      500
310
424CD108121A5919195B90640502408333333333333E3BF0000000000000FB01079024090700405020000000000001110200405405064090740C02480A0340
1001
ACAD
1000
AcDbSavedByObjectVersion
1070
     0
  0
ACAD_PROXY_OBJECT
  5
30
102
{ACAD_REACTORS
330
2A
102
}
330
2A
100
AcDbProxyObject
 90
      499
 91
      501
 93
      436
310
42CCD915DA5C99599C985B595059028333333333333E3BF0000000000000FB0107901411070040501600405405064090741402480A0340
1001
ACAD
1000
AcDbSavedByObjectVersion
1070
     0
  0
ACAD_PROXY_OBJECT
  5
32
102
{ACAD_REACTORS
330
2A
102
}
330
2A
100
AcDbProxyObject
 90
      499
 91
      501
 93
      388
310
4150985CDA58D07406404333333333333E3BF0000000000000FB0107A41107004050150841D405064090741402480A0350
1001
ACAD
1000
AcDbSavedByObjectVersion
1070
     0
  0
ACAD_PROXY_OBJECT
  5
36
102
{ACAD_REACTORS
330
2A
102
}
330
2A
100
AcDbProxyObject
 90
      499
 91
      501
 93
      428
310
42109C9A59DA1D195B90C409028333333333333E3BF0000000000000FB010790141107004050150841D405064090741402480A029950
1001
ACAD
1000
AcDbSavedByObjectVersion
1070
     0
  0
ACAD_PROXY_OBJECT
  5
3A
102
{ACAD_REACTORS
330
2A
102
}
330
2A
100
AcDbProxyObject
 90
      499
 91
      501
 93
      452
310
42D0DBDB1BDC90DA185B99D95104090240C333333333333E3BF0000000000000FB0108901411070040501508421405064090741402480A0350
1001
ACAD
1000
AcDbSavedByObjectVersion
1070
     0
  0
ACAD_PROXY_OBJECT
  5
34
102
{ACAD_REACTORS
330
2A
102
}
330
2A
100
AcDbProxyObject
 90
      499
 91
      501
 93
      500
310
4290DBDB98D95C1D1D585B10940D028333333333333E3BF0000000000000FB0107902409070040501000000000000111010841D405064090740C02480A0340
1001
ACAD
1000
AcDbSavedByObjectVersion
1070
     0
  0
ACAD_PROXY_OBJECT
  5
35
102
{ACAD_REACTORS
330
2A
102
}
330
2A
100
AcDbProxyObject
 90
      499
 91
      501
 93
      412
310
40D11A5B50B409028333333333333E3BF0000000000000FB010790141107004050150841D405064090741402480A02677FFFFFD0
1001
ACAD
1000
AcDbSavedByObjectVersion
1070
     0
  0
ACAD_PROXY_OBJECT
  5
39
102
{ACAD_REACTORS
330
2A
102
}
330
2A
100
AcDbProxyObject
 90
      499
 91
      501
 93
      444
310
42D19858D95C185D1D195C9B90F409028333333333333E3BF0000000000000FB010790141107004050150841D405064090741402480A0350
1001
ACAD
1000
AcDbSavedByObjectVersion
1070
     0
  0
ACAD_PROXY_OBJECT
  5
2B
102
{ACAD_REACTORS
330
2A
102
}
330
2A
100
AcDbProxyObject
 90
      499
 91
      501
 93
      388
310
41119B185D240901404333333333333E3BF0000000000000F9010740A41107004050150841D405064090741402480A1B50
1001
ACAD
1000
AcDbSavedByObjectVersion
1070
     0
  0
ACAD_PROXY_OBJECT
  5
2C
102
{ACAD_REACTORS
330
2A
102
}
330
2A
100
AcDbProxyObject
 90
      499
 91
      501
 93
      476
310
43519B185D15DA5D1A115919D95CD0140901404333333333333E3BF0000000000000F9010740901411070040501600405405064090741402480A1B50
1001
ACAD
1000
AcDbSavedByObjectVersion
1070
     0
  0
ACAD_PROXY_OBJECT
  5
2D
102
{ACAD_REACTORS
330
2A
102
}
330
2A
100
AcDbProxyObject
 90
      499
 91
      501
 93
      412
310
41D1DBDD5C985D5910240902404333333333333E3BF0000000000000F9010740A411070040501641D405064090741402480A1B50
1001
ACAD
1000
AcDbSavedByObjectVersion
1070
     0
  0
ACAD_PROXY_OBJECT
  5
2E
102
{ACAD_REACTORS
330
2A
102
}
330
2A
100
AcDbProxyObject
 90
      499
 91
      501
 93
      500
310
4411DBDD5C985D5915DA5D1A115919D95CD0340902404333333333333E3BF0000000000000F9010740901411070040501600405405064090741402480A1B50
1001
ACAD
1000
AcDbSavedByObjectVersion
1070
     0
  0
ACAD_PROXY_OBJECT
  5
38
102
{ACAD_REACTORS
330
2A
102
}
330
2A
100
AcDbProxyObject
 90
      499
 91
      501
 93
      444
310
42D31A5B995C185D1D195C9B90E409028333333333333E3BF0000000000000FB010790141107004050750841D405064090741402483A0350
1001
ACAD
1000
AcDbSavedByObjectVersion
1070
     0
  0
ACAD_PROXY_OBJECT
  5
33
102
{ACAD_REACTORS
330
2A
102
}
330
2A
100
AcDbProxyObject
 90
      499
 91
      501
 93
      420
310
425499585B1A5CDD1A58D08409028333333333333E3BF0000000000000FB01079019070040501508421405064090741402480A1B40
1001
ACAD
1000
AcDbSavedByObjectVersion
1070
     0
  0
ACAD_PROXY_OBJECT
  5
37
102
{ACAD_REACTORS
330
2A
102
}
330
2A
100
AcDbProxyObject
 90
      499
 91
      501
 93
      412
310
41D51A1A58DAD95B90D409028333333333333E3BF0000000000000FB010790141107004050150C41D405064090741402480A0350
1001
ACAD
1000
AcDbSavedByObjectVersion
1070
     0
  0
XRECORD
  5
6D
102
{ACAD_REACTORS
330
64
102
}
330
64
100
AcDbXrecord
 90
        0
  0
XRECORD
  5
83
102
{ACAD_REACTORS
330
64
102
}
330
64
100
AcDbXrecord
1000
DSTYLE
1002
{
1070
   340
340
11
1002
}
  0
XRECORD
  5
6E
102
{ACAD_REACTORS
330
64
102
}
330
64
100
AcDbXrecord
  1
{1C5B102F-B82F-4263-96E5-982D09C95713}
  0
XRECORD
  5
67
102
{ACAD_REACTORS
330
64
102
}
330
64
100
AcDbXrecord
  1

  0
XRECORD
  5
6C
102
{ACAD_REACTORS
330
64
102
}
330
64
100
AcDbXrecord
 90
        4
  0
XRECORD
  5
69
102
{ACAD_REACTORS
330
64
102
}
330
64
100
AcDbXrecord
340
1A
  0
XRECORD
  5
6B
102
{ACAD_REACTORS
330
64
102
}
330
64
100
AcDbXrecord
 90
    10781
  0
XRECORD
  5
6A
102
{ACAD_REACTORS
330
64
102
}
330
64
100
AcDbXrecord
340
19
  0
XRECORD
  5
70
102
{ACAD_REACTORS
330
64
102
}
330
64
100
AcDbXrecord
 40
0.0
  0
XRECORD
  5
73
102
{ACAD_REACTORS
330
64
102
}
330
64
100
AcDbXrecord
340
0
  0
XRECORD
  5
79
102
{ACAD_REACTORS
330
64
102
}
330
64
100
AcDbXrecord
 10
0.0
 20
0.0
 30
0.0
  0
XRECORD
  5
75
102
{ACAD_REACTORS
330
64
102
}
330
64
100
AcDbXrecord
 10
0.0
 20
0.0
 30
0.0
  0
XRECORD
  5
78
102
{ACAD_REACTORS
330
64
102
}
330
64
100
AcDbXrecord
 10
0.0
 20
0.0
 30
0.0
  0
XRECORD
  5
76
102
{ACAD_REACTORS
330
64
102
}
330
64
100
AcDbXrecord
 10
0.0
 20
0.0
 30
0.0
  0
XRECORD
  5
77
102
{ACAD_REACTORS
330
64
102
}
330
64
100
AcDbXrecord
 10
0.0
 20
0.0
 30
0.0
  0
XRECORD
  5
74
102
{ACAD_REACTORS
330
64
102
}
330
64
100
AcDbXrecord
 10
0.0
 20
0.0
 30
0.0
  0
XRECORD
  5
71
102
{ACAD_REACTORS
330
64
102
}
330
64
100
AcDbXrecord
340
0
  0
XRECORD
  5
72
102
{ACAD_REACTORS
330
64
102
}
330
64
100
AcDbXrecord
 70
     0
  0
XRECORD
  5
68
102
{ACAD_REACTORS
330
64
102
}
330
64
100
AcDbXrecord
  1

  0
XRECORD
  5
65
102
{ACAD_REACTORS
330
64
102
}
330
64
100
AcDbXrecord
 90
        1
  0
XRECORD
  5
66
102
{ACAD_REACTORS
330
64
102
}
330
64
100
AcDbXrecord
 90
       70
  0
XRECORD
  5
7C
102
{ACAD_REACTORS
330
64
102
}
330
64
100
AcDbXrecord
340
0
  0
XRECORD
  5
82
102
{ACAD_REACTORS
330
64
102
}
330
64
100
AcDbXrecord
 10
0.0
 20
0.0
 30
0.0
  0
XRECORD
  5
7E
102
{ACAD_REACTORS
330
64
102
}
330
64
100
AcDbXrecord
 10
0.0
 20
0.0
 30
0.0
  0
XRECORD
  5
81
102
{ACAD_REACTORS
330
64
102
}
330
64
100
AcDbXrecord
 10
0.0
 20
0.0
 30
0.0
  0
XRECORD
  5
7F
102
{ACAD_REACTORS
330
64
102
}
330
64
100
AcDbXrecord
 10
0.0
 20
0.0
 30
0.0
  0
XRECORD
  5
80
102
{ACAD_REACTORS
330
64
102
}
330
64
100
AcDbXrecord
 10
0.0
 20
0.0
 30
0.0
  0
XRECORD
  5
7D
102
{ACAD_REACTORS
330
64
102
}
330
64
100
AcDbXrecord
 10
0.0
 20
0.0
 30
0.0
  0
XRECORD
  5
7A
102
{ACAD_REACTORS
330
64
102
}
330
64
100
AcDbXrecord
340
0
  0
XRECORD
  5
7B
102
{ACAD_REACTORS
330
64
102
}
330
64
100
AcDbXrecord
 70
     0
  0
XRECORD
  5
6F
102
{ACAD_REACTORS
330
64
102
}
330
64
100
AcDbXrecord
  1
{FAEB1C32-E019-11D5-929B-00C0DF256EC4}
  0
DICTIONARYVAR
  5
87
102
{ACAD_REACTORS
330
84
102
}
330
84
100
DictionaryVariables
280
     0
  1
2
  0
DICTIONARYVAR
  5
88
102
{ACAD_REACTORS
330
84
102
}
330
84
100
DictionaryVariables
280
     0
  1
1
  0
DICTIONARY
  5
8B
330
3D
100
AcDbDictionary
280
     1
  3
ACAD_XREC_ROUNDTRIP
360
8C
  0
DICTIONARY
  5
89
330
3C
100
AcDbDictionary
280
     1
  3
ACAD_XREC_ROUNDTRIP
360
8A
  0
DICTIONARY
  5
8D
330
3E
100
AcDbDictionary
280
     1
  3
ACAD_XREC_ROUNDTRIP
360
8E
  0
XRECORD
  5
8C
102
{ACAD_REACTORS
330
8B
102
}
330
8B
100
AcDbXrecord
102
MATERIAL
148
0.0
149
0.0
149
0.0
 93
        0
 94
      127
282
     0
 72
     1
 77
     1
171
     1
175
     1
179
     1
273
     0
  0
XRECORD
  5
8A
102
{ACAD_REACTORS
330
89
102
}
330
89
100
AcDbXrecord
102
MATERIAL
148
0.0
149
0.0
149
0.0
 93
        0
 94
      127
282
     0
 72
     1
 77
     1
171
     1
175
     1
179
     1
273
     0
  0
XRECORD
  5
8E
102
{ACAD_REACTORS
330
8D
102
}
330
8D
100
AcDbXrecord
102
MATERIAL
148
0.0
149
0.0
149
0.0
 93
        0
 94
      127
282
     0
 72
     1
 77
     1
171
     1
175
     1
179
     1
273
     0
  0
ENDSEC
  0
EOF
