  0
SECTION
  2
HEADER
  9
$ACADVER
  1
AC1015
  9
$ACADMAINTVER
 70
     6
  9
$DWGCODEPAGE
  3
ANSI_1250
  9
$INSBASE
 10
0.0
 20
0.0
 30
0.0
  9
$EXTMIN
 10
-42.2422
 20
-14.4693
 30
0.0
  9
$EXTMAX
 10
42.0664
 20
14.4693
 30
0.0
  9
$LIMMIN
 10
0.0
 20
0.0
  9
$LIMMAX
 10
12.0
 20
9.0
  9
$ORTHOMODE
 70
     0
  9
$REGENMODE
 70
     1
  9
$FILLMODE
 70
     1
  9
$QTEXTMODE
 70
     0
  9
$MIRRTEXT
 70
     1
  9
$LTSCALE
 40
1.0
  9
$ATTMODE
 70
     1
  9
$TEXTSIZE
 40
0.2
  9
$TRACEWID
 40
0.05
  9
$TEXTSTYLE
  7
Standard
  9
$CLAYER
  8
0
  9
$CELTYPE
  6
ByLayer
  9
$CECOLOR
 62
   256
  9
$CELTSCALE
 40
1.0
  9
$DISPSILH
 70
     0
  9
$DIMSCALE
 40
1.0
  9
$DIMASZ
 40
0.18
  9
$DIMEXO
 40
0.0625
  9
$DIMDLI
 40
0.38
  9
$DIMRND
 40
0.0
  9
$DIMDLE
 40
0.0
  9
$DIMEXE
 40
0.18
  9
$DIMTP
 40
0.0
  9
$DIMTM
 40
0.0
  9
$DIMTXT
 40
0.18
  9
$DIMCEN
 40
0.09
  9
$DIMTSZ
 40
0.0
  9
$DIMTOL
 70
     0
  9
$DIMLIM
 70
     0
  9
$DIMTIH
 70
     1
  9
$DIMTOH
 70
     1
  9
$DIMSE1
 70
     0
  9
$DIMSE2
 70
     0
  9
$DIMTAD
 70
     0
  9
$DIMZIN
 70
     0
  9
$DIMBLK
  1

  9
$DIMASO
 70
     1
  9
$DIMSHO
 70
     1
  9
$DIMPOST
  1

  9
$DIMAPOST
  1

  9
$DIMALT
 70
     0
  9
$DIMALTD
 70
     2
  9
$DIMALTF
 40
25.4
  9
$DIMLFAC
 40
1.0
  9
$DIMTOFL
 70
     0
  9
$DIMTVP
 40
0.0
  9
$DIMTIX
 70
     0
  9
$DIMSOXD
 70
     0
  9
$DIMSAH
 70
     0
  9
$DIMBLK1
  1

  9
$DIMBLK2
  1

  9
$DIMSTYLE
  2
Standard
  9
$DIMCLRD
 70
     0
  9
$DIMCLRE
 70
     0
  9
$DIMCLRT
 70
     0
  9
$DIMTFAC
 40
1.0
  9
$DIMGAP
 40
0.09
  9
$DIMJUST
 70
     0
  9
$DIMSD1
 70
     0
  9
$DIMSD2
 70
     0
  9
$DIMTOLJ
 70
     1
  9
$DIMTZIN
 70
     0
  9
$DIMALTZ
 70
     0
  9
$DIMALTTZ
 70
     0
  9
$DIMUPT
 70
     0
  9
$DIMDEC
 70
     4
  9
$DIMTDEC
 70
     4
  9
$DIMALTU
 70
     2
  9
$DIMALTTD
 70
     2
  9
$DIMTXSTY
  7
Standard
  9
$DIMAUNIT
 70
     0
  9
$DIMADEC
 70
     0
  9
$DIMALTRND
 40
0.0
  9
$DIMAZIN
 70
     0
  9
$DIMDSEP
 70
    46
  9
$DIMATFIT
 70
     3
  9
$DIMFRAC
 70
     0
  9
$DIMLDRBLK
  1

  9
$DIMLUNIT
 70
     2
  9
$DIMLWD
 70
    -2
  9
$DIMLWE
 70
    -2
  9
$DIMTMOVE
 70
     0
  9
$LUNITS
 70
     2
  9
$LUPREC
 70
     4
  9
$SKETCHINC
 40
0.1
  9
$FILLETRAD
 40
0.5
  9
$AUNITS
 70
     0
  9
$AUPREC
 70
     0
  9
$MENU
  1
.
  9
$ELEVATION
 40
0.0
  9
$PELEVATION
 40
0.0
  9
$THICKNESS
 40
0.0
  9
$LIMCHECK
 70
     0
  9
$CHAMFERA
 40
0.5
  9
$CHAMFERB
 40
0.5
  9
$CHAMFERC
 40
1.0
  9
$CHAMFERD
 40
0.0
  9
$SKPOLY
 70
     0
  9
$TDCREATE
 40
2458906.589088229
  9
$TDUCREATE
 40
2458906.547421562
  9
$TDUPDATE
 40
2458906.589088241
  9
$TDUUPDATE
 40
2458906.547421574
  9
$TDINDWG
 40
0.0000000116
  9
$TDUSRTIMER
 40
0.0000000116
  9
$USRTIMER
 70
     1
  9
$ANGBASE
 50
0.0
  9
$ANGDIR
 70
     0
  9
$PDMODE
 70
     0
  9
$PDSIZE
 40
0.0
  9
$PLINEWID
 40
0.0
  9
$SPLFRAME
 70
     0
  9
$SPLINETYPE
 70
     6
  9
$SPLINESEGS
 70
     8
  9
$HANDSEED
  5
136
  9
$SURFTAB1
 70
     6
  9
$SURFTAB2
 70
     6
  9
$SURFTYPE
 70
     6
  9
$SURFU
 70
     6
  9
$SURFV
 70
     6
  9
$UCSBASE
  2

  9
$UCSNAME
  2

  9
$UCSORG
 10
0.0
 20
0.0
 30
0.0
  9
$UCSXDIR
 10
1.0
 20
0.0
 30
0.0
  9
$UCSYDIR
 10
0.0
 20
1.0
 30
0.0
  9
$UCSORTHOREF
  2

  9
$UCSORTHOVIEW
 70
     0
  9
$UCSORGTOP
 10
0.0
 20
0.0
 30
0.0
  9
$UCSORGBOTTOM
 10
0.0
 20
0.0
 30
0.0
  9
$UCSORGLEFT
 10
0.0
 20
0.0
 30
0.0
  9
$UCSORGRIGHT
 10
0.0
 20
0.0
 30
0.0
  9
$UCSORGFRONT
 10
0.0
 20
0.0
 30
0.0
  9
$UCSORGBACK
 10
0.0
 20
0.0
 30
0.0
  9
$PUCSBASE
  2

  9
$PUCSNAME
  2

  9
$PUCSORG
 10
0.0
 20
0.0
 30
0.0
  9
$PUCSXDIR
 10
1.0
 20
0.0
 30
0.0
  9
$PUCSYDIR
 10
0.0
 20
1.0
 30
0.0
  9
$PUCSORTHOREF
  2

  9
$PUCSORTHOVIEW
 70
     0
  9
$PUCSORGTOP
 10
0.0
 20
0.0
 30
0.0
  9
$PUCSORGBOTTOM
 10
0.0
 20
0.0
 30
0.0
  9
$PUCSORGLEFT
 10
0.0
 20
0.0
 30
0.0
  9
$PUCSORGRIGHT
 10
0.0
 20
0.0
 30
0.0
  9
$PUCSORGFRONT
 10
0.0
 20
0.0
 30
0.0
  9
$PUCSORGBACK
 10
0.0
 20
0.0
 30
0.0
  9
$USERI1
 70
     0
  9
$USERI2
 70
     0
  9
$USERI3
 70
     0
  9
$USERI4
 70
     0
  9
$USERI5
 70
     0
  9
$USERR1
 40
0.0
  9
$USERR2
 40
0.0
  9
$USERR3
 40
0.0
  9
$USERR4
 40
0.0
  9
$USERR5
 40
0.0
  9
$WORLDVIEW
 70
     1
  9
$SHADEDGE
 70
     3
  9
$SHADEDIF
 70
    70
  9
$TILEMODE
 70
     1
  9
$MAXACTVP
 70
    64
  9
$PINSBASE
 10
0.0
 20
0.0
 30
0.0
  9
$PLIMCHECK
 70
     0
  9
$PEXTMIN
 10
1.000000000000000E+20
 20
1.000000000000000E+20
 30
1.000000000000000E+20
  9
$PEXTMAX
 10
-1.000000000000000E+20
 20
-1.000000000000000E+20
 30
-1.000000000000000E+20
  9
$PLIMMIN
 10
0.0
 20
0.0
  9
$PLIMMAX
 10
12.0
 20
9.0
  9
$UNITMODE
 70
     0
  9
$VISRETAIN
 70
     1
  9
$PLINEGEN
 70
     0
  9
$PSLTSCALE
 70
     1
  9
$TREEDEPTH
 70
  3020
  9
$CMLSTYLE
  2
Standard
  9
$CMLJUST
 70
     0
  9
$CMLSCALE
 40
1.0
  9
$PROXYGRAPHICS
 70
     1
  9
$MEASUREMENT
 70
     0
  9
$CELWEIGHT
370
    -1
  9
$ENDCAPS
280
     0
  9
$JOINSTYLE
280
     0
  9
$LWDISPLAY
290
     0
  9
$INSUNITS
 70
     4
  9
$HYPERLINKBASE
  1

  9
$STYLESHEET
  1

  9
$XEDIT
290
     1
  9
$CEPSNTYPE
380
     0
  9
$PSTYLEMODE
290
     1
  9
$FINGERPRINTGUID
  2
{5882BB08-1D0B-4DBB-BECF-690002678B73}
  9
$VERSIONGUID
  2
{FAEB1C32-E019-11D5-929B-00C0DF256EC4}
  9
$EXTNAMES
290
     1
  9
$PSVPSCALE
 40
0.0
  9
$OLESTARTUP
290
     0
  0
ENDSEC
  0
SECTION
  2
CLASSES
  0
CLASS
  1
ACDBDICTIONARYWDFLT
  2
AcDbDictionaryWithDefault
  3
ObjectDBX Classes
 90
        0
280
     0
281
     0
  0
CLASS
  1
VISUALSTYLE
  2
AcDbVisualStyle
  3
ObjectDBX Classes
 90
     4095
280
     0
281
     0
  0
CLASS
  1
MATERIAL
  2
AcDbMaterial
  3
ObjectDBX Classes
 90
     1153
280
     0
281
     0
  0
CLASS
  1
DICTIONARYVAR
  2
AcDbDictionaryVar
  3
ObjectDBX Classes
 90
        0
280
     0
281
     0
  0
CLASS
  1
ACDBPLACEHOLDER
  2
AcDbPlaceHolder
  3
ObjectDBX Classes
 90
        0
280
     0
281
     0
  0
CLASS
  1
LAYOUT
  2
AcDbLayout
  3
ObjectDBX Classes
 90
        0
280
     0
281
     0
  0
ENDSEC
  0
SECTION
  2
TABLES
  0
TABLE
  2
VPORT
  5
8
330
0
100
AcDbSymbolTable
 70
     1
  0
VPORT
  5
29
330
8
100
AcDbSymbolTableRecord
100
AcDbViewportTableRecord
  2
*Active
 70
     0
 10
0.0
 20
0.0
 11
1.0
 21
1.0
 12
10.42990654205607
 22
4.5
 13
0.0
 23
0.0
 14
0.5
 24
0.5
 15
0.5
 25
0.5
 16
0.0
 26
0.0
 36
1.0
 17
0.0
 27
0.0
 37
0.0
 40
9.0
 41
1.972972972850329
 42
50.0
 43
0.0
 44
0.0
 50
0.0
 51
0.0
 71
     0
 72
   100
 73
     1
 74
     3
 75
     0
 76
     0
 77
     0
 78
     0
281
     0
 65
     1
110
0.0
120
0.0
130
0.0
111
1.0
121
0.0
131
0.0
112
0.0
122
1.0
132
0.0
 79
     0
146
0.0
  0
ENDTAB
  0
TABLE
  2
LTYPE
  5
5
330
0
100
AcDbSymbolTable
 70
     2
  0
LTYPE
  5
14
330
5
100
AcDbSymbolTableRecord
100
AcDbLinetypeTableRecord
  2
ByBlock
 70
     0
  3

 72
    65
 73
     0
 40
0.0
  0
LTYPE
  5
15
330
5
100
AcDbSymbolTableRecord
100
AcDbLinetypeTableRecord
  2
ByLayer
 70
     0
  3

 72
    65
 73
     0
 40
0.0
  0
LTYPE
  5
16
330
5
100
AcDbSymbolTableRecord
100
AcDbLinetypeTableRecord
  2
Continuous
 70
     0
  3
Solid line
 72
    65
 73
     0
 40
0.0
  0
LTYPE
  5
45
330
5
100
AcDbSymbolTableRecord
100
AcDbLinetypeTableRecord
  2
New Line1
 70
     0
  3

 72
    65
 73
     4
 40
1.2
 49
0.5
 74
     4
 75
     0
340
0
 46
1.0
 50
0.0
 44
0.0
 45
0.0
 49
-0.3
 74
     4
 75
     0
340
0
 46
1.0
 50
0.0
 44
0.0
 45
0.0
 49
0.1
 74
     4
 75
     0
340
0
 46
1.0
 50
0.0
 44
0.0
 45
0.0
 49
-0.3
 74
     4
 75
     0
340
0
 46
1.0
 50
0.0
 44
0.0
 45
0.0
  0
ENDTAB
  0
TABLE
  2
LAYER
  5
2
330
0
100
AcDbSymbolTable
 70
     2
  0
LAYER
  5
10
330
2
100
AcDbSymbolTableRecord
100
AcDbLayerTableRecord
  2
0
 70
     0
 62
     7
  6
Continuous
370
    -3
390
F
  0
LAYER
  5
40
330
2
100
AcDbSymbolTableRecord
100
AcDbLayerTableRecord
  2
Vrstva 1
 70
     0
 62
     7
  6
Continuous
370
    -3
390
F
  0
ENDTAB
  0
TABLE
  2
STYLE
  5
3
330
0
100
AcDbSymbolTable
 70
     1
  0
STYLE
  5
11
330
3
100
AcDbSymbolTableRecord
100
AcDbTextStyleTableRecord
  2
Standard
 70
     0
 40
0.0
 41
1.0
 50
0.0
 71
     0
 42
0.2
  3
txt
  4

  0
ENDTAB
  0
TABLE
  2
VIEW
  5
6
330
0
100
AcDbSymbolTable
 70
     0
  0
ENDTAB
  0
TABLE
  2
UCS
  5
7
330
0
100
AcDbSymbolTable
 70
     0
  0
ENDTAB
  0
TABLE
  2
APPID
  5
9
330
0
100
AcDbSymbolTable
 70
     2
  0
APPID
  5
12
330
9
100
AcDbSymbolTableRecord
100
AcDbRegAppTableRecord
  2
ACAD
 70
     0
  0
APPID
  5
3F
330
9
100
AcDbSymbolTableRecord
100
AcDbRegAppTableRecord
  2
ODA
 70
     0
  0
ENDTAB
  0
TABLE
  2
DIMSTYLE
  5
A
330
0
100
AcDbSymbolTable
 70
     1
100
AcDbDimStyleTable
  0
DIMSTYLE
105
27
330
A
100
AcDbSymbolTableRecord
100
AcDbDimStyleTableRecord
  2
Standard
 70
     0
340
11
  0
ENDTAB
  0
TABLE
  2
BLOCK_RECORD
  5
1
330
0
100
AcDbSymbolTable
 70
     1
  0
BLOCK_RECORD
  5
1F
330
1
100
AcDbSymbolTableRecord
100
AcDbBlockTableRecord
  2
*Model_Space
340
22
  0
BLOCK_RECORD
  5
1B
330
1
100
AcDbSymbolTableRecord
100
AcDbBlockTableRecord
  2
*Paper_Space
340
1E
  0
BLOCK_RECORD
  5
23
330
1
100
AcDbSymbolTableRecord
100
AcDbBlockTableRecord
  2
*Paper_Space0
340
26
  0
ENDTAB
  0
ENDSEC
  0
SECTION
  2
BLOCKS
  0
BLOCK
  5
20
330
1F
100
AcDbEntity
  8
0
100
AcDbBlockBegin
  2
*Model_Space
 70
     0
 10
0.0
 20
0.0
 30
0.0
  3
*Model_Space
  1

  0
ENDBLK
  5
21
330
1F
100
AcDbEntity
  8
0
100
AcDbBlockEnd
  0
BLOCK
  5
1C
330
1B
100
AcDbEntity
 67
     1
  8
0
100
AcDbBlockBegin
  2
*Paper_Space
 70
     0
 10
0.0
 20
0.0
 30
0.0
  3
*Paper_Space
  1

  0
ENDBLK
  5
1D
330
1B
100
AcDbEntity
 67
     1
  8
0
100
AcDbBlockEnd
  0
BLOCK
  5
24
330
23
100
AcDbEntity
  8
0
100
AcDbBlockBegin
  2
*Paper_Space0
 70
     0
 10
0.0
 20
0.0
 30
0.0
  3
*Paper_Space0
  1

  0
ENDBLK
  5
25
330
23
100
AcDbEntity
  8
0
100
AcDbBlockEnd
  0
ENDSEC
  0
SECTION
  2
ENTITIES
  0
SPLINE
  5
41
330
1F
100
AcDbEntity
  8
Vrstva 1
 62
   250
370
    15
100
AcDbSpline
210
0.0
220
0.0
230
1.0
 70
    27
 71
     3
 72
    12
 73
     8
 74
     0
 42
0.0000000001
 43
0.0000000001
 40
0.0
 40
0.0
 40
0.0
 40
0.0
 40
0.3333333333333333
 40
0.3333333333333333
 40
0.3333333333333333
 40
0.3333333333333333
 40
1.0
 40
1.0
 40
1.0
 40
1.0
 10
40.4237
 20
-13.8807
 30
0.0
 10
40.4237
 20
-13.8807
 30
0.0
 10
-40.7708
 20
-13.8807
 30
0.0
 10
-40.7708
 20
-13.8807
 30
0.0
 10
-40.7708
 20
-13.8807
 30
0.0
 10
-40.7708
 20
-13.8807
 30
0.0
 10
40.4237
 20
-13.8807
 30
0.0
 10
40.4237
 20
-13.8807
 30
0.0
  0
SPLINE
  5
42
330
1F
100
AcDbEntity
  8
Vrstva 1
 62
   250
370
    15
100
AcDbSpline
210
0.0
220
0.0
230
1.0
 70
    27
 71
     3
 72
    12
 73
     8
 74
     0
 42
0.0000000001
 43
0.0000000001
 40
0.0
 40
0.0
 40
0.0
 40
0.0
 40
0.3333333333333333
 40
0.3333333333333333
 40
0.3333333333333333
 40
0.3333333333333333
 40
1.0
 40
1.0
 40
1.0
 40
1.0
 10
-42.0996
 20
-4.8343
 30
0.0
 10
-42.0996
 20
-4.8343
 30
0.0
 10
-42.0996
 20
-14.2453
 30
0.0
 10
-42.0996
 20
-14.2453
 30
0.0
 10
-42.0996
 20
-14.2453
 30
0.0
 10
-42.0996
 20
-14.2453
 30
0.0
 10
-42.0996
 20
-4.8343
 30
0.0
 10
-42.0996
 20
-4.8343
 30
0.0
  0
SPLINE
  5
43
330
1F
100
AcDbEntity
  8
Vrstva 1
 62
   250
370
    15
100
AcDbSpline
210
0.0
220
0.0
230
1.0
 70
    27
 71
     3
 72
    12
 73
     8
 74
     0
 42
0.0000000001
 43
0.0000000001
 40
0.0
 40
0.0
 40
0.0
 40
0.0
 40
0.3333333333333333
 40
0.3333333333333333
 40
0.3333333333333333
 40
0.3333333333333333
 40
1.0
 40
1.0
 40
1.0
 40
1.0
 10
41.8031
 20
-3.219
 30
0.0
 10
41.8031
 20
-3.219
 30
0.0
 10
41.8031
 20
-14.4693
 30
0.0
 10
41.8031
 20
-14.4693
 30
0.0
 10
41.8031
 20
-14.4693
 30
0.0
 10
41.8031
 20
-14.4693
 30
0.0
 10
41.8031
 20
-3.219
 30
0.0
 10
41.8031
 20
-3.219
 30
0.0
  0
SPLINE
  5
44
330
1F
100
AcDbEntity
  8
Vrstva 1
  6
New Line1
 62
   250
370
    15
100
AcDbSpline
210
0.0
220
0.0
230
1.0
 70
    27
 71
     3
 72
    12
 73
     8
 74
     0
 42
0.0000000001
 43
0.0000000001
 40
0.0
 40
0.0
 40
0.0
 40
0.0
 40
0.3333333333333333
 40
0.3333333333333333
 40
0.3333333333333333
 40
0.3333333333333333
 40
1.0
 40
1.0
 40
1.0
 40
1.0
 10
-42.2422
 20
3.6256
 30
0.0
 10
-42.2422
 20
3.6256
 30
0.0
 10
42.2421
 20
3.6256
 30
0.0
 10
42.2421
 20
3.6256
 30
0.0
 10
42.2421
 20
3.6256
 30
0.0
 10
42.2421
 20
3.6256
 30
0.0
 10
-42.2422
 20
3.6256
 30
0.0
 10
-42.2422
 20
3.6256
 30
0.0
  0
SPLINE
  5
46
330
1F
100
AcDbEntity
  8
Vrstva 1
 62
   250
370
    15
100
AcDbSpline
210
0.0
220
0.0
230
1.0
 70
    27
 71
     3
 72
    12
 73
     8
 74
     0
 42
0.0000000001
 43
0.0000000001
 40
0.0
 40
0.0
 40
0.0
 40
0.0
 40
0.3333333333333333
 40
0.3333333333333333
 40
0.3333333333333333
 40
0.3333333333333333
 40
1.0
 40
1.0
 40
1.0
 40
1.0
 10
34.0278
 20
-11.689
 30
0.0
 10
34.0278
 20
-11.689
 30
0.0
 10
34.0278
 20
12.4649
 30
0.0
 10
34.0278
 20
12.4649
 30
0.0
 10
34.0278
 20
12.4649
 30
0.0
 10
34.0278
 20
12.4649
 30
0.0
 10
34.0278
 20
-11.689
 30
0.0
 10
34.0278
 20
-11.689
 30
0.0
  0
SPLINE
  5
47
330
1F
100
AcDbEntity
  8
Vrstva 1
 62
   250
100
AcDbSpline
210
0.0
220
0.0
230
1.0
 70
    11
 71
     3
 72
    52
 73
    48
 74
     0
 42
0.0000000001
 43
0.0000000001
 40
0.0
 40
0.0
 40
0.0
 40
0.0
 40
0.0769230769230769
 40
0.0769230769230769
 40
0.0769230769230769
 40
0.0769230769230769
 40
0.1538461538461539
 40
0.1538461538461539
 40
0.1538461538461539
 40
0.1538461538461539
 40
0.2307692307692308
 40
0.2307692307692308
 40
0.2307692307692308
 40
0.2307692307692308
 40
0.3076923076923077
 40
0.3076923076923077
 40
0.3076923076923077
 40
0.3076923076923077
 40
0.3846153846153846
 40
0.3846153846153846
 40
0.3846153846153846
 40
0.3846153846153846
 40
0.4615384615384616
 40
0.4615384615384616
 40
0.4615384615384616
 40
0.4615384615384616
 40
0.5384615384615384
 40
0.5384615384615384
 40
0.5384615384615384
 40
0.5384615384615384
 40
0.6153846153846154
 40
0.6153846153846154
 40
0.6153846153846154
 40
0.6153846153846154
 40
0.6923076923076923
 40
0.6923076923076923
 40
0.6923076923076923
 40
0.6923076923076923
 40
0.7692307692307693
 40
0.7692307692307693
 40
0.7692307692307693
 40
0.7692307692307693
 40
0.8461538461538461
 40
0.8461538461538461
 40
0.8461538461538461
 40
0.8461538461538461
 40
1.0
 40
1.0
 40
1.0
 40
1.0
 10
33.2165
 20
-10.643
 30
0.0
 10
33.2165
 20
-10.643
 30
0.0
 10
32.8846
 20
-10.3963
 30
0.0
 10
32.8846
 20
-10.3963
 30
0.0
 10
32.8846
 20
-10.3963
 30
0.0
 10
33.0218
 20
-10.211
 30
0.0
 10
33.0968
 20
-9.9823
 30
0.0
 10
33.0981
 20
-9.7377
 30
0.0
 10
33.0981
 20
-9.7377
 30
0.0
 10
33.1027
 20
-9.1099
 30
0.0
 10
32.6445
 20
-8.5439
 30
0.0
 10
31.7325
 20
-8.5378
 30
0.0
 10
31.7325
 20
-8.5378
 30
0.0
 10
31.3485
 20
-8.5354
 30
0.0
 10
31.006
 20
-8.6534
 30
0.0
 10
30.7679
 20
-8.8693
 30
0.0
 10
30.7679
 20
-8.8693
 30
0.0
 10
30.7679
 20
-8.8693
 30
0.0
 10
30.4364
 20
-8.6265
 30
0.0
 10
30.4364
 20
-8.6265
 30
0.0
 10
30.4364
 20
-8.6265
 30
0.0
 10
30.4364
 20
-8.6265
 30
0.0
 10
30.2946
 20
-8.8311
 30
0.0
 10
30.2946
 20
-8.8311
 30
0.0
 10
30.2946
 20
-8.8311
 30
0.0
 10
30.2946
 20
-8.8311
 30
0.0
 10
30.6076
 20
-9.0622
 30
0.0
 10
30.6076
 20
-9.0622
 30
0.0
 10
30.6076
 20
-9.0622
 30
0.0
 10
30.4707
 20
-9.2475
 30
0.0
 10
30.3995
 20
-9.4722
 30
0.0
 10
30.398
 20
-9.7129
 30
0.0
 10
30.398
 20
-9.7129
 30
0.0
 10
30.3934
 20
-10.3998
 30
0.0
 10
30.9294
 20
-10.9233
 30
0.0
 10
31.7557
 20
-10.9284
 30
0.0
 10
31.7557
 20
-10.9284
 30
0.0
 10
32.1478
 20
-10.9309
 30
0.0
 10
32.4903
 20
-10.8051
 30
0.0
 10
32.7284
 20
-10.5891
 30
0.0
 10
32.7284
 20
-10.5891
 30
0.0
 10
32.7284
 20
-10.5891
 30
0.0
 10
33.0638
 20
-10.832
 30
0.0
 10
33.0638
 20
-10.832
 30
0.0
 10
33.0638
 20
-10.832
 30
0.0
 10
33.0638
 20
-10.832
 30
0.0
 10
33.2165
 20
-10.643
 30
0.0
 10
33.2165
 20
-10.643
 30
0.0
  0
SPLINE
  5
48
330
1F
100
AcDbEntity
  8
Vrstva 1
 62
   250
100
AcDbSpline
210
0.0
220
0.0
230
1.0
 70
    11
 71
     3
 72
    28
 73
    24
 74
     0
 42
0.0000000001
 43
0.0000000001
 40
0.0
 40
0.0
 40
0.0
 40
0.0
 40
0.1428571428571428
 40
0.1428571428571428
 40
0.1428571428571428
 40
0.1428571428571428
 40
0.2857142857142857
 40
0.2857142857142857
 40
0.2857142857142857
 40
0.2857142857142857
 40
0.4285714285714285
 40
0.4285714285714285
 40
0.4285714285714285
 40
0.4285714285714285
 40
0.5714285714285714
 40
0.5714285714285714
 40
0.5714285714285714
 40
0.5714285714285714
 40
0.7142857142857143
 40
0.7142857142857143
 40
0.7142857142857143
 40
0.7142857142857143
 40
1.0
 40
1.0
 40
1.0
 40
1.0
 10
32.4386
 20
-10.3898
 30
0.0
 10
32.4386
 20
-10.3898
 30
0.0
 10
32.4386
 20
-10.3898
 30
0.0
 10
32.4386
 20
-10.3898
 30
0.0
 10
32.4386
 20
-10.3898
 30
0.0
 10
32.4386
 20
-10.3898
 30
0.0
 10
32.4423
 20
-10.3975
 30
0.0
 10
32.4423
 20
-10.3975
 30
0.0
 10
32.4423
 20
-10.3975
 30
0.0
 10
32.2435
 20
-10.5127
 30
0.0
 10
32.0299
 20
-10.585
 30
0.0
 10
31.7427
 20
-10.583
 30
0.0
 10
31.7427
 20
-10.583
 30
0.0
 10
31.1917
 20
-10.5794
 30
0.0
 10
30.6661
 20
-10.2886
 30
0.0
 10
30.6698
 20
-9.722
 30
0.0
 10
30.6698
 20
-9.722
 30
0.0
 10
30.671
 20
-9.5242
 30
0.0
 10
30.7419
 20
-9.3621
 30
0.0
 10
30.8548
 20
-9.2305
 30
0.0
 10
30.8548
 20
-9.2305
 30
0.0
 10
30.8548
 20
-9.2305
 30
0.0
 10
32.4386
 20
-10.3898
 30
0.0
 10
32.4386
 20
-10.3898
 30
0.0
  0
SPLINE
  5
49
330
1F
100
AcDbEntity
  8
Vrstva 1
 62
   250
100
AcDbSpline
210
0.0
220
0.0
230
1.0
 70
    11
 71
     3
 72
    28
 73
    24
 74
     0
 42
0.0000000001
 43
0.0000000001
 40
0.0
 40
0.0
 40
0.0
 40
0.0
 40
0.1428571428571428
 40
0.1428571428571428
 40
0.1428571428571428
 40
0.1428571428571428
 40
0.2857142857142857
 40
0.2857142857142857
 40
0.2857142857142857
 40
0.2857142857142857
 40
0.4285714285714285
 40
0.4285714285714285
 40
0.4285714285714285
 40
0.4285714285714285
 40
0.5714285714285714
 40
0.5714285714285714
 40
0.5714285714285714
 40
0.5714285714285714
 40
0.7142857142857143
 40
0.7142857142857143
 40
0.7142857142857143
 40
0.7142857142857143
 40
1.0
 40
1.0
 40
1.0
 40
1.0
 10
31.0617
 20
-9.0727
 30
0.0
 10
31.0617
 20
-9.0727
 30
0.0
 10
31.0617
 20
-9.0727
 30
0.0
 10
31.0617
 20
-9.0727
 30
0.0
 10
31.0617
 20
-9.0727
 30
0.0
 10
31.0617
 20
-9.0727
 30
0.0
 10
31.0618
 20
-9.061
 30
0.0
 10
31.0618
 20
-9.061
 30
0.0
 10
31.0618
 20
-9.061
 30
0.0
 10
31.2839
 20
-8.9272
 30
0.0
 10
31.5208
 20
-8.8819
 30
0.0
 10
31.742
 20
-8.8834
 30
0.0
 10
31.742
 20
-8.8834
 30
0.0
 10
32.3318
 20
-8.887
 30
0.0
 10
32.8301
 20
-9.197
 30
0.0
 10
32.8265
 20
-9.7403
 30
0.0
 10
32.8265
 20
-9.7403
 30
0.0
 10
32.8253
 20
-9.9536
 30
0.0
 10
32.7582
 20
-10.1009
 30
0.0
 10
32.6374
 20
-10.2281
 30
0.0
 10
32.6374
 20
-10.2281
 30
0.0
 10
32.6374
 20
-10.2281
 30
0.0
 10
31.0617
 20
-9.0727
 30
0.0
 10
31.0617
 20
-9.0727
 30
0.0
  0
SPLINE
  5
4A
330
1F
100
AcDbEntity
  8
Vrstva 1
 62
   250
100
AcDbSpline
210
0.0
220
0.0
230
1.0
 70
    11
 71
     3
 72
    48
 73
    44
 74
     0
 42
0.0000000001
 43
0.0000000001
 40
0.0
 40
0.0
 40
0.0
 40
0.0
 40
0.0833333333333333
 40
0.0833333333333333
 40
0.0833333333333333
 40
0.0833333333333333
 40
0.1666666666666667
 40
0.1666666666666667
 40
0.1666666666666667
 40
0.1666666666666667
 40
0.25
 40
0.25
 40
0.25
 40
0.25
 40
0.3333333333333333
 40
0.3333333333333333
 40
0.3333333333333333
 40
0.3333333333333333
 40
0.4166666666666667
 40
0.4166666666666667
 40
0.4166666666666667
 40
0.4166666666666667
 40
0.5
 40
0.5
 40
0.5
 40
0.5
 40
0.5833333333333334
 40
0.5833333333333334
 40
0.5833333333333334
 40
0.5833333333333334
 40
0.6666666666666666
 40
0.6666666666666666
 40
0.6666666666666666
 40
0.6666666666666666
 40
0.75
 40
0.75
 40
0.75
 40
0.75
 40
0.8333333333333334
 40
0.8333333333333334
 40
0.8333333333333334
 40
0.8333333333333334
 40
1.0
 40
1.0
 40
1.0
 40
1.0
 10
33.0648
 20
-6.8506
 30
0.0
 10
33.0648
 20
-6.8506
 30
0.0
 10
32.3741
 20
-6.846
 30
0.0
 10
32.3741
 20
-6.846
 30
0.0
 10
32.3741
 20
-6.846
 30
0.0
 10
32.3741
 20
-6.846
 30
0.0
 10
32.3765
 20
-6.4935
 30
0.0
 10
32.3765
 20
-6.4935
 30
0.0
 10
32.3765
 20
-6.4935
 30
0.0
 10
32.3765
 20
-6.4935
 30
0.0
 10
32.1127
 20
-6.4913
 30
0.0
 10
32.1127
 20
-6.4913
 30
0.0
 10
32.1127
 20
-6.4913
 30
0.0
 10
32.1127
 20
-6.4913
 30
0.0
 10
32.1109
 20
-6.8445
 30
0.0
 10
32.1109
 20
-6.8445
 30
0.0
 10
32.1109
 20
-6.8445
 30
0.0
 10
32.1109
 20
-6.8445
 30
0.0
 10
30.5431
 20
-6.8347
 30
0.0
 10
30.5431
 20
-6.8347
 30
0.0
 10
30.5431
 20
-6.8347
 30
0.0
 10
30.5431
 20
-6.8347
 30
0.0
 10
30.5407
 20
-7.2031
 30
0.0
 10
30.5407
 20
-7.2031
 30
0.0
 10
30.5407
 20
-7.2031
 30
0.0
 10
30.5407
 20
-7.2031
 30
0.0
 10
32.1432
 20
-8.3387
 30
0.0
 10
32.1432
 20
-8.3387
 30
0.0
 10
32.1432
 20
-8.3387
 30
0.0
 10
32.1432
 20
-8.3387
 30
0.0
 10
32.3645
 20
-8.3399
 30
0.0
 10
32.3645
 20
-8.3399
 30
0.0
 10
32.3645
 20
-8.3399
 30
0.0
 10
32.3645
 20
-8.3399
 30
0.0
 10
32.3724
 20
-7.1681
 30
0.0
 10
32.3724
 20
-7.1681
 30
0.0
 10
32.3724
 20
-7.1681
 30
0.0
 10
32.3724
 20
-7.1681
 30
0.0
 10
33.0631
 20
-7.1727
 30
0.0
 10
33.0631
 20
-7.1727
 30
0.0
 10
33.0631
 20
-7.1727
 30
0.0
 10
33.0631
 20
-7.1727
 30
0.0
 10
33.0648
 20
-6.8506
 30
0.0
 10
33.0648
 20
-6.8506
 30
0.0
  0
SPLINE
  5
4B
330
1F
100
AcDbEntity
  8
Vrstva 1
 62
   250
100
AcDbSpline
210
0.0
220
0.0
230
1.0
 70
    11
 71
     3
 72
    36
 73
    32
 74
     0
 42
0.0000000001
 43
0.0000000001
 40
0.0
 40
0.0
 40
0.0
 40
0.0
 40
0.1111111111111111
 40
0.1111111111111111
 40
0.1111111111111111
 40
0.1111111111111111
 40
0.2222222222222222
 40
0.2222222222222222
 40
0.2222222222222222
 40
0.2222222222222222
 40
0.3333333333333333
 40
0.3333333333333333
 40
0.3333333333333333
 40
0.3333333333333333
 40
0.4444444444444444
 40
0.4444444444444444
 40
0.4444444444444444
 40
0.4444444444444444
 40
0.5555555555555556
 40
0.5555555555555556
 40
0.5555555555555556
 40
0.5555555555555556
 40
0.6666666666666666
 40
0.6666666666666666
 40
0.6666666666666666
 40
0.6666666666666666
 40
0.7777777777777778
 40
0.7777777777777778
 40
0.7777777777777778
 40
0.7777777777777778
 40
1.0
 40
1.0
 40
1.0
 40
1.0
 10
32.103
 20
-7.993
 30
0.0
 10
32.103
 20
-7.993
 30
0.0
 10
32.103
 20
-7.993
 30
0.0
 10
32.103
 20
-7.993
 30
0.0
 10
32.103
 20
-7.993
 30
0.0
 10
32.103
 20
-7.993
 30
0.0
 10
32.0952
 20
-7.993
 30
0.0
 10
32.0952
 20
-7.993
 30
0.0
 10
32.0952
 20
-7.993
 30
0.0
 10
32.0952
 20
-7.993
 30
0.0
 10
31.242
 20
-7.3704
 30
0.0
 10
31.242
 20
-7.3704
 30
0.0
 10
31.242
 20
-7.3704
 30
0.0
 10
31.1258
 20
-7.3001
 30
0.0
 10
31.0179
 20
-7.237
 30
0.0
 10
30.8707
 20
-7.1583
 30
0.0
 10
30.8707
 20
-7.1583
 30
0.0
 10
30.8707
 20
-7.1583
 30
0.0
 10
30.8707
 20
-7.1467
 30
0.0
 10
30.8707
 20
-7.1467
 30
0.0
 10
30.8707
 20
-7.1467
 30
0.0
 10
31.0027
 20
-7.1554
 30
0.0
 10
31.1346
 20
-7.1604
 30
0.0
 10
31.2667
 20
-7.1608
 30
0.0
 10
31.2667
 20
-7.1608
 30
0.0
 10
31.2667
 20
-7.1608
 30
0.0
 10
32.1086
 20
-7.1666
 30
0.0
 10
32.1086
 20
-7.1666
 30
0.0
 10
32.1086
 20
-7.1666
 30
0.0
 10
32.1086
 20
-7.1666
 30
0.0
 10
32.103
 20
-7.993
 30
0.0
 10
32.103
 20
-7.993
 30
0.0
  0
SPLINE
  5
4C
330
1F
100
AcDbEntity
  8
Vrstva 1
 62
   250
100
AcDbSpline
210
0.0
220
0.0
230
1.0
 70
    11
 71
     3
 72
    24
 73
    20
 74
     0
 42
0.0000000001
 43
0.0000000001
 40
0.0
 40
0.0
 40
0.0
 40
0.0
 40
0.1666666666666667
 40
0.1666666666666667
 40
0.1666666666666667
 40
0.1666666666666667
 40
0.3333333333333333
 40
0.3333333333333333
 40
0.3333333333333333
 40
0.3333333333333333
 40
0.5
 40
0.5
 40
0.5
 40
0.5
 40
0.6666666666666666
 40
0.6666666666666666
 40
0.6666666666666666
 40
0.6666666666666666
 40
1.0
 40
1.0
 40
1.0
 40
1.0
 10
33.1099
 20
-5.4305
 30
0.0
 10
33.1134
 20
-4.8795
 30
0.0
 10
32.6422
 20
-4.5547
 30
0.0
 10
31.7846
 20
-4.5488
 30
0.0
 10
31.7846
 20
-4.5488
 30
0.0
 10
30.9814
 20
-4.5439
 30
0.0
 10
30.5065
 20
-4.847
 30
0.0
 10
30.503
 20
-5.3748
 30
0.0
 10
30.503
 20
-5.3748
 30
0.0
 10
30.4994
 20
-5.887
 30
0.0
 10
30.9589
 20
-6.259
 30
0.0
 10
31.8087
 20
-6.2642
 30
0.0
 10
31.8087
 20
-6.2642
 30
0.0
 10
32.6431
 20
-6.2621
 30
0.0
 10
33.1071
 20
-5.9271
 30
0.0
 10
33.1099
 20
-5.4344
 30
0.0
 10
33.1099
 20
-5.4344
 30
0.0
 10
33.1099
 20
-5.4344
 30
0.0
 10
33.1099
 20
-5.4305
 30
0.0
 10
33.1099
 20
-5.4305
 30
0.0
  0
SPLINE
  5
4D
330
1F
100
AcDbEntity
  8
Vrstva 1
 62
   250
100
AcDbSpline
210
0.0
220
0.0
230
1.0
 70
    11
 71
     3
 72
    28
 73
    24
 74
     0
 42
0.0000000001
 43
0.0000000001
 40
0.0
 40
0.0
 40
0.0
 40
0.0
 40
0.1428571428571428
 40
0.1428571428571428
 40
0.1428571428571428
 40
0.1428571428571428
 40
0.2857142857142857
 40
0.2857142857142857
 40
0.2857142857142857
 40
0.2857142857142857
 40
0.4285714285714285
 40
0.4285714285714285
 40
0.4285714285714285
 40
0.4285714285714285
 40
0.5714285714285714
 40
0.5714285714285714
 40
0.5714285714285714
 40
0.5714285714285714
 40
0.7142857142857143
 40
0.7142857142857143
 40
0.7142857142857143
 40
0.7142857142857143
 40
1.0
 40
1.0
 40
1.0
 40
1.0
 10
32.8459
 20
-5.4173
 30
0.0
 10
32.8459
 20
-5.4173
 30
0.0
 10
32.8459
 20
-5.4173
 30
0.0
 10
32.8459
 20
-5.4173
 30
0.0
 10
32.8459
 20
-5.4173
 30
0.0
 10
32.8445
 20
-5.7317
 30
0.0
 10
32.4473
 20
-5.9311
 30
0.0
 10
31.7916
 20
-5.9186
 30
0.0
 10
31.7916
 20
-5.9186
 30
0.0
 10
31.1591
 20
-5.9149
 30
0.0
 10
30.7645
 20
-5.7106
 30
0.0
 10
30.7667
 20
-5.4002
 30
0.0
 10
30.7667
 20
-5.4002
 30
0.0
 10
30.7691
 20
-5.0431
 30
0.0
 10
31.1771
 20
-4.8904
 30
0.0
 10
31.7979
 20
-4.8942
 30
0.0
 10
31.7979
 20
-4.8942
 30
0.0
 10
32.442
 20
-4.8988
 30
0.0
 10
32.8483
 20
-5.0682
 30
0.0
 10
32.8459
 20
-5.4136
 30
0.0
 10
32.8459
 20
-5.4136
 30
0.0
 10
32.8459
 20
-5.4136
 30
0.0
 10
32.8459
 20
-5.4173
 30
0.0
 10
32.8459
 20
-5.4173
 30
0.0
  0
SPLINE
  5
4E
330
1F
100
AcDbEntity
  8
Vrstva 1
 62
   250
370
    15
100
AcDbSpline
210
0.0
220
0.0
230
1.0
 70
    27
 71
     3
 72
    12
 73
     8
 74
     0
 42
0.0000000001
 43
0.0000000001
 40
0.0
 40
0.0
 40
0.0
 40
0.0
 40
0.3333333333333333
 40
0.3333333333333333
 40
0.3333333333333333
 40
0.3333333333333333
 40
1.0
 40
1.0
 40
1.0
 40
1.0
 10
-15.7466
 20
-12.4827
 30
0.0
 10
-15.7466
 20
-12.4827
 30
0.0
 10
-15.7466
 20
11.9988
 30
0.0
 10
-15.7466
 20
11.9988
 30
0.0
 10
-15.7466
 20
11.9988
 30
0.0
 10
-15.7466
 20
11.9988
 30
0.0
 10
-15.7466
 20
-12.4827
 30
0.0
 10
-15.7466
 20
-12.4827
 30
0.0
  0
SPLINE
  5
4F
330
1F
100
AcDbEntity
  8
Vrstva 1
 62
   250
100
AcDbSpline
210
0.0
220
0.0
230
1.0
 70
    11
 71
     3
 72
    52
 73
    48
 74
     0
 42
0.0000000001
 43
0.0000000001
 40
0.0
 40
0.0
 40
0.0
 40
0.0
 40
0.0769230769230769
 40
0.0769230769230769
 40
0.0769230769230769
 40
0.0769230769230769
 40
0.1538461538461539
 40
0.1538461538461539
 40
0.1538461538461539
 40
0.1538461538461539
 40
0.2307692307692308
 40
0.2307692307692308
 40
0.2307692307692308
 40
0.2307692307692308
 40
0.3076923076923077
 40
0.3076923076923077
 40
0.3076923076923077
 40
0.3076923076923077
 40
0.3846153846153846
 40
0.3846153846153846
 40
0.3846153846153846
 40
0.3846153846153846
 40
0.4615384615384616
 40
0.4615384615384616
 40
0.4615384615384616
 40
0.4615384615384616
 40
0.5384615384615384
 40
0.5384615384615384
 40
0.5384615384615384
 40
0.5384615384615384
 40
0.6153846153846154
 40
0.6153846153846154
 40
0.6153846153846154
 40
0.6153846153846154
 40
0.6923076923076923
 40
0.6923076923076923
 40
0.6923076923076923
 40
0.6923076923076923
 40
0.7692307692307693
 40
0.7692307692307693
 40
0.7692307692307693
 40
0.7692307692307693
 40
0.8461538461538461
 40
0.8461538461538461
 40
0.8461538461538461
 40
0.8461538461538461
 40
1.0
 40
1.0
 40
1.0
 40
1.0
 10
-16.5581
 20
-11.4367
 30
0.0
 10
-16.5581
 20
-11.4367
 30
0.0
 10
-16.8899
 20
-11.19
 30
0.0
 10
-16.8899
 20
-11.19
 30
0.0
 10
-16.8899
 20
-11.19
 30
0.0
 10
-16.7528
 20
-11.0047
 30
0.0
 10
-16.6777
 20
-10.776
 30
0.0
 10
-16.6764
 20
-10.5315
 30
0.0
 10
-16.6764
 20
-10.5315
 30
0.0
 10
-16.6718
 20
-9.9036
 30
0.0
 10
-17.13
 20
-9.3376
 30
0.0
 10
-18.042
 20
-9.3316
 30
0.0
 10
-18.042
 20
-9.3316
 30
0.0
 10
-18.4261
 20
-9.3292
 30
0.0
 10
-18.7685
 20
-9.4472
 30
0.0
 10
-19.0066
 20
-9.6631
 30
0.0
 10
-19.0066
 20
-9.6631
 30
0.0
 10
-19.0066
 20
-9.6631
 30
0.0
 10
-19.3381
 20
-9.4202
 30
0.0
 10
-19.3381
 20
-9.4202
 30
0.0
 10
-19.3381
 20
-9.4202
 30
0.0
 10
-19.3381
 20
-9.4202
 30
0.0
 10
-19.4798
 20
-9.6248
 30
0.0
 10
-19.4798
 20
-9.6248
 30
0.0
 10
-19.4798
 20
-9.6248
 30
0.0
 10
-19.4798
 20
-9.6248
 30
0.0
 10
-19.167
 20
-9.856
 30
0.0
 10
-19.167
 20
-9.856
 30
0.0
 10
-19.167
 20
-9.856
 30
0.0
 10
-19.3038
 20
-10.0412
 30
0.0
 10
-19.375
 20
-10.266
 30
0.0
 10
-19.3764
 20
-10.5066
 30
0.0
 10
-19.3764
 20
-10.5066
 30
0.0
 10
-19.3811
 20
-11.1934
 30
0.0
 10
-18.8452
 20
-11.717
 30
0.0
 10
-18.0187
 20
-11.7221
 30
0.0
 10
-18.0187
 20
-11.7221
 30
0.0
 10
-17.6267
 20
-11.7246
 30
0.0
 10
-17.2843
 20
-11.5988
 30
0.0
 10
-17.0461
 20
-11.3827
 30
0.0
 10
-17.0461
 20
-11.3827
 30
0.0
 10
-17.0461
 20
-11.3827
 30
0.0
 10
-16.7106
 20
-11.6257
 30
0.0
 10
-16.7106
 20
-11.6257
 30
0.0
 10
-16.7106
 20
-11.6257
 30
0.0
 10
-16.7106
 20
-11.6257
 30
0.0
 10
-16.5581
 20
-11.4367
 30
0.0
 10
-16.5581
 20
-11.4367
 30
0.0
  0
SPLINE
  5
50
330
1F
100
AcDbEntity
  8
Vrstva 1
 62
   250
100
AcDbSpline
210
0.0
220
0.0
230
1.0
 70
    11
 71
     3
 72
    28
 73
    24
 74
     0
 42
0.0000000001
 43
0.0000000001
 40
0.0
 40
0.0
 40
0.0
 40
0.0
 40
0.1428571428571428
 40
0.1428571428571428
 40
0.1428571428571428
 40
0.1428571428571428
 40
0.2857142857142857
 40
0.2857142857142857
 40
0.2857142857142857
 40
0.2857142857142857
 40
0.4285714285714285
 40
0.4285714285714285
 40
0.4285714285714285
 40
0.4285714285714285
 40
0.5714285714285714
 40
0.5714285714285714
 40
0.5714285714285714
 40
0.5714285714285714
 40
0.7142857142857143
 40
0.7142857142857143
 40
0.7142857142857143
 40
0.7142857142857143
 40
1.0
 40
1.0
 40
1.0
 40
1.0
 10
-17.3359
 20
-11.1835
 30
0.0
 10
-17.3359
 20
-11.1835
 30
0.0
 10
-17.3359
 20
-11.1835
 30
0.0
 10
-17.3359
 20
-11.1835
 30
0.0
 10
-17.3359
 20
-11.1835
 30
0.0
 10
-17.3359
 20
-11.1835
 30
0.0
 10
-17.3322
 20
-11.1913
 30
0.0
 10
-17.3322
 20
-11.1913
 30
0.0
 10
-17.3322
 20
-11.1913
 30
0.0
 10
-17.5311
 20
-11.3064
 30
0.0
 10
-17.7446
 20
-11.3788
 30
0.0
 10
-18.0319
 20
-11.3766
 30
0.0
 10
-18.0319
 20
-11.3766
 30
0.0
 10
-18.5828
 20
-11.373
 30
0.0
 10
-19.1084
 20
-11.0824
 30
0.0
 10
-19.1047
 20
-10.5158
 30
0.0
 10
-19.1047
 20
-10.5158
 30
0.0
 10
-19.1035
 20
-10.3179
 30
0.0
 10
-19.0327
 20
-10.1559
 30
0.0
 10
-18.9197
 20
-10.0242
 30
0.0
 10
-18.9197
 20
-10.0242
 30
0.0
 10
-18.9197
 20
-10.0242
 30
0.0
 10
-17.3359
 20
-11.1835
 30
0.0
 10
-17.3359
 20
-11.1835
 30
0.0
  0
SPLINE
  5
51
330
1F
100
AcDbEntity
  8
Vrstva 1
 62
   250
100
AcDbSpline
210
0.0
220
0.0
230
1.0
 70
    11
 71
     3
 72
    28
 73
    24
 74
     0
 42
0.0000000001
 43
0.0000000001
 40
0.0
 40
0.0
 40
0.0
 40
0.0
 40
0.1428571428571428
 40
0.1428571428571428
 40
0.1428571428571428
 40
0.1428571428571428
 40
0.2857142857142857
 40
0.2857142857142857
 40
0.2857142857142857
 40
0.2857142857142857
 40
0.4285714285714285
 40
0.4285714285714285
 40
0.4285714285714285
 40
0.4285714285714285
 40
0.5714285714285714
 40
0.5714285714285714
 40
0.5714285714285714
 40
0.5714285714285714
 40
0.7142857142857143
 40
0.7142857142857143
 40
0.7142857142857143
 40
0.7142857142857143
 40
1.0
 40
1.0
 40
1.0
 40
1.0
 10
-18.7128
 20
-9.8664
 30
0.0
 10
-18.7128
 20
-9.8664
 30
0.0
 10
-18.7128
 20
-9.8664
 30
0.0
 10
-18.7128
 20
-9.8664
 30
0.0
 10
-18.7128
 20
-9.8664
 30
0.0
 10
-18.7128
 20
-9.8664
 30
0.0
 10
-18.7128
 20
-9.8547
 30
0.0
 10
-18.7128
 20
-9.8547
 30
0.0
 10
-18.7128
 20
-9.8547
 30
0.0
 10
-18.4905
 20
-9.7208
 30
0.0
 10
-18.2538
 20
-9.6757
 30
0.0
 10
-18.0325
 20
-9.6771
 30
0.0
 10
-18.0325
 20
-9.6771
 30
0.0
 10
-17.4428
 20
-9.6807
 30
0.0
 10
-16.9445
 20
-9.9907
 30
0.0
 10
-16.948
 20
-10.534
 30
0.0
 10
-16.948
 20
-10.534
 30
0.0
 10
-16.9493
 20
-10.7474
 30
0.0
 10
-17.0164
 20
-10.8946
 30
0.0
 10
-17.137
 20
-11.0218
 30
0.0
 10
-17.137
 20
-11.0218
 30
0.0
 10
-17.137
 20
-11.0218
 30
0.0
 10
-18.7128
 20
-9.8664
 30
0.0
 10
-18.7128
 20
-9.8664
 30
0.0
  0
SPLINE
  5
52
330
1F
100
AcDbEntity
  8
Vrstva 1
 62
   250
100
AcDbSpline
210
0.0
220
0.0
230
1.0
 70
    11
 71
     3
 72
    48
 73
    44
 74
     0
 42
0.0000000001
 43
0.0000000001
 40
0.0
 40
0.0
 40
0.0
 40
0.0
 40
0.0833333333333333
 40
0.0833333333333333
 40
0.0833333333333333
 40
0.0833333333333333
 40
0.1666666666666667
 40
0.1666666666666667
 40
0.1666666666666667
 40
0.1666666666666667
 40
0.25
 40
0.25
 40
0.25
 40
0.25
 40
0.3333333333333333
 40
0.3333333333333333
 40
0.3333333333333333
 40
0.3333333333333333
 40
0.4166666666666667
 40
0.4166666666666667
 40
0.4166666666666667
 40
0.4166666666666667
 40
0.5
 40
0.5
 40
0.5
 40
0.5
 40
0.5833333333333334
 40
0.5833333333333334
 40
0.5833333333333334
 40
0.5833333333333334
 40
0.6666666666666666
 40
0.6666666666666666
 40
0.6666666666666666
 40
0.6666666666666666
 40
0.75
 40
0.75
 40
0.75
 40
0.75
 40
0.8333333333333334
 40
0.8333333333333334
 40
0.8333333333333334
 40
0.8333333333333334
 40
1.0
 40
1.0
 40
1.0
 40
1.0
 10
-16.7097
 20
-7.6443
 30
0.0
 10
-16.7097
 20
-7.6443
 30
0.0
 10
-17.4005
 20
-7.6397
 30
0.0
 10
-17.4005
 20
-7.6397
 30
0.0
 10
-17.4005
 20
-7.6397
 30
0.0
 10
-17.4005
 20
-7.6397
 30
0.0
 10
-17.3981
 20
-7.2872
 30
0.0
 10
-17.3981
 20
-7.2872
 30
0.0
 10
-17.3981
 20
-7.2872
 30
0.0
 10
-17.3981
 20
-7.2872
 30
0.0
 10
-17.6618
 20
-7.2851
 30
0.0
 10
-17.6618
 20
-7.2851
 30
0.0
 10
-17.6618
 20
-7.2851
 30
0.0
 10
-17.6618
 20
-7.2851
 30
0.0
 10
-17.6636
 20
-7.6383
 30
0.0
 10
-17.6636
 20
-7.6383
 30
0.0
 10
-17.6636
 20
-7.6383
 30
0.0
 10
-17.6636
 20
-7.6383
 30
0.0
 10
-19.2313
 20
-7.6283
 30
0.0
 10
-19.2313
 20
-7.6283
 30
0.0
 10
-19.2313
 20
-7.6283
 30
0.0
 10
-19.2313
 20
-7.6283
 30
0.0
 10
-19.2337
 20
-7.9969
 30
0.0
 10
-19.2337
 20
-7.9969
 30
0.0
 10
-19.2337
 20
-7.9969
 30
0.0
 10
-19.2337
 20
-7.9969
 30
0.0
 10
-17.6313
 20
-9.1323
 30
0.0
 10
-17.6313
 20
-9.1323
 30
0.0
 10
-17.6313
 20
-9.1323
 30
0.0
 10
-17.6313
 20
-9.1323
 30
0.0
 10
-17.4101
 20
-9.1335
 30
0.0
 10
-17.4101
 20
-9.1335
 30
0.0
 10
-17.4101
 20
-9.1335
 30
0.0
 10
-17.4101
 20
-9.1335
 30
0.0
 10
-17.4021
 20
-7.9618
 30
0.0
 10
-17.4021
 20
-7.9618
 30
0.0
 10
-17.4021
 20
-7.9618
 30
0.0
 10
-17.4021
 20
-7.9618
 30
0.0
 10
-16.7113
 20
-7.9663
 30
0.0
 10
-16.7113
 20
-7.9663
 30
0.0
 10
-16.7113
 20
-7.9663
 30
0.0
 10
-16.7113
 20
-7.9663
 30
0.0
 10
-16.7097
 20
-7.6443
 30
0.0
 10
-16.7097
 20
-7.6443
 30
0.0
  0
SPLINE
  5
53
330
1F
100
AcDbEntity
  8
Vrstva 1
 62
   250
100
AcDbSpline
210
0.0
220
0.0
230
1.0
 70
    11
 71
     3
 72
    36
 73
    32
 74
     0
 42
0.0000000001
 43
0.0000000001
 40
0.0
 40
0.0
 40
0.0
 40
0.0
 40
0.1111111111111111
 40
0.1111111111111111
 40
0.1111111111111111
 40
0.1111111111111111
 40
0.2222222222222222
 40
0.2222222222222222
 40
0.2222222222222222
 40
0.2222222222222222
 40
0.3333333333333333
 40
0.3333333333333333
 40
0.3333333333333333
 40
0.3333333333333333
 40
0.4444444444444444
 40
0.4444444444444444
 40
0.4444444444444444
 40
0.4444444444444444
 40
0.5555555555555556
 40
0.5555555555555556
 40
0.5555555555555556
 40
0.5555555555555556
 40
0.6666666666666666
 40
0.6666666666666666
 40
0.6666666666666666
 40
0.6666666666666666
 40
0.7777777777777778
 40
0.7777777777777778
 40
0.7777777777777778
 40
0.7777777777777778
 40
1.0
 40
1.0
 40
1.0
 40
1.0
 10
-17.6715
 20
-8.7868
 30
0.0
 10
-17.6715
 20
-8.7868
 30
0.0
 10
-17.6715
 20
-8.7868
 30
0.0
 10
-17.6715
 20
-8.7868
 30
0.0
 10
-17.6715
 20
-8.7868
 30
0.0
 10
-17.6715
 20
-8.7868
 30
0.0
 10
-17.6793
 20
-8.7868
 30
0.0
 10
-17.6793
 20
-8.7868
 30
0.0
 10
-17.6793
 20
-8.7868
 30
0.0
 10
-17.6793
 20
-8.7868
 30
0.0
 10
-18.5326
 20
-8.1641
 30
0.0
 10
-18.5326
 20
-8.1641
 30
0.0
 10
-18.5326
 20
-8.1641
 30
0.0
 10
-18.6487
 20
-8.0938
 30
0.0
 10
-18.7565
 20
-8.0308
 30
0.0
 10
-18.9038
 20
-7.952
 30
0.0
 10
-18.9038
 20
-7.952
 30
0.0
 10
-18.9038
 20
-7.952
 30
0.0
 10
-18.9038
 20
-7.9403
 30
0.0
 10
-18.9038
 20
-7.9403
 30
0.0
 10
-18.9038
 20
-7.9403
 30
0.0
 10
-18.7717
 20
-7.9492
 30
0.0
 10
-18.6398
 20
-7.9541
 30
0.0
 10
-18.5078
 20
-7.9545
 30
0.0
 10
-18.5078
 20
-7.9545
 30
0.0
 10
-18.5078
 20
-7.9545
 30
0.0
 10
-17.6659
 20
-7.9603
 30
0.0
 10
-17.6659
 20
-7.9603
 30
0.0
 10
-17.6659
 20
-7.9603
 30
0.0
 10
-17.6659
 20
-7.9603
 30
0.0
 10
-17.6715
 20
-8.7868
 30
0.0
 10
-17.6715
 20
-8.7868
 30
0.0
  0
SPLINE
  5
54
330
1F
100
AcDbEntity
  8
Vrstva 1
 62
   250
100
AcDbSpline
210
0.0
220
0.0
230
1.0
 70
    11
 71
     3
 72
    24
 73
    20
 74
     0
 42
0.0000000001
 43
0.0000000001
 40
0.0
 40
0.0
 40
0.0
 40
0.0
 40
0.1666666666666667
 40
0.1666666666666667
 40
0.1666666666666667
 40
0.1666666666666667
 40
0.3333333333333333
 40
0.3333333333333333
 40
0.3333333333333333
 40
0.3333333333333333
 40
0.5
 40
0.5
 40
0.5
 40
0.5
 40
0.6666666666666666
 40
0.6666666666666666
 40
0.6666666666666666
 40
0.6666666666666666
 40
1.0
 40
1.0
 40
1.0
 40
1.0
 10
-16.6646
 20
-6.2242
 30
0.0
 10
-16.661
 20
-5.6731
 30
0.0
 10
-17.1322
 20
-5.3483
 30
0.0
 10
-17.9899
 20
-5.3426
 30
0.0
 10
-17.9899
 20
-5.3426
 30
0.0
 10
-18.7931
 20
-5.3376
 30
0.0
 10
-19.268
 20
-5.6407
 30
0.0
 10
-19.2716
 20
-6.1684
 30
0.0
 10
-19.2716
 20
-6.1684
 30
0.0
 10
-19.2751
 20
-6.6806
 30
0.0
 10
-18.8156
 20
-7.0526
 30
0.0
 10
-17.9659
 20
-7.0579
 30
0.0
 10
-17.9659
 20
-7.0579
 30
0.0
 10
-17.1314
 20
-7.0558
 30
0.0
 10
-16.6675
 20
-6.7209
 30
0.0
 10
-16.6646
 20
-6.2281
 30
0.0
 10
-16.6646
 20
-6.2281
 30
0.0
 10
-16.6646
 20
-6.2281
 30
0.0
 10
-16.6646
 20
-6.2242
 30
0.0
 10
-16.6646
 20
-6.2242
 30
0.0
  0
SPLINE
  5
55
330
1F
100
AcDbEntity
  8
Vrstva 1
 62
   250
100
AcDbSpline
210
0.0
220
0.0
230
1.0
 70
    11
 71
     3
 72
    28
 73
    24
 74
     0
 42
0.0000000001
 43
0.0000000001
 40
0.0
 40
0.0
 40
0.0
 40
0.0
 40
0.1428571428571428
 40
0.1428571428571428
 40
0.1428571428571428
 40
0.1428571428571428
 40
0.2857142857142857
 40
0.2857142857142857
 40
0.2857142857142857
 40
0.2857142857142857
 40
0.4285714285714285
 40
0.4285714285714285
 40
0.4285714285714285
 40
0.4285714285714285
 40
0.5714285714285714
 40
0.5714285714285714
 40
0.5714285714285714
 40
0.5714285714285714
 40
0.7142857142857143
 40
0.7142857142857143
 40
0.7142857142857143
 40
0.7142857142857143
 40
1.0
 40
1.0
 40
1.0
 40
1.0
 10
-16.9286
 20
-6.2111
 30
0.0
 10
-16.9286
 20
-6.2111
 30
0.0
 10
-16.9286
 20
-6.2111
 30
0.0
 10
-16.9286
 20
-6.2111
 30
0.0
 10
-16.9286
 20
-6.2111
 30
0.0
 10
-16.93
 20
-6.5255
 30
0.0
 10
-17.3272
 20
-6.7248
 30
0.0
 10
-17.9829
 20
-6.7124
 30
0.0
 10
-17.9829
 20
-6.7124
 30
0.0
 10
-18.6155
 20
-6.7086
 30
0.0
 10
-19.0099
 20
-6.5043
 30
0.0
 10
-19.0078
 20
-6.1938
 30
0.0
 10
-19.0078
 20
-6.1938
 30
0.0
 10
-19.0055
 20
-5.8368
 30
0.0
 10
-18.5974
 20
-5.684
 30
0.0
 10
-17.9766
 20
-5.688
 30
0.0
 10
-17.9766
 20
-5.688
 30
0.0
 10
-17.3324
 20
-5.6924
 30
0.0
 10
-16.9262
 20
-5.8618
 30
0.0
 10
-16.9286
 20
-6.2073
 30
0.0
 10
-16.9286
 20
-6.2073
 30
0.0
 10
-16.9286
 20
-6.2073
 30
0.0
 10
-16.9286
 20
-6.2111
 30
0.0
 10
-16.9286
 20
-6.2111
 30
0.0
  0
SPLINE
  5
56
330
1F
100
AcDbEntity
  8
Vrstva 1
 62
   250
100
AcDbSpline
210
0.0
220
0.0
230
1.0
 70
    11
 71
     3
 72
    76
 73
    72
 74
     0
 42
0.0000000001
 43
0.0000000001
 40
0.0
 40
0.0
 40
0.0
 40
0.0
 40
0.0526315789473684
 40
0.0526315789473684
 40
0.0526315789473684
 40
0.0526315789473684
 40
0.1052631578947368
 40
0.1052631578947368
 40
0.1052631578947368
 40
0.1052631578947368
 40
0.1578947368421053
 40
0.1578947368421053
 40
0.1578947368421053
 40
0.1578947368421053
 40
0.2105263157894737
 40
0.2105263157894737
 40
0.2105263157894737
 40
0.2105263157894737
 40
0.2631578947368421
 40
0.2631578947368421
 40
0.2631578947368421
 40
0.2631578947368421
 40
0.3157894736842105
 40
0.3157894736842105
 40
0.3157894736842105
 40
0.3157894736842105
 40
0.3684210526315789
 40
0.3684210526315789
 40
0.3684210526315789
 40
0.3684210526315789
 40
0.4210526315789473
 40
0.4210526315789473
 40
0.4210526315789473
 40
0.4210526315789473
 40
0.4736842105263158
 40
0.4736842105263158
 40
0.4736842105263158
 40
0.4736842105263158
 40
0.5263157894736842
 40
0.5263157894736842
 40
0.5263157894736842
 40
0.5263157894736842
 40
0.5789473684210527
 40
0.5789473684210527
 40
0.5789473684210527
 40
0.5789473684210527
 40
0.631578947368421
 40
0.631578947368421
 40
0.631578947368421
 40
0.631578947368421
 40
0.6842105263157895
 40
0.6842105263157895
 40
0.6842105263157895
 40
0.6842105263157895
 40
0.7368421052631579
 40
0.7368421052631579
 40
0.7368421052631579
 40
0.7368421052631579
 40
0.7894736842105263
 40
0.7894736842105263
 40
0.7894736842105263
 40
0.7894736842105263
 40
0.8421052631578947
 40
0.8421052631578947
 40
0.8421052631578947
 40
0.8421052631578947
 40
0.8947368421052632
 40
0.8947368421052632
 40
0.8947368421052632
 40
0.8947368421052632
 40
1.0
 40
1.0
 40
1.0
 40
1.0
 10
-1.127
 20
-13.229
 30
0.0
 10
-1.0028
 20
-13.3106
 30
0.0
 10
-0.7544
 20
-13.3999
 30
0.0
 10
-0.4712
 20
-13.3999
 30
0.0
 10
-0.4712
 20
-13.3999
 30
0.0
 10
0.1302
 20
-13.3999
 30
0.0
 10
0.4484
 20
-13.0468
 30
0.0
 10
0.4484
 20
-12.6432
 30
0.0
 10
0.4484
 20
-12.6432
 30
0.0
 10
0.4484
 20
-12.2901
 30
0.0
 10
0.1962
 20
-12.0572
 30
0.0
 10
-0.1142
 20
-11.9989
 30
0.0
 10
-0.1142
 20
-11.9989
 30
0.0
 10
-0.1142
 20
-11.9989
 30
0.0
 10
-0.1142
 20
-11.9913
 30
0.0
 10
-0.1142
 20
-11.9913
 30
0.0
 10
-0.1142
 20
-11.9913
 30
0.0
 10
0.1924
 20
-11.8786
 30
0.0
 10
0.3515
 20
-11.6575
 30
0.0
 10
0.3515
 20
-11.3937
 30
0.0
 10
0.3515
 20
-11.3937
 30
0.0
 10
0.3515
 20
-11.0871
 30
0.0
 10
0.1264
 20
-10.7922
 30
0.0
 10
-0.3703
 20
-10.7922
 30
0.0
 10
-0.3703
 20
-10.7922
 30
0.0
 10
-0.6419
 20
-10.7922
 30
0.0
 10
-0.8981
 20
-10.8892
 30
0.0
 10
-1.0338
 20
-10.9862
 30
0.0
 10
-1.0338
 20
-10.9862
 30
0.0
 10
-1.0338
 20
-10.9862
 30
0.0
 10
-0.9407
 20
-11.2345
 30
0.0
 10
-0.9407
 20
-11.2345
 30
0.0
 10
-0.9407
 20
-11.2345
 30
0.0
 10
-0.832
 20
-11.157
 30
0.0
 10
-0.6381
 20
-11.0676
 30
0.0
 10
-0.4363
 20
-11.0676
 30
0.0
 10
-0.4363
 20
-11.0676
 30
0.0
 10
-0.122
 20
-11.0676
 30
0.0
 10
0.0061
 20
-11.2462
 30
0.0
 10
0.0061
 20
-11.448
 30
0.0
 10
0.0061
 20
-11.448
 30
0.0
 10
0.0061
 20
-11.7467
 30
0.0
 10
-0.3081
 20
-11.8748
 30
0.0
 10
-0.5566
 20
-11.8748
 30
0.0
 10
-0.5566
 20
-11.8748
 30
0.0
 10
-0.5566
 20
-11.8748
 30
0.0
 10
-0.7466
 20
-11.8748
 30
0.0
 10
-0.7466
 20
-11.8748
 30
0.0
 10
-0.7466
 20
-11.8748
 30
0.0
 10
-0.7466
 20
-11.8748
 30
0.0
 10
-0.7466
 20
-12.131
 30
0.0
 10
-0.7466
 20
-12.131
 30
0.0
 10
-0.7466
 20
-12.131
 30
0.0
 10
-0.7466
 20
-12.131
 30
0.0
 10
-0.5566
 20
-12.131
 30
0.0
 10
-0.5566
 20
-12.131
 30
0.0
 10
-0.5566
 20
-12.131
 30
0.0
 10
-0.2266
 20
-12.131
 30
0.0
 10
0.0915
 20
-12.2823
 30
0.0
 10
0.0952
 20
-12.6354
 30
0.0
 10
0.0952
 20
-12.6354
 30
0.0
 10
0.0992
 20
-12.8489
 30
0.0
 10
-0.0405
 20
-13.1244
 30
0.0
 10
-0.475
 20
-13.1244
 30
0.0
 10
-0.475
 20
-13.1244
 30
0.0
 10
-0.7157
 20
-13.1244
 30
0.0
 10
-0.9369
 20
-13.0274
 30
0.0
 10
-1.0338
 20
-12.9691
 30
0.0
 10
-1.0338
 20
-12.9691
 30
0.0
 10
-1.0338
 20
-12.9691
 30
0.0
 10
-1.127
 20
-13.229
 30
0.0
 10
-1.127
 20
-13.229
 30
0.0
  0
SPLINE
  5
57
330
1F
100
AcDbEntity
  8
Vrstva 1
 62
   250
100
AcDbSpline
210
0.0
220
0.0
230
1.0
 70
    11
 71
     3
 72
    48
 73
    44
 74
     0
 42
0.0000000001
 43
0.0000000001
 40
0.0
 40
0.0
 40
0.0
 40
0.0
 40
0.0833333333333333
 40
0.0833333333333333
 40
0.0833333333333333
 40
0.0833333333333333
 40
0.1666666666666667
 40
0.1666666666666667
 40
0.1666666666666667
 40
0.1666666666666667
 40
0.25
 40
0.25
 40
0.25
 40
0.25
 40
0.3333333333333333
 40
0.3333333333333333
 40
0.3333333333333333
 40
0.3333333333333333
 40
0.4166666666666667
 40
0.4166666666666667
 40
0.4166666666666667
 40
0.4166666666666667
 40
0.5
 40
0.5
 40
0.5
 40
0.5
 40
0.5833333333333334
 40
0.5833333333333334
 40
0.5833333333333334
 40
0.5833333333333334
 40
0.6666666666666666
 40
0.6666666666666666
 40
0.6666666666666666
 40
0.6666666666666666
 40
0.75
 40
0.75
 40
0.75
 40
0.75
 40
0.8333333333333334
 40
0.8333333333333334
 40
0.8333333333333334
 40
0.8333333333333334
 40
1.0
 40
1.0
 40
1.0
 40
1.0
 10
1.7172
 20
-10.7922
 30
0.0
 10
1.2749
 20
-10.7922
 30
0.0
 10
0.9374
 20
-11.0638
 30
0.0
 10
0.9374
 20
-11.4635
 30
0.0
 10
0.9374
 20
-11.4635
 30
0.0
 10
0.9374
 20
-11.6808
 30
0.0
 10
1.0577
 20
-11.8981
 30
0.0
 10
1.3409
 20
-12.0301
 30
0.0
 10
1.3409
 20
-12.0301
 30
0.0
 10
1.3409
 20
-12.0301
 30
0.0
 10
1.3409
 20
-12.0417
 30
0.0
 10
1.3409
 20
-12.0417
 30
0.0
 10
1.3409
 20
-12.0417
 30
0.0
 10
1.0344
 20
-12.1736
 30
0.0
 10
0.8443
 20
-12.4026
 30
0.0
 10
0.8443
 20
-12.7208
 30
0.0
 10
0.8443
 20
-12.7208
 30
0.0
 10
0.8443
 20
-13.0893
 30
0.0
 10
1.1624
 20
-13.3999
 30
0.0
 10
1.69
 20
-13.3999
 30
0.0
 10
1.69
 20
-13.3999
 30
0.0
 10
2.1712
 20
-13.3999
 30
0.0
 10
2.5476
 20
-13.1088
 30
0.0
 10
2.5476
 20
-12.6665
 30
0.0
 10
2.5476
 20
-12.6665
 30
0.0
 10
2.5476
 20
-12.3638
 30
0.0
 10
2.3537
 20
-12.1386
 30
0.0
 10
2.0394
 20
-12.0145
 30
0.0
 10
2.0394
 20
-12.0145
 30
0.0
 10
2.0394
 20
-12.0145
 30
0.0
 10
2.0394
 20
-12.0029
 30
0.0
 10
2.0394
 20
-12.0029
 30
0.0
 10
2.0394
 20
-12.0029
 30
0.0
 10
2.3497
 20
-11.8592
 30
0.0
 10
2.4585
 20
-11.6264
 30
0.0
 10
2.4585
 20
-11.4131
 30
0.0
 10
2.4585
 20
-11.4131
 30
0.0
 10
2.4585
 20
-11.0948
 30
0.0
 10
2.21
 20
-10.7922
 30
0.0
 10
1.7212
 20
-10.7922
 30
0.0
 10
1.7212
 20
-10.7922
 30
0.0
 10
1.7212
 20
-10.7922
 30
0.0
 10
1.7172
 20
-10.7922
 30
0.0
 10
1.7172
 20
-10.7922
 30
0.0
  0
SPLINE
  5
58
330
1F
100
AcDbEntity
  8
Vrstva 1
 62
   250
100
AcDbSpline
210
0.0
220
0.0
230
1.0
 70
    11
 71
     3
 72
    28
 73
    24
 74
     0
 42
0.0000000001
 43
0.0000000001
 40
0.0
 40
0.0
 40
0.0
 40
0.0
 40
0.1428571428571428
 40
0.1428571428571428
 40
0.1428571428571428
 40
0.1428571428571428
 40
0.2857142857142857
 40
0.2857142857142857
 40
0.2857142857142857
 40
0.2857142857142857
 40
0.4285714285714285
 40
0.4285714285714285
 40
0.4285714285714285
 40
0.4285714285714285
 40
0.5714285714285714
 40
0.5714285714285714
 40
0.5714285714285714
 40
0.5714285714285714
 40
0.7142857142857143
 40
0.7142857142857143
 40
0.7142857142857143
 40
0.7142857142857143
 40
1.0
 40
1.0
 40
1.0
 40
1.0
 10
1.694
 20
-13.1515
 30
0.0
 10
1.694
 20
-13.1515
 30
0.0
 10
1.694
 20
-13.1515
 30
0.0
 10
1.694
 20
-13.1515
 30
0.0
 10
1.694
 20
-13.1515
 30
0.0
 10
1.3758
 20
-13.1515
 30
0.0
 10
1.1818
 20
-12.9265
 30
0.0
 10
1.1933
 20
-12.6742
 30
0.0
 10
1.1933
 20
-12.6742
 30
0.0
 10
1.1933
 20
-12.4336
 30
0.0
 10
1.3524
 20
-12.2357
 30
0.0
 10
1.6474
 20
-12.1504
 30
0.0
 10
1.6474
 20
-12.1504
 30
0.0
 10
1.9888
 20
-12.2474
 30
0.0
 10
2.2023
 20
-12.3986
 30
0.0
 10
2.2023
 20
-12.7014
 30
0.0
 10
2.2023
 20
-12.7014
 30
0.0
 10
2.2023
 20
-12.9614
 30
0.0
 10
2.0043
 20
-13.1515
 30
0.0
 10
1.6978
 20
-13.1515
 30
0.0
 10
1.6978
 20
-13.1515
 30
0.0
 10
1.6978
 20
-13.1515
 30
0.0
 10
1.694
 20
-13.1515
 30
0.0
 10
1.694
 20
-13.1515
 30
0.0
  0
SPLINE
  5
59
330
1F
100
AcDbEntity
  8
Vrstva 1
 62
   250
100
AcDbSpline
210
0.0
220
0.0
230
1.0
 70
    11
 71
     3
 72
    28
 73
    24
 74
     0
 42
0.0000000001
 43
0.0000000001
 40
0.0
 40
0.0
 40
0.0
 40
0.0
 40
0.1428571428571428
 40
0.1428571428571428
 40
0.1428571428571428
 40
0.1428571428571428
 40
0.2857142857142857
 40
0.2857142857142857
 40
0.2857142857142857
 40
0.2857142857142857
 40
0.4285714285714285
 40
0.4285714285714285
 40
0.4285714285714285
 40
0.4285714285714285
 40
0.5714285714285714
 40
0.5714285714285714
 40
0.5714285714285714
 40
0.5714285714285714
 40
0.7142857142857143
 40
0.7142857142857143
 40
0.7142857142857143
 40
0.7142857142857143
 40
1.0
 40
1.0
 40
1.0
 40
1.0
 10
1.7056
 20
-11.0367
 30
0.0
 10
1.7056
 20
-11.0367
 30
0.0
 10
1.7056
 20
-11.0367
 30
0.0
 10
1.7056
 20
-11.0367
 30
0.0
 10
1.7056
 20
-11.0367
 30
0.0
 10
2.0083
 20
-11.0367
 30
0.0
 10
2.1285
 20
-11.2462
 30
0.0
 10
2.1285
 20
-11.448
 30
0.0
 10
2.1285
 20
-11.448
 30
0.0
 10
2.1285
 20
-11.6769
 30
0.0
 10
1.9618
 20
-11.8322
 30
0.0
 10
1.7444
 20
-11.9058
 30
0.0
 10
1.7444
 20
-11.9058
 30
0.0
 10
1.4534
 20
-11.8283
 30
0.0
 10
1.2593
 20
-11.6925
 30
0.0
 10
1.2633
 20
-11.4401
 30
0.0
 10
1.2633
 20
-11.4401
 30
0.0
 10
1.2633
 20
-11.2229
 30
0.0
 10
1.4184
 20
-11.0367
 30
0.0
 10
1.7018
 20
-11.0367
 30
0.0
 10
1.7018
 20
-11.0367
 30
0.0
 10
1.7018
 20
-11.0367
 30
0.0
 10
1.7056
 20
-11.0367
 30
0.0
 10
1.7056
 20
-11.0367
 30
0.0
  0
SPLINE
  5
5A
330
1F
100
AcDbEntity
  8
Vrstva 1
 62
   250
100
AcDbSpline
210
0.0
220
0.0
230
1.0
 70
    11
 71
     3
 72
    64
 73
    60
 74
     0
 42
0.0000000001
 43
0.0000000001
 40
0.0
 40
0.0
 40
0.0
 40
0.0
 40
0.0625
 40
0.0625
 40
0.0625
 40
0.0625
 40
0.125
 40
0.125
 40
0.125
 40
0.125
 40
0.1875
 40
0.1875
 40
0.1875
 40
0.1875
 40
0.25
 40
0.25
 40
0.25
 40
0.25
 40
0.3125
 40
0.3125
 40
0.3125
 40
0.3125
 40
0.375
 40
0.375
 40
0.375
 40
0.375
 40
0.4375
 40
0.4375
 40
0.4375
 40
0.4375
 40
0.5
 40
0.5
 40
0.5
 40
0.5
 40
0.5625
 40
0.5625
 40
0.5625
 40
0.5625
 40
0.625
 40
0.625
 40
0.625
 40
0.625
 40
0.6875
 40
0.6875
 40
0.6875
 40
0.6875
 40
0.75
 40
0.75
 40
0.75
 40
0.75
 40
0.8125
 40
0.8125
 40
0.8125
 40
0.8125
 40
0.875
 40
0.875
 40
0.875
 40
0.875
 40
1.0
 40
1.0
 40
1.0
 40
1.0
 10
4.3715
 20
-10.8349
 30
0.0
 10
4.3715
 20
-10.8349
 30
0.0
 10
3.1647
 20
-10.8349
 30
0.0
 10
3.1647
 20
-10.8349
 30
0.0
 10
3.1647
 20
-10.8349
 30
0.0
 10
3.1647
 20
-10.8349
 30
0.0
 10
3.0016
 20
-12.0455
 30
0.0
 10
3.0016
 20
-12.0455
 30
0.0
 10
3.0016
 20
-12.0455
 30
0.0
 10
3.0948
 20
-12.0301
 30
0.0
 10
3.2073
 20
-12.0183
 30
0.0
 10
3.3548
 20
-12.0183
 30
0.0
 10
3.3548
 20
-12.0183
 30
0.0
 10
3.8555
 20
-12.0183
 30
0.0
 10
4.0766
 20
-12.2513
 30
0.0
 10
4.0766
 20
-12.5733
 30
0.0
 10
4.0766
 20
-12.5733
 30
0.0
 10
4.0805
 20
-12.9148
 30
0.0
 10
3.8011
 20
-13.1244
 30
0.0
 10
3.4829
 20
-13.1244
 30
0.0
 10
3.4829
 20
-13.1244
 30
0.0
 10
3.2501
 20
-13.1244
 30
0.0
 10
3.0444
 20
-13.0468
 30
0.0
 10
2.9397
 20
-12.9847
 30
0.0
 10
2.9397
 20
-12.9847
 30
0.0
 10
2.9397
 20
-12.9847
 30
0.0
 10
2.8542
 20
-13.2447
 30
0.0
 10
2.8542
 20
-13.2447
 30
0.0
 10
2.8542
 20
-13.2447
 30
0.0
 10
2.9785
 20
-13.3223
 30
0.0
 10
3.2073
 20
-13.3999
 30
0.0
 10
3.4829
 20
-13.3999
 30
0.0
 10
3.4829
 20
-13.3999
 30
0.0
 10
4.0301
 20
-13.3999
 30
0.0
 10
4.422
 20
-13.0312
 30
0.0
 10
4.422
 20
-12.5383
 30
0.0
 10
4.422
 20
-12.5383
 30
0.0
 10
4.422
 20
-12.2202
 30
0.0
 10
4.2589
 20
-11.9989
 30
0.0
 10
4.0611
 20
-11.8904
 30
0.0
 10
4.0611
 20
-11.8904
 30
0.0
 10
3.9058
 20
-11.7972
 30
0.0
 10
3.7158
 20
-11.7546
 30
0.0
 10
3.5178
 20
-11.7546
 30
0.0
 10
3.5178
 20
-11.7546
 30
0.0
 10
3.4247
 20
-11.7546
 30
0.0
 10
3.3704
 20
-11.7623
 30
0.0
 10
3.3122
 20
-11.7701
 30
0.0
 10
3.3122
 20
-11.7701
 30
0.0
 10
3.3122
 20
-11.7701
 30
0.0
 10
3.4092
 20
-11.122
 30
0.0
 10
3.4092
 20
-11.122
 30
0.0
 10
3.4092
 20
-11.122
 30
0.0
 10
3.4092
 20
-11.122
 30
0.0
 10
4.3715
 20
-11.122
 30
0.0
 10
4.3715
 20
-11.122
 30
0.0
 10
4.3715
 20
-11.122
 30
0.0
 10
4.3715
 20
-11.122
 30
0.0
 10
4.3715
 20
-10.8349
 30
0.0
 10
4.3715
 20
-10.8349
 30
0.0
  0
SPLINE
  5
5B
330
1F
100
AcDbEntity
  8
Vrstva 1
 62
   250
100
AcDbSpline
210
0.0
220
0.0
230
1.0
 70
    11
 71
     3
 72
    48
 73
    44
 74
     0
 42
0.0000000001
 43
0.0000000001
 40
0.0
 40
0.0
 40
0.0
 40
0.0
 40
0.0833333333333333
 40
0.0833333333333333
 40
0.0833333333333333
 40
0.0833333333333333
 40
0.1666666666666667
 40
0.1666666666666667
 40
0.1666666666666667
 40
0.1666666666666667
 40
0.25
 40
0.25
 40
0.25
 40
0.25
 40
0.3333333333333333
 40
0.3333333333333333
 40
0.3333333333333333
 40
0.3333333333333333
 40
0.4166666666666667
 40
0.4166666666666667
 40
0.4166666666666667
 40
0.4166666666666667
 40
0.5
 40
0.5
 40
0.5
 40
0.5
 40
0.5833333333333334
 40
0.5833333333333334
 40
0.5833333333333334
 40
0.5833333333333334
 40
0.6666666666666666
 40
0.6666666666666666
 40
0.6666666666666666
 40
0.6666666666666666
 40
0.75
 40
0.75
 40
0.75
 40
0.75
 40
0.8333333333333334
 40
0.8333333333333334
 40
0.8333333333333334
 40
0.8333333333333334
 40
1.0
 40
1.0
 40
1.0
 40
1.0
 10
7.6389
 20
-10.7922
 30
0.0
 10
7.1966
 20
-10.7922
 30
0.0
 10
6.8589
 20
-11.0638
 30
0.0
 10
6.8589
 20
-11.4635
 30
0.0
 10
6.8589
 20
-11.4635
 30
0.0
 10
6.8589
 20
-11.6808
 30
0.0
 10
6.9792
 20
-11.8981
 30
0.0
 10
7.2626
 20
-12.0301
 30
0.0
 10
7.2626
 20
-12.0301
 30
0.0
 10
7.2626
 20
-12.0301
 30
0.0
 10
7.2626
 20
-12.0417
 30
0.0
 10
7.2626
 20
-12.0417
 30
0.0
 10
7.2626
 20
-12.0417
 30
0.0
 10
6.956
 20
-12.1736
 30
0.0
 10
6.7658
 20
-12.4026
 30
0.0
 10
6.7658
 20
-12.7208
 30
0.0
 10
6.7658
 20
-12.7208
 30
0.0
 10
6.7658
 20
-13.0893
 30
0.0
 10
7.0841
 20
-13.3999
 30
0.0
 10
7.6117
 20
-13.3999
 30
0.0
 10
7.6117
 20
-13.3999
 30
0.0
 10
8.093
 20
-13.3999
 30
0.0
 10
8.4693
 20
-13.1088
 30
0.0
 10
8.4693
 20
-12.6665
 30
0.0
 10
8.4693
 20
-12.6665
 30
0.0
 10
8.4693
 20
-12.3638
 30
0.0
 10
8.2753
 20
-12.1386
 30
0.0
 10
7.9611
 20
-12.0145
 30
0.0
 10
7.9611
 20
-12.0145
 30
0.0
 10
7.9611
 20
-12.0145
 30
0.0
 10
7.9611
 20
-12.0029
 30
0.0
 10
7.9611
 20
-12.0029
 30
0.0
 10
7.9611
 20
-12.0029
 30
0.0
 10
8.2715
 20
-11.8592
 30
0.0
 10
8.3802
 20
-11.6264
 30
0.0
 10
8.3802
 20
-11.4131
 30
0.0
 10
8.3802
 20
-11.4131
 30
0.0
 10
8.3802
 20
-11.0948
 30
0.0
 10
8.1318
 20
-10.7922
 30
0.0
 10
7.6429
 20
-10.7922
 30
0.0
 10
7.6429
 20
-10.7922
 30
0.0
 10
7.6429
 20
-10.7922
 30
0.0
 10
7.6389
 20
-10.7922
 30
0.0
 10
7.6389
 20
-10.7922
 30
0.0
  0
SPLINE
  5
5C
330
1F
100
AcDbEntity
  8
Vrstva 1
 62
   250
100
AcDbSpline
210
0.0
220
0.0
230
1.0
 70
    11
 71
     3
 72
    28
 73
    24
 74
     0
 42
0.0000000001
 43
0.0000000001
 40
0.0
 40
0.0
 40
0.0
 40
0.0
 40
0.1428571428571428
 40
0.1428571428571428
 40
0.1428571428571428
 40
0.1428571428571428
 40
0.2857142857142857
 40
0.2857142857142857
 40
0.2857142857142857
 40
0.2857142857142857
 40
0.4285714285714285
 40
0.4285714285714285
 40
0.4285714285714285
 40
0.4285714285714285
 40
0.5714285714285714
 40
0.5714285714285714
 40
0.5714285714285714
 40
0.5714285714285714
 40
0.7142857142857143
 40
0.7142857142857143
 40
0.7142857142857143
 40
0.7142857142857143
 40
1.0
 40
1.0
 40
1.0
 40
1.0
 10
7.6157
 20
-13.1515
 30
0.0
 10
7.6157
 20
-13.1515
 30
0.0
 10
7.6157
 20
-13.1515
 30
0.0
 10
7.6157
 20
-13.1515
 30
0.0
 10
7.6157
 20
-13.1515
 30
0.0
 10
7.2974
 20
-13.1515
 30
0.0
 10
7.1035
 20
-12.9265
 30
0.0
 10
7.1151
 20
-12.6742
 30
0.0
 10
7.1151
 20
-12.6742
 30
0.0
 10
7.1151
 20
-12.4336
 30
0.0
 10
7.2742
 20
-12.2357
 30
0.0
 10
7.5691
 20
-12.1504
 30
0.0
 10
7.5691
 20
-12.1504
 30
0.0
 10
7.9105
 20
-12.2474
 30
0.0
 10
8.124
 20
-12.3986
 30
0.0
 10
8.124
 20
-12.7014
 30
0.0
 10
8.124
 20
-12.7014
 30
0.0
 10
8.124
 20
-12.9614
 30
0.0
 10
7.9261
 20
-13.1515
 30
0.0
 10
7.6195
 20
-13.1515
 30
0.0
 10
7.6195
 20
-13.1515
 30
0.0
 10
7.6195
 20
-13.1515
 30
0.0
 10
7.6157
 20
-13.1515
 30
0.0
 10
7.6157
 20
-13.1515
 30
0.0
  0
SPLINE
  5
5D
330
1F
100
AcDbEntity
  8
Vrstva 1
 62
   250
100
AcDbSpline
210
0.0
220
0.0
230
1.0
 70
    11
 71
     3
 72
    28
 73
    24
 74
     0
 42
0.0000000001
 43
0.0000000001
 40
0.0
 40
0.0
 40
0.0
 40
0.0
 40
0.1428571428571428
 40
0.1428571428571428
 40
0.1428571428571428
 40
0.1428571428571428
 40
0.2857142857142857
 40
0.2857142857142857
 40
0.2857142857142857
 40
0.2857142857142857
 40
0.4285714285714285
 40
0.4285714285714285
 40
0.4285714285714285
 40
0.4285714285714285
 40
0.5714285714285714
 40
0.5714285714285714
 40
0.5714285714285714
 40
0.5714285714285714
 40
0.7142857142857143
 40
0.7142857142857143
 40
0.7142857142857143
 40
0.7142857142857143
 40
1.0
 40
1.0
 40
1.0
 40
1.0
 10
7.6273
 20
-11.0367
 30
0.0
 10
7.6273
 20
-11.0367
 30
0.0
 10
7.6273
 20
-11.0367
 30
0.0
 10
7.6273
 20
-11.0367
 30
0.0
 10
7.6273
 20
-11.0367
 30
0.0
 10
7.9299
 20
-11.0367
 30
0.0
 10
8.0502
 20
-11.2462
 30
0.0
 10
8.0502
 20
-11.448
 30
0.0
 10
8.0502
 20
-11.448
 30
0.0
 10
8.0502
 20
-11.6769
 30
0.0
 10
7.8834
 20
-11.8322
 30
0.0
 10
7.6661
 20
-11.9058
 30
0.0
 10
7.6661
 20
-11.9058
 30
0.0
 10
7.3751
 20
-11.8283
 30
0.0
 10
7.1811
 20
-11.6925
 30
0.0
 10
7.1849
 20
-11.4401
 30
0.0
 10
7.1849
 20
-11.4401
 30
0.0
 10
7.1849
 20
-11.2229
 30
0.0
 10
7.3401
 20
-11.0367
 30
0.0
 10
7.6235
 20
-11.0367
 30
0.0
 10
7.6235
 20
-11.0367
 30
0.0
 10
7.6235
 20
-11.0367
 30
0.0
 10
7.6273
 20
-11.0367
 30
0.0
 10
7.6273
 20
-11.0367
 30
0.0
  0
SPLINE
  5
5E
330
1F
100
AcDbEntity
  8
Vrstva 1
 62
   250
100
AcDbSpline
210
0.0
220
0.0
230
1.0
 70
    11
 71
     3
 72
    76
 73
    72
 74
     0
 42
0.0000000001
 43
0.0000000001
 40
0.0
 40
0.0
 40
0.0
 40
0.0
 40
0.0526315789473684
 40
0.0526315789473684
 40
0.0526315789473684
 40
0.0526315789473684
 40
0.1052631578947368
 40
0.1052631578947368
 40
0.1052631578947368
 40
0.1052631578947368
 40
0.1578947368421053
 40
0.1578947368421053
 40
0.1578947368421053
 40
0.1578947368421053
 40
0.2105263157894737
 40
0.2105263157894737
 40
0.2105263157894737
 40
0.2105263157894737
 40
0.2631578947368421
 40
0.2631578947368421
 40
0.2631578947368421
 40
0.2631578947368421
 40
0.3157894736842105
 40
0.3157894736842105
 40
0.3157894736842105
 40
0.3157894736842105
 40
0.3684210526315789
 40
0.3684210526315789
 40
0.3684210526315789
 40
0.3684210526315789
 40
0.4210526315789473
 40
0.4210526315789473
 40
0.4210526315789473
 40
0.4210526315789473
 40
0.4736842105263158
 40
0.4736842105263158
 40
0.4736842105263158
 40
0.4736842105263158
 40
0.5263157894736842
 40
0.5263157894736842
 40
0.5263157894736842
 40
0.5263157894736842
 40
0.5789473684210527
 40
0.5789473684210527
 40
0.5789473684210527
 40
0.5789473684210527
 40
0.631578947368421
 40
0.631578947368421
 40
0.631578947368421
 40
0.631578947368421
 40
0.6842105263157895
 40
0.6842105263157895
 40
0.6842105263157895
 40
0.6842105263157895
 40
0.7368421052631579
 40
0.7368421052631579
 40
0.7368421052631579
 40
0.7368421052631579
 40
0.7894736842105263
 40
0.7894736842105263
 40
0.7894736842105263
 40
0.7894736842105263
 40
0.8421052631578947
 40
0.8421052631578947
 40
0.8421052631578947
 40
0.8421052631578947
 40
0.8947368421052632
 40
0.8947368421052632
 40
0.8947368421052632
 40
0.8947368421052632
 40
1.0
 40
1.0
 40
1.0
 40
1.0
 10
8.7759
 20
-13.229
 30
0.0
 10
8.9002
 20
-13.3106
 30
0.0
 10
9.1484
 20
-13.3999
 30
0.0
 10
9.4318
 20
-13.3999
 30
0.0
 10
9.4318
 20
-13.3999
 30
0.0
 10
10.0332
 20
-13.3999
 30
0.0
 10
10.3514
 20
-13.0468
 30
0.0
 10
10.3514
 20
-12.6432
 30
0.0
 10
10.3514
 20
-12.6432
 30
0.0
 10
10.3514
 20
-12.2901
 30
0.0
 10
10.0991
 20
-12.0572
 30
0.0
 10
9.7888
 20
-11.9989
 30
0.0
 10
9.7888
 20
-11.9989
 30
0.0
 10
9.7888
 20
-11.9989
 30
0.0
 10
9.7888
 20
-11.9913
 30
0.0
 10
9.7888
 20
-11.9913
 30
0.0
 10
9.7888
 20
-11.9913
 30
0.0
 10
10.0954
 20
-11.8786
 30
0.0
 10
10.2545
 20
-11.6575
 30
0.0
 10
10.2545
 20
-11.3937
 30
0.0
 10
10.2545
 20
-11.3937
 30
0.0
 10
10.2545
 20
-11.0871
 30
0.0
 10
10.0294
 20
-10.7922
 30
0.0
 10
9.5326
 20
-10.7922
 30
0.0
 10
9.5326
 20
-10.7922
 30
0.0
 10
9.2609
 20
-10.7922
 30
0.0
 10
9.0049
 20
-10.8892
 30
0.0
 10
8.869
 20
-10.9862
 30
0.0
 10
8.869
 20
-10.9862
 30
0.0
 10
8.869
 20
-10.9862
 30
0.0
 10
8.9621
 20
-11.2345
 30
0.0
 10
8.9621
 20
-11.2345
 30
0.0
 10
8.9621
 20
-11.2345
 30
0.0
 10
9.0709
 20
-11.157
 30
0.0
 10
9.2649
 20
-11.0676
 30
0.0
 10
9.4666
 20
-11.0676
 30
0.0
 10
9.4666
 20
-11.0676
 30
0.0
 10
9.7809
 20
-11.0676
 30
0.0
 10
9.9091
 20
-11.2462
 30
0.0
 10
9.9091
 20
-11.448
 30
0.0
 10
9.9091
 20
-11.448
 30
0.0
 10
9.9091
 20
-11.7467
 30
0.0
 10
9.5947
 20
-11.8748
 30
0.0
 10
9.3463
 20
-11.8748
 30
0.0
 10
9.3463
 20
-11.8748
 30
0.0
 10
9.3463
 20
-11.8748
 30
0.0
 10
9.1562
 20
-11.8748
 30
0.0
 10
9.1562
 20
-11.8748
 30
0.0
 10
9.1562
 20
-11.8748
 30
0.0
 10
9.1562
 20
-11.8748
 30
0.0
 10
9.1562
 20
-12.131
 30
0.0
 10
9.1562
 20
-12.131
 30
0.0
 10
9.1562
 20
-12.131
 30
0.0
 10
9.1562
 20
-12.131
 30
0.0
 10
9.3463
 20
-12.131
 30
0.0
 10
9.3463
 20
-12.131
 30
0.0
 10
9.3463
 20
-12.131
 30
0.0
 10
9.6763
 20
-12.131
 30
0.0
 10
9.9944
 20
-12.2823
 30
0.0
 10
9.9982
 20
-12.6354
 30
0.0
 10
9.9982
 20
-12.6354
 30
0.0
 10
10.0022
 20
-12.8489
 30
0.0
 10
9.8625
 20
-13.1244
 30
0.0
 10
9.4278
 20
-13.1244
 30
0.0
 10
9.4278
 20
-13.1244
 30
0.0
 10
9.1872
 20
-13.1244
 30
0.0
 10
8.9661
 20
-13.0274
 30
0.0
 10
8.869
 20
-12.9691
 30
0.0
 10
8.869
 20
-12.9691
 30
0.0
 10
8.869
 20
-12.9691
 30
0.0
 10
8.7759
 20
-13.229
 30
0.0
 10
8.7759
 20
-13.229
 30
0.0
  0
SPLINE
  5
5F
330
1F
100
AcDbEntity
  8
Vrstva 1
 62
   250
100
AcDbSpline
210
0.0
220
0.0
230
1.0
 70
    11
 71
     3
 72
    64
 73
    60
 74
     0
 42
0.0000000001
 43
0.0000000001
 40
0.0
 40
0.0
 40
0.0
 40
0.0
 40
0.0625
 40
0.0625
 40
0.0625
 40
0.0625
 40
0.125
 40
0.125
 40
0.125
 40
0.125
 40
0.1875
 40
0.1875
 40
0.1875
 40
0.1875
 40
0.25
 40
0.25
 40
0.25
 40
0.25
 40
0.3125
 40
0.3125
 40
0.3125
 40
0.3125
 40
0.375
 40
0.375
 40
0.375
 40
0.375
 40
0.4375
 40
0.4375
 40
0.4375
 40
0.4375
 40
0.5
 40
0.5
 40
0.5
 40
0.5
 40
0.5625
 40
0.5625
 40
0.5625
 40
0.5625
 40
0.625
 40
0.625
 40
0.625
 40
0.625
 40
0.6875
 40
0.6875
 40
0.6875
 40
0.6875
 40
0.75
 40
0.75
 40
0.75
 40
0.75
 40
0.8125
 40
0.8125
 40
0.8125
 40
0.8125
 40
0.875
 40
0.875
 40
0.875
 40
0.875
 40
1.0
 40
1.0
 40
1.0
 40
1.0
 10
12.284
 20
-10.8349
 30
0.0
 10
12.284
 20
-10.8349
 30
0.0
 10
11.077
 20
-10.8349
 30
0.0
 10
11.077
 20
-10.8349
 30
0.0
 10
11.077
 20
-10.8349
 30
0.0
 10
11.077
 20
-10.8349
 30
0.0
 10
10.9141
 20
-12.0455
 30
0.0
 10
10.9141
 20
-12.0455
 30
0.0
 10
10.9141
 20
-12.0455
 30
0.0
 10
11.0073
 20
-12.0301
 30
0.0
 10
11.1198
 20
-12.0183
 30
0.0
 10
11.2673
 20
-12.0183
 30
0.0
 10
11.2673
 20
-12.0183
 30
0.0
 10
11.7678
 20
-12.0183
 30
0.0
 10
11.9889
 20
-12.2513
 30
0.0
 10
11.9889
 20
-12.5733
 30
0.0
 10
11.9889
 20
-12.5733
 30
0.0
 10
11.9928
 20
-12.9148
 30
0.0
 10
11.7134
 20
-13.1244
 30
0.0
 10
11.3952
 20
-13.1244
 30
0.0
 10
11.3952
 20
-13.1244
 30
0.0
 10
11.1624
 20
-13.1244
 30
0.0
 10
10.9567
 20
-13.0468
 30
0.0
 10
10.852
 20
-12.9847
 30
0.0
 10
10.852
 20
-12.9847
 30
0.0
 10
10.852
 20
-12.9847
 30
0.0
 10
10.7667
 20
-13.2447
 30
0.0
 10
10.7667
 20
-13.2447
 30
0.0
 10
10.7667
 20
-13.2447
 30
0.0
 10
10.8908
 20
-13.3223
 30
0.0
 10
11.1198
 20
-13.3999
 30
0.0
 10
11.3952
 20
-13.3999
 30
0.0
 10
11.3952
 20
-13.3999
 30
0.0
 10
11.9424
 20
-13.3999
 30
0.0
 10
12.3343
 20
-13.0312
 30
0.0
 10
12.3343
 20
-12.5383
 30
0.0
 10
12.3343
 20
-12.5383
 30
0.0
 10
12.3343
 20
-12.2202
 30
0.0
 10
12.1714
 20
-11.9989
 30
0.0
 10
11.9734
 20
-11.8904
 30
0.0
 10
11.9734
 20
-11.8904
 30
0.0
 10
11.8183
 20
-11.7972
 30
0.0
 10
11.6281
 20
-11.7546
 30
0.0
 10
11.4301
 20
-11.7546
 30
0.0
 10
11.4301
 20
-11.7546
 30
0.0
 10
11.337
 20
-11.7546
 30
0.0
 10
11.2827
 20
-11.7623
 30
0.0
 10
11.2245
 20
-11.7701
 30
0.0
 10
11.2245
 20
-11.7701
 30
0.0
 10
11.2245
 20
-11.7701
 30
0.0
 10
11.3215
 20
-11.122
 30
0.0
 10
11.3215
 20
-11.122
 30
0.0
 10
11.3215
 20
-11.122
 30
0.0
 10
11.3215
 20
-11.122
 30
0.0
 10
12.284
 20
-11.122
 30
0.0
 10
12.284
 20
-11.122
 30
0.0
 10
12.284
 20
-11.122
 30
0.0
 10
12.284
 20
-11.122
 30
0.0
 10
12.284
 20
-10.8349
 30
0.0
 10
12.284
 20
-10.8349
 30
0.0
  0
SPLINE
  5
60
330
1F
100
AcDbEntity
  8
Vrstva 1
 62
   250
100
AcDbSpline
210
0.0
220
0.0
230
1.0
 70
    11
 71
     3
 72
    20
 73
    16
 74
     0
 42
0.0000000001
 43
0.0000000001
 40
0.0
 40
0.0
 40
0.0
 40
0.0
 40
0.2
 40
0.2
 40
0.2
 40
0.2
 40
0.4
 40
0.4
 40
0.4
 40
0.4
 40
0.6
 40
0.6
 40
0.6
 40
0.6
 40
1.0
 40
1.0
 40
1.0
 40
1.0
 10
4.7983
 20
-12.2551
 30
0.0
 10
4.7983
 20
-12.2551
 30
0.0
 10
4.7983
 20
-12.488
 30
0.0
 10
4.7983
 20
-12.488
 30
0.0
 10
4.7983
 20
-12.488
 30
0.0
 10
4.7983
 20
-12.488
 30
0.0
 10
6.5057
 20
-12.488
 30
0.0
 10
6.5057
 20
-12.488
 30
0.0
 10
6.5057
 20
-12.488
 30
0.0
 10
6.5057
 20
-12.488
 30
0.0
 10
6.5057
 20
-12.2551
 30
0.0
 10
6.5057
 20
-12.2551
 30
0.0
 10
6.5057
 20
-12.2551
 30
0.0
 10
6.5057
 20
-12.2551
 30
0.0
 10
4.7983
 20
-12.2551
 30
0.0
 10
4.7983
 20
-12.2551
 30
0.0
  0
SPLINE
  5
61
330
1F
100
AcDbEntity
  8
Vrstva 1
 62
   250
370
     9
100
AcDbSpline
210
0.0
220
0.0
230
1.0
 70
    11
 71
     3
 72
    16
 73
    12
 74
     0
 42
0.0000000001
 43
0.0000000001
 40
0.0
 40
0.0
 40
0.0
 40
0.0
 40
0.25
 40
0.25
 40
0.25
 40
0.25
 40
0.5
 40
0.5
 40
0.5
 40
0.5
 40
1.0
 40
1.0
 40
1.0
 40
1.0
 10
40.4237
 20
-14.3248
 30
0.0
 10
40.4237
 20
-14.3248
 30
0.0
 10
41.6965
 20
-13.8815
 30
0.0
 10
41.6965
 20
-13.8815
 30
0.0
 10
41.6965
 20
-13.8815
 30
0.0
 10
41.6965
 20
-13.8815
 30
0.0
 10
40.4237
 20
-13.4381
 30
0.0
 10
40.4237
 20
-13.4381
 30
0.0
 10
40.4237
 20
-13.4381
 30
0.0
 10
40.4237
 20
-13.4381
 30
0.0
 10
40.4237
 20
-14.3248
 30
0.0
 10
40.4237
 20
-14.3248
 30
0.0
  0
SPLINE
  5
62
330
1F
100
AcDbEntity
  8
Vrstva 1
 62
   250
370
     9
100
AcDbSpline
210
0.0
220
0.0
230
1.0
 70
    11
 71
     3
 72
    16
 73
    12
 74
     0
 42
0.0000000001
 43
0.0000000001
 40
0.0
 40
0.0
 40
0.0
 40
0.0
 40
0.25
 40
0.25
 40
0.25
 40
0.25
 40
0.5
 40
0.5
 40
0.5
 40
0.5
 40
1.0
 40
1.0
 40
1.0
 40
1.0
 10
34.4967
 20
-4.5446
 30
0.0
 10
34.4967
 20
-4.5446
 30
0.0
 10
34.0532
 20
-3.2719
 30
0.0
 10
34.0532
 20
-3.2719
 30
0.0
 10
34.0532
 20
-3.2719
 30
0.0
 10
34.0532
 20
-3.2719
 30
0.0
 10
33.6098
 20
-4.5446
 30
0.0
 10
33.6098
 20
-4.5446
 30
0.0
 10
33.6098
 20
-4.5446
 30
0.0
 10
33.6098
 20
-4.5446
 30
0.0
 10
34.4967
 20
-4.5446
 30
0.0
 10
34.4967
 20
-4.5446
 30
0.0
  0
SPLINE
  5
63
330
1F
100
AcDbEntity
  8
Vrstva 1
 62
   250
370
     9
100
AcDbSpline
210
0.0
220
0.0
230
1.0
 70
    11
 71
     3
 72
    16
 73
    12
 74
     0
 42
0.0000000001
 43
0.0000000001
 40
0.0
 40
0.0
 40
0.0
 40
0.0
 40
0.25
 40
0.25
 40
0.25
 40
0.25
 40
0.5
 40
0.5
 40
0.5
 40
0.5
 40
1.0
 40
1.0
 40
1.0
 40
1.0
 10
-15.2669
 20
-4.3044
 30
0.0
 10
-15.2669
 20
-4.3044
 30
0.0
 10
-15.7102
 20
-3.0315
 30
0.0
 10
-15.7102
 20
-3.0315
 30
0.0
 10
-15.7102
 20
-3.0315
 30
0.0
 10
-15.7102
 20
-3.0315
 30
0.0
 10
-16.1536
 20
-4.3044
 30
0.0
 10
-16.1536
 20
-4.3044
 30
0.0
 10
-16.1536
 20
-4.3044
 30
0.0
 10
-16.1536
 20
-4.3044
 30
0.0
 10
-15.2669
 20
-4.3044
 30
0.0
 10
-15.2669
 20
-4.3044
 30
0.0
  0
SPLINE
  5
64
330
1F
100
AcDbEntity
  8
Vrstva 1
 62
   250
370
     9
100
AcDbSpline
210
0.0
220
0.0
230
1.0
 70
    11
 71
     3
 72
    16
 73
    12
 74
     0
 42
0.0000000001
 43
0.0000000001
 40
0.0
 40
0.0
 40
0.0
 40
0.0
 40
0.25
 40
0.25
 40
0.25
 40
0.25
 40
0.5
 40
0.5
 40
0.5
 40
0.5
 40
1.0
 40
1.0
 40
1.0
 40
1.0
 10
33.5684
 20
11.9597
 30
0.0
 10
33.5684
 20
11.9597
 30
0.0
 10
34.0118
 20
10.6868
 30
0.0
 10
34.0118
 20
10.6868
 30
0.0
 10
34.0118
 20
10.6868
 30
0.0
 10
34.0118
 20
10.6868
 30
0.0
 10
34.4551
 20
11.9597
 30
0.0
 10
34.4551
 20
11.9597
 30
0.0
 10
34.4551
 20
11.9597
 30
0.0
 10
34.4551
 20
11.9597
 30
0.0
 10
33.5684
 20
11.9597
 30
0.0
 10
33.5684
 20
11.9597
 30
0.0
  0
SPLINE
  5
65
330
1F
100
AcDbEntity
  8
Vrstva 1
 62
   250
370
     9
100
AcDbSpline
210
0.0
220
0.0
230
1.0
 70
    11
 71
     3
 72
    16
 73
    12
 74
     0
 42
0.0000000001
 43
0.0000000001
 40
0.0
 40
0.0
 40
0.0
 40
0.0
 40
0.25
 40
0.25
 40
0.25
 40
0.25
 40
0.5
 40
0.5
 40
0.5
 40
0.5
 40
1.0
 40
1.0
 40
1.0
 40
1.0
 10
-16.1841
 20
11.5045
 30
0.0
 10
-16.1841
 20
11.5045
 30
0.0
 10
-15.7406
 20
10.2317
 30
0.0
 10
-15.7406
 20
10.2317
 30
0.0
 10
-15.7406
 20
10.2317
 30
0.0
 10
-15.7406
 20
10.2317
 30
0.0
 10
-15.2972
 20
11.5045
 30
0.0
 10
-15.2972
 20
11.5045
 30
0.0
 10
-15.2972
 20
11.5045
 30
0.0
 10
-15.2972
 20
11.5045
 30
0.0
 10
-16.1841
 20
11.5045
 30
0.0
 10
-16.1841
 20
11.5045
 30
0.0
  0
SPLINE
  5
66
330
1F
100
AcDbEntity
  8
Vrstva 1
 62
   250
370
     9
100
AcDbSpline
210
0.0
220
0.0
230
1.0
 70
    11
 71
     3
 72
    16
 73
    12
 74
     0
 42
0.0000000001
 43
0.0000000001
 40
0.0
 40
0.0
 40
0.0
 40
0.0
 40
0.25
 40
0.25
 40
0.25
 40
0.25
 40
0.5
 40
0.5
 40
0.5
 40
0.5
 40
1.0
 40
1.0
 40
1.0
 40
1.0
 10
-40.7708
 20
-14.2833
 30
0.0
 10
-40.7708
 20
-14.2833
 30
0.0
 10
-42.0437
 20
-13.8398
 30
0.0
 10
-42.0437
 20
-13.8398
 30
0.0
 10
-42.0437
 20
-13.8398
 30
0.0
 10
-42.0437
 20
-13.8398
 30
0.0
 10
-40.7708
 20
-13.3965
 30
0.0
 10
-40.7708
 20
-13.3965
 30
0.0
 10
-40.7708
 20
-13.3965
 30
0.0
 10
-40.7708
 20
-13.3965
 30
0.0
 10
-40.7708
 20
-14.2833
 30
0.0
 10
-40.7708
 20
-14.2833
 30
0.0
  0
SPLINE
  5
67
330
1F
100
AcDbEntity
  8
Vrstva 1
 62
   250
370
    15
100
AcDbSpline
210
0.0
220
0.0
230
1.0
 70
    27
 71
     3
 72
    12
 73
     8
 74
     0
 42
0.0000000001
 43
0.0000000001
 40
0.0
 40
0.0
 40
0.0
 40
0.0
 40
0.3333333333333333
 40
0.3333333333333333
 40
0.3333333333333333
 40
0.3333333333333333
 40
1.0
 40
1.0
 40
1.0
 40
1.0
 10
-31.3239
 20
-11.8544
 30
0.0
 10
-31.3239
 20
-11.8544
 30
0.0
 10
-31.3239
 20
14.4693
 30
0.0
 10
-31.3239
 20
14.4693
 30
0.0
 10
-31.3239
 20
14.4693
 30
0.0
 10
-31.3239
 20
14.4693
 30
0.0
 10
-31.3239
 20
-11.8544
 30
0.0
 10
-31.3239
 20
-11.8544
 30
0.0
  0
SPLINE
  5
68
330
1F
100
AcDbEntity
  8
Vrstva 1
 62
   250
100
AcDbSpline
210
0.0
220
0.0
230
1.0
 70
    11
 71
     3
 72
    52
 73
    48
 74
     0
 42
0.0000000001
 43
0.0000000001
 40
0.0
 40
0.0
 40
0.0
 40
0.0
 40
0.0769230769230769
 40
0.0769230769230769
 40
0.0769230769230769
 40
0.0769230769230769
 40
0.1538461538461539
 40
0.1538461538461539
 40
0.1538461538461539
 40
0.1538461538461539
 40
0.2307692307692308
 40
0.2307692307692308
 40
0.2307692307692308
 40
0.2307692307692308
 40
0.3076923076923077
 40
0.3076923076923077
 40
0.3076923076923077
 40
0.3076923076923077
 40
0.3846153846153846
 40
0.3846153846153846
 40
0.3846153846153846
 40
0.3846153846153846
 40
0.4615384615384616
 40
0.4615384615384616
 40
0.4615384615384616
 40
0.4615384615384616
 40
0.5384615384615384
 40
0.5384615384615384
 40
0.5384615384615384
 40
0.5384615384615384
 40
0.6153846153846154
 40
0.6153846153846154
 40
0.6153846153846154
 40
0.6153846153846154
 40
0.6923076923076923
 40
0.6923076923076923
 40
0.6923076923076923
 40
0.6923076923076923
 40
0.7692307692307693
 40
0.7692307692307693
 40
0.7692307692307693
 40
0.7692307692307693
 40
0.8461538461538461
 40
0.8461538461538461
 40
0.8461538461538461
 40
0.8461538461538461
 40
1.0
 40
1.0
 40
1.0
 40
1.0
 10
-32.1451
 20
-12.7065
 30
0.0
 10
-32.1451
 20
-12.7065
 30
0.0
 10
-32.4769
 20
-12.4599
 30
0.0
 10
-32.4769
 20
-12.4599
 30
0.0
 10
-32.4769
 20
-12.4599
 30
0.0
 10
-32.3398
 20
-12.2746
 30
0.0
 10
-32.2647
 20
-12.0459
 30
0.0
 10
-32.2634
 20
-11.8014
 30
0.0
 10
-32.2634
 20
-11.8014
 30
0.0
 10
-32.2588
 20
-11.1734
 30
0.0
 10
-32.717
 20
-10.6075
 30
0.0
 10
-33.629
 20
-10.6015
 30
0.0
 10
-33.629
 20
-10.6015
 30
0.0
 10
-34.0131
 20
-10.5991
 30
0.0
 10
-34.3555
 20
-10.7171
 30
0.0
 10
-34.5936
 20
-10.933
 30
0.0
 10
-34.5936
 20
-10.933
 30
0.0
 10
-34.5936
 20
-10.933
 30
0.0
 10
-34.9252
 20
-10.6901
 30
0.0
 10
-34.9252
 20
-10.6901
 30
0.0
 10
-34.9252
 20
-10.6901
 30
0.0
 10
-34.9252
 20
-10.6901
 30
0.0
 10
-35.0668
 20
-10.8946
 30
0.0
 10
-35.0668
 20
-10.8946
 30
0.0
 10
-35.0668
 20
-10.8946
 30
0.0
 10
-35.0668
 20
-10.8946
 30
0.0
 10
-34.754
 20
-11.1259
 30
0.0
 10
-34.754
 20
-11.1259
 30
0.0
 10
-34.754
 20
-11.1259
 30
0.0
 10
-34.8908
 20
-11.3111
 30
0.0
 10
-34.9621
 20
-11.5359
 30
0.0
 10
-34.9634
 20
-11.7765
 30
0.0
 10
-34.9634
 20
-11.7765
 30
0.0
 10
-34.9681
 20
-12.4633
 30
0.0
 10
-34.4322
 20
-12.9869
 30
0.0
 10
-33.6057
 20
-12.9919
 30
0.0
 10
-33.6057
 20
-12.9919
 30
0.0
 10
-33.2137
 20
-12.9945
 30
0.0
 10
-32.8713
 20
-12.8687
 30
0.0
 10
-32.6331
 20
-12.6526
 30
0.0
 10
-32.6331
 20
-12.6526
 30
0.0
 10
-32.6331
 20
-12.6526
 30
0.0
 10
-32.2976
 20
-12.8956
 30
0.0
 10
-32.2976
 20
-12.8956
 30
0.0
 10
-32.2976
 20
-12.8956
 30
0.0
 10
-32.2976
 20
-12.8956
 30
0.0
 10
-32.1451
 20
-12.7065
 30
0.0
 10
-32.1451
 20
-12.7065
 30
0.0
  0
SPLINE
  5
69
330
1F
100
AcDbEntity
  8
Vrstva 1
 62
   250
100
AcDbSpline
210
0.0
220
0.0
230
1.0
 70
    11
 71
     3
 72
    28
 73
    24
 74
     0
 42
0.0000000001
 43
0.0000000001
 40
0.0
 40
0.0
 40
0.0
 40
0.0
 40
0.1428571428571428
 40
0.1428571428571428
 40
0.1428571428571428
 40
0.1428571428571428
 40
0.2857142857142857
 40
0.2857142857142857
 40
0.2857142857142857
 40
0.2857142857142857
 40
0.4285714285714285
 40
0.4285714285714285
 40
0.4285714285714285
 40
0.4285714285714285
 40
0.5714285714285714
 40
0.5714285714285714
 40
0.5714285714285714
 40
0.5714285714285714
 40
0.7142857142857143
 40
0.7142857142857143
 40
0.7142857142857143
 40
0.7142857142857143
 40
1.0
 40
1.0
 40
1.0
 40
1.0
 10
-32.9229
 20
-12.4534
 30
0.0
 10
-32.9229
 20
-12.4534
 30
0.0
 10
-32.9229
 20
-12.4534
 30
0.0
 10
-32.9229
 20
-12.4534
 30
0.0
 10
-32.9229
 20
-12.4534
 30
0.0
 10
-32.9229
 20
-12.4534
 30
0.0
 10
-32.9192
 20
-12.4612
 30
0.0
 10
-32.9192
 20
-12.4612
 30
0.0
 10
-32.9192
 20
-12.4612
 30
0.0
 10
-33.1181
 20
-12.5763
 30
0.0
 10
-33.3316
 20
-12.6487
 30
0.0
 10
-33.6189
 20
-12.6466
 30
0.0
 10
-33.6189
 20
-12.6466
 30
0.0
 10
-34.1698
 20
-12.643
 30
0.0
 10
-34.6954
 20
-12.3523
 30
0.0
 10
-34.6917
 20
-11.7857
 30
0.0
 10
-34.6917
 20
-11.7857
 30
0.0
 10
-34.6905
 20
-11.5877
 30
0.0
 10
-34.6197
 20
-11.4258
 30
0.0
 10
-34.5067
 20
-11.2941
 30
0.0
 10
-34.5067
 20
-11.2941
 30
0.0
 10
-34.5067
 20
-11.2941
 30
0.0
 10
-32.9229
 20
-12.4534
 30
0.0
 10
-32.9229
 20
-12.4534
 30
0.0
  0
SPLINE
  5
6A
330
1F
100
AcDbEntity
  8
Vrstva 1
 62
   250
100
AcDbSpline
210
0.0
220
0.0
230
1.0
 70
    11
 71
     3
 72
    28
 73
    24
 74
     0
 42
0.0000000001
 43
0.0000000001
 40
0.0
 40
0.0
 40
0.0
 40
0.0
 40
0.1428571428571428
 40
0.1428571428571428
 40
0.1428571428571428
 40
0.1428571428571428
 40
0.2857142857142857
 40
0.2857142857142857
 40
0.2857142857142857
 40
0.2857142857142857
 40
0.4285714285714285
 40
0.4285714285714285
 40
0.4285714285714285
 40
0.4285714285714285
 40
0.5714285714285714
 40
0.5714285714285714
 40
0.5714285714285714
 40
0.5714285714285714
 40
0.7142857142857143
 40
0.7142857142857143
 40
0.7142857142857143
 40
0.7142857142857143
 40
1.0
 40
1.0
 40
1.0
 40
1.0
 10
-34.2999
 20
-11.1363
 30
0.0
 10
-34.2999
 20
-11.1363
 30
0.0
 10
-34.2999
 20
-11.1363
 30
0.0
 10
-34.2999
 20
-11.1363
 30
0.0
 10
-34.2999
 20
-11.1363
 30
0.0
 10
-34.2999
 20
-11.1363
 30
0.0
 10
-34.2998
 20
-11.1246
 30
0.0
 10
-34.2998
 20
-11.1246
 30
0.0
 10
-34.2998
 20
-11.1246
 30
0.0
 10
-34.0775
 20
-10.9908
 30
0.0
 10
-33.8408
 20
-10.9456
 30
0.0
 10
-33.6195
 20
-10.947
 30
0.0
 10
-33.6195
 20
-10.947
 30
0.0
 10
-33.0298
 20
-10.9506
 30
0.0
 10
-32.5315
 20
-11.2605
 30
0.0
 10
-32.535
 20
-11.8039
 30
0.0
 10
-32.535
 20
-11.8039
 30
0.0
 10
-32.5363
 20
-12.0173
 30
0.0
 10
-32.6034
 20
-12.1645
 30
0.0
 10
-32.724
 20
-12.2916
 30
0.0
 10
-32.724
 20
-12.2916
 30
0.0
 10
-32.724
 20
-12.2916
 30
0.0
 10
-34.2999
 20
-11.1363
 30
0.0
 10
-34.2999
 20
-11.1363
 30
0.0
  0
SPLINE
  5
6B
330
1F
100
AcDbEntity
  8
Vrstva 1
 62
   250
100
AcDbSpline
210
0.0
220
0.0
230
1.0
 70
    11
 71
     3
 72
    64
 73
    60
 74
     0
 42
0.0000000001
 43
0.0000000001
 40
0.0
 40
0.0
 40
0.0
 40
0.0
 40
0.0625
 40
0.0625
 40
0.0625
 40
0.0625
 40
0.125
 40
0.125
 40
0.125
 40
0.125
 40
0.1875
 40
0.1875
 40
0.1875
 40
0.1875
 40
0.25
 40
0.25
 40
0.25
 40
0.25
 40
0.3125
 40
0.3125
 40
0.3125
 40
0.3125
 40
0.375
 40
0.375
 40
0.375
 40
0.375
 40
0.4375
 40
0.4375
 40
0.4375
 40
0.4375
 40
0.5
 40
0.5
 40
0.5
 40
0.5
 40
0.5625
 40
0.5625
 40
0.5625
 40
0.5625
 40
0.625
 40
0.625
 40
0.625
 40
0.625
 40
0.6875
 40
0.6875
 40
0.6875
 40
0.6875
 40
0.75
 40
0.75
 40
0.75
 40
0.75
 40
0.8125
 40
0.8125
 40
0.8125
 40
0.8125
 40
0.875
 40
0.875
 40
0.875
 40
0.875
 40
1.0
 40
1.0
 40
1.0
 40
1.0
 10
-34.818
 20
-8.7701
 30
0.0
 10
-34.818
 20
-8.7701
 30
0.0
 10
-34.8254
 20
-9.9763
 30
0.0
 10
-34.8254
 20
-9.9763
 30
0.0
 10
-34.8254
 20
-9.9763
 30
0.0
 10
-34.8254
 20
-9.9763
 30
0.0
 10
-33.6159
 20
-10.1475
 30
0.0
 10
-33.6159
 20
-10.1475
 30
0.0
 10
-33.6159
 20
-10.1475
 30
0.0
 10
-33.631
 20
-10.0543
 30
0.0
 10
-33.6418
 20
-9.9418
 30
0.0
 10
-33.6407
 20
-9.7943
 30
0.0
 10
-33.6407
 20
-9.7943
 30
0.0
 10
-33.6378
 20
-9.2937
 30
0.0
 10
-33.4031
 20
-9.0739
 30
0.0
 10
-33.0811
 20
-9.0761
 30
0.0
 10
-33.0811
 20
-9.0761
 30
0.0
 10
-32.7396
 20
-9.0746
 30
0.0
 10
-32.5321
 20
-9.3552
 30
0.0
 10
-32.5344
 20
-9.6734
 30
0.0
 10
-32.5344
 20
-9.6734
 30
0.0
 10
-32.5358
 20
-9.9063
 30
0.0
 10
-32.6145
 20
-10.1111
 30
0.0
 10
-32.6777
 20
-10.2157
 30
0.0
 10
-32.6777
 20
-10.2157
 30
0.0
 10
-32.6777
 20
-10.2157
 30
0.0
 10
-32.4179
 20
-10.3025
 30
0.0
 10
-32.4179
 20
-10.3025
 30
0.0
 10
-32.4179
 20
-10.3025
 30
0.0
 10
-32.3392
 20
-10.1791
 30
0.0
 10
-32.2604
 20
-9.9504
 30
0.0
 10
-32.2588
 20
-9.675
 30
0.0
 10
-32.2588
 20
-9.675
 30
0.0
 10
-32.2552
 20
-9.1278
 30
0.0
 10
-32.6215
 20
-8.7335
 30
0.0
 10
-33.1143
 20
-8.7307
 30
0.0
 10
-33.1143
 20
-8.7307
 30
0.0
 10
-33.4318
 20
-8.7283
 30
0.0
 10
-33.6541
 20
-8.8902
 30
0.0
 10
-33.764
 20
-9.087
 30
0.0
 10
-33.764
 20
-9.087
 30
0.0
 10
-33.8583
 20
-9.2418
 30
0.0
 10
-33.9023
 20
-9.4313
 30
0.0
 10
-33.9035
 20
-9.6292
 30
0.0
 10
-33.9035
 20
-9.6292
 30
0.0
 10
-33.9043
 20
-9.7224
 30
0.0
 10
-33.8967
 20
-9.7767
 30
0.0
 10
-33.8892
 20
-9.8356
 30
0.0
 10
-33.8892
 20
-9.8356
 30
0.0
 10
-33.8892
 20
-9.8356
 30
0.0
 10
-34.5369
 20
-9.734
 30
0.0
 10
-34.5369
 20
-9.734
 30
0.0
 10
-34.5369
 20
-9.734
 30
0.0
 10
-34.5369
 20
-9.734
 30
0.0
 10
-34.5308
 20
-8.7717
 30
0.0
 10
-34.5308
 20
-8.7717
 30
0.0
 10
-34.5308
 20
-8.7717
 30
0.0
 10
-34.5308
 20
-8.7717
 30
0.0
 10
-34.818
 20
-8.7701
 30
0.0
 10
-34.818
 20
-8.7701
 30
0.0
  0
SPLINE
  5
6C
330
1F
100
AcDbEntity
  8
Vrstva 1
 62
   250
100
AcDbSpline
210
0.0
220
0.0
230
1.0
 70
    11
 71
     3
 72
    24
 73
    20
 74
     0
 42
0.0000000001
 43
0.0000000001
 40
0.0
 40
0.0
 40
0.0
 40
0.0
 40
0.1666666666666667
 40
0.1666666666666667
 40
0.1666666666666667
 40
0.1666666666666667
 40
0.3333333333333333
 40
0.3333333333333333
 40
0.3333333333333333
 40
0.3333333333333333
 40
0.5
 40
0.5
 40
0.5
 40
0.5
 40
0.6666666666666666
 40
0.6666666666666666
 40
0.6666666666666666
 40
0.6666666666666666
 40
1.0
 40
1.0
 40
1.0
 40
1.0
 10
-32.2516
 20
-7.494
 30
0.0
 10
-32.248
 20
-6.9431
 30
0.0
 10
-32.7192
 20
-6.6183
 30
0.0
 10
-33.5768
 20
-6.6125
 30
0.0
 10
-33.5768
 20
-6.6125
 30
0.0
 10
-34.3801
 20
-6.6074
 30
0.0
 10
-34.855
 20
-6.9106
 30
0.0
 10
-34.8586
 20
-7.4384
 30
0.0
 10
-34.8586
 20
-7.4384
 30
0.0
 10
-34.8621
 20
-7.9506
 30
0.0
 10
-34.4027
 20
-8.3225
 30
0.0
 10
-33.5529
 20
-8.3278
 30
0.0
 10
-33.5529
 20
-8.3278
 30
0.0
 10
-32.7184
 20
-8.3256
 30
0.0
 10
-32.2545
 20
-7.9908
 30
0.0
 10
-32.2516
 20
-7.498
 30
0.0
 10
-32.2516
 20
-7.498
 30
0.0
 10
-32.2516
 20
-7.498
 30
0.0
 10
-32.2516
 20
-7.494
 30
0.0
 10
-32.2516
 20
-7.494
 30
0.0
  0
SPLINE
  5
6D
330
1F
100
AcDbEntity
  8
Vrstva 1
 62
   250
100
AcDbSpline
210
0.0
220
0.0
230
1.0
 70
    11
 71
     3
 72
    28
 73
    24
 74
     0
 42
0.0000000001
 43
0.0000000001
 40
0.0
 40
0.0
 40
0.0
 40
0.0
 40
0.1428571428571428
 40
0.1428571428571428
 40
0.1428571428571428
 40
0.1428571428571428
 40
0.2857142857142857
 40
0.2857142857142857
 40
0.2857142857142857
 40
0.2857142857142857
 40
0.4285714285714285
 40
0.4285714285714285
 40
0.4285714285714285
 40
0.4285714285714285
 40
0.5714285714285714
 40
0.5714285714285714
 40
0.5714285714285714
 40
0.5714285714285714
 40
0.7142857142857143
 40
0.7142857142857143
 40
0.7142857142857143
 40
0.7142857142857143
 40
1.0
 40
1.0
 40
1.0
 40
1.0
 10
-32.5156
 20
-7.481
 30
0.0
 10
-32.5156
 20
-7.481
 30
0.0
 10
-32.5156
 20
-7.481
 30
0.0
 10
-32.5156
 20
-7.481
 30
0.0
 10
-32.5156
 20
-7.481
 30
0.0
 10
-32.517
 20
-7.7954
 30
0.0
 10
-32.9142
 20
-7.9947
 30
0.0
 10
-33.5699
 20
-7.9823
 30
0.0
 10
-33.5699
 20
-7.9823
 30
0.0
 10
-34.2025
 20
-7.9784
 30
0.0
 10
-34.5969
 20
-7.7742
 30
0.0
 10
-34.5948
 20
-7.4638
 30
0.0
 10
-34.5948
 20
-7.4638
 30
0.0
 10
-34.5925
 20
-7.1067
 30
0.0
 10
-34.1844
 20
-6.954
 30
0.0
 10
-33.5635
 20
-6.9579
 30
0.0
 10
-33.5635
 20
-6.9579
 30
0.0
 10
-32.9194
 20
-6.9624
 30
0.0
 10
-32.5132
 20
-7.1318
 30
0.0
 10
-32.5156
 20
-7.4771
 30
0.0
 10
-32.5156
 20
-7.4771
 30
0.0
 10
-32.5156
 20
-7.4771
 30
0.0
 10
-32.5156
 20
-7.481
 30
0.0
 10
-32.5156
 20
-7.481
 30
0.0
  0
SPLINE
  5
6E
330
1F
100
AcDbEntity
  8
Vrstva 1
 62
   250
370
     9
100
AcDbSpline
210
0.0
220
0.0
230
1.0
 70
    11
 71
     3
 72
    16
 73
    12
 74
     0
 42
0.0000000001
 43
0.0000000001
 40
0.0
 40
0.0
 40
0.0
 40
0.0
 40
0.25
 40
0.25
 40
0.25
 40
0.25
 40
0.5
 40
0.5
 40
0.5
 40
0.5
 40
1.0
 40
1.0
 40
1.0
 40
1.0
 10
-30.8551
 20
-6.7101
 30
0.0
 10
-30.8551
 20
-6.7101
 30
0.0
 10
-31.2985
 20
-5.4372
 30
0.0
 10
-31.2985
 20
-5.4372
 30
0.0
 10
-31.2985
 20
-5.4372
 30
0.0
 10
-31.2985
 20
-5.4372
 30
0.0
 10
-31.7419
 20
-6.7101
 30
0.0
 10
-31.7419
 20
-6.7101
 30
0.0
 10
-31.7419
 20
-6.7101
 30
0.0
 10
-31.7419
 20
-6.7101
 30
0.0
 10
-30.8551
 20
-6.7101
 30
0.0
 10
-30.8551
 20
-6.7101
 30
0.0
  0
SPLINE
  5
6F
330
1F
100
AcDbEntity
  8
Vrstva 1
 62
   250
370
     9
100
AcDbSpline
210
0.0
220
0.0
230
1.0
 70
    11
 71
     3
 72
    16
 73
    12
 74
     0
 42
0.0000000001
 43
0.0000000001
 40
0.0
 40
0.0
 40
0.0
 40
0.0
 40
0.25
 40
0.25
 40
0.25
 40
0.25
 40
0.5
 40
0.5
 40
0.5
 40
0.5
 40
1.0
 40
1.0
 40
1.0
 40
1.0
 10
-31.7834
 20
13.7942
 30
0.0
 10
-31.7834
 20
13.7942
 30
0.0
 10
-31.3401
 20
12.5214
 30
0.0
 10
-31.3401
 20
12.5214
 30
0.0
 10
-31.3401
 20
12.5214
 30
0.0
 10
-31.3401
 20
12.5214
 30
0.0
 10
-30.8967
 20
13.7942
 30
0.0
 10
-30.8967
 20
13.7942
 30
0.0
 10
-30.8967
 20
13.7942
 30
0.0
 10
-30.8967
 20
13.7942
 30
0.0
 10
-31.7834
 20
13.7942
 30
0.0
 10
-31.7834
 20
13.7942
 30
0.0
  0
SPLINE
  5
70
330
1F
100
AcDbEntity
  8
Vrstva 1
 62
   250
370
    18
100
AcDbSpline
210
0.0
220
0.0
230
1.0
 70
    24
 71
     3
 72
     8
 73
     4
 74
     0
 42
0.0000000001
 43
0.0000000001
 40
0.0
 40
0.0
 40
0.0
 40
0.0
 40
1.0
 40
1.0
 40
1.0
 40
1.0
 10
17.1665
 20
-2.3475
 30
0.0
 10
17.1665
 20
-2.3475
 30
0.0
 10
17.1665
 20
9.5596
 30
0.0
 10
17.1665
 20
9.5596
 30
0.0
  0
SPLINE
  5
71
330
1F
100
AcDbEntity
  8
Vrstva 1
 62
   250
370
    18
100
AcDbSpline
210
0.0
220
0.0
230
1.0
 70
    24
 71
     3
 72
     8
 73
     4
 74
     0
 42
0.0000000001
 43
0.0000000001
 40
0.0
 40
0.0
 40
0.0
 40
0.0
 40
1.0
 40
1.0
 40
1.0
 40
1.0
 10
16.8284
 20
-2.19
 30
0.0
 10
16.8284
 20
-2.19
 30
0.0
 10
16.8284
 20
9.4019
 30
0.0
 10
16.8284
 20
9.4019
 30
0.0
  0
SPLINE
  5
72
330
1F
100
AcDbEntity
  8
Vrstva 1
 62
   250
370
    18
100
AcDbSpline
210
0.0
220
0.0
230
1.0
 70
    24
 71
     3
 72
     8
 73
     4
 74
     0
 42
0.0000000001
 43
0.0000000001
 40
0.0
 40
0.0
 40
0.0
 40
0.0
 40
1.0
 40
1.0
 40
1.0
 40
1.0
 10
15.8558
 20
8.1126
 30
0.0
 10
15.8558
 20
8.1126
 30
0.0
 10
15.8558
 20
-0.9007
 30
0.0
 10
15.8558
 20
-0.9007
 30
0.0
  0
SPLINE
  5
73
330
1F
100
AcDbEntity
  8
Vrstva 1
 62
   250
370
    18
100
AcDbSpline
210
0.0
220
0.0
230
1.0
 70
    24
 71
     3
 72
     8
 73
     4
 74
     0
 42
0.0000000001
 43
0.0000000001
 40
0.0
 40
0.0
 40
0.0
 40
0.0
 40
1.0
 40
1.0
 40
1.0
 40
1.0
 10
14.1312
 20
-2.3475
 30
0.0
 10
14.1312
 20
-2.3475
 30
0.0
 10
14.1312
 20
9.5596
 30
0.0
 10
14.1312
 20
9.5596
 30
0.0
  0
SPLINE
  5
74
330
1F
100
AcDbEntity
  8
Vrstva 1
 62
   250
370
    18
100
AcDbSpline
210
0.0
220
0.0
230
1.0
 70
    24
 71
     3
 72
     8
 73
     4
 74
     0
 42
0.0000000001
 43
0.0000000001
 40
0.0
 40
0.0
 40
0.0
 40
0.0
 40
1.0
 40
1.0
 40
1.0
 40
1.0
 10
13.7933
 20
-2.19
 30
0.0
 10
13.7933
 20
-2.19
 30
0.0
 10
13.7933
 20
9.4019
 30
0.0
 10
13.7933
 20
9.4019
 30
0.0
  0
SPLINE
  5
75
330
1F
100
AcDbEntity
  8
Vrstva 1
 62
   250
370
    18
100
AcDbSpline
210
0.0
220
0.0
230
1.0
 70
    24
 71
     3
 72
     8
 73
     4
 74
     0
 42
0.0000000001
 43
0.0000000001
 40
0.0
 40
0.0
 40
0.0
 40
0.0
 40
1.0
 40
1.0
 40
1.0
 40
1.0
 10
12.8205
 20
8.1126
 30
0.0
 10
12.8205
 20
8.1126
 30
0.0
 10
12.8205
 20
-0.9007
 30
0.0
 10
12.8205
 20
-0.9007
 30
0.0
  0
SPLINE
  5
76
330
1F
100
AcDbEntity
  8
Vrstva 1
 62
   250
370
    18
100
AcDbSpline
210
0.0
220
0.0
230
1.0
 70
    24
 71
     3
 72
     8
 73
     4
 74
     0
 42
0.0000000001
 43
0.0000000001
 40
0.0
 40
0.0
 40
0.0
 40
0.0
 40
1.0
 40
1.0
 40
1.0
 40
1.0
 10
11.0961
 20
-2.3475
 30
0.0
 10
11.0961
 20
-2.3475
 30
0.0
 10
11.0961
 20
9.5596
 30
0.0
 10
11.0961
 20
9.5596
 30
0.0
  0
SPLINE
  5
77
330
1F
100
AcDbEntity
  8
Vrstva 1
 62
   250
370
    18
100
AcDbSpline
210
0.0
220
0.0
230
1.0
 70
    24
 71
     3
 72
     8
 73
     4
 74
     0
 42
0.0000000001
 43
0.0000000001
 40
0.0
 40
0.0
 40
0.0
 40
0.0
 40
1.0
 40
1.0
 40
1.0
 40
1.0
 10
10.7581
 20
-2.19
 30
0.0
 10
10.7581
 20
-2.19
 30
0.0
 10
10.7581
 20
9.4019
 30
0.0
 10
10.7581
 20
9.4019
 30
0.0
  0
SPLINE
  5
78
330
1F
100
AcDbEntity
  8
Vrstva 1
 62
   250
370
    18
100
AcDbSpline
210
0.0
220
0.0
230
1.0
 70
    24
 71
     3
 72
     8
 73
     4
 74
     0
 42
0.0000000001
 43
0.0000000001
 40
0.0
 40
0.0
 40
0.0
 40
0.0
 40
1.0
 40
1.0
 40
1.0
 40
1.0
 10
9.7853
 20
8.1126
 30
0.0
 10
9.7853
 20
8.1126
 30
0.0
 10
9.7853
 20
-0.9007
 30
0.0
 10
9.7853
 20
-0.9007
 30
0.0
  0
SPLINE
  5
79
330
1F
100
AcDbEntity
  8
Vrstva 1
 62
   250
370
    18
100
AcDbSpline
210
0.0
220
0.0
230
1.0
 70
    24
 71
     3
 72
     8
 73
     4
 74
     0
 42
0.0000000001
 43
0.0000000001
 40
0.0
 40
0.0
 40
0.0
 40
0.0
 40
1.0
 40
1.0
 40
1.0
 40
1.0
 10
8.0609
 20
-2.3475
 30
0.0
 10
8.0609
 20
-2.3475
 30
0.0
 10
8.0609
 20
9.5596
 30
0.0
 10
8.0609
 20
9.5596
 30
0.0
  0
SPLINE
  5
7A
330
1F
100
AcDbEntity
  8
Vrstva 1
 62
   250
370
    18
100
AcDbSpline
210
0.0
220
0.0
230
1.0
 70
    24
 71
     3
 72
     8
 73
     4
 74
     0
 42
0.0000000001
 43
0.0000000001
 40
0.0
 40
0.0
 40
0.0
 40
0.0
 40
1.0
 40
1.0
 40
1.0
 40
1.0
 10
7.7229
 20
-2.19
 30
0.0
 10
7.7229
 20
-2.19
 30
0.0
 10
7.7229
 20
9.4019
 30
0.0
 10
7.7229
 20
9.4019
 30
0.0
  0
SPLINE
  5
7B
330
1F
100
AcDbEntity
  8
Vrstva 1
 62
   250
370
    18
100
AcDbSpline
210
0.0
220
0.0
230
1.0
 70
    24
 71
     3
 72
     8
 73
     4
 74
     0
 42
0.0000000001
 43
0.0000000001
 40
0.0
 40
0.0
 40
0.0
 40
0.0
 40
1.0
 40
1.0
 40
1.0
 40
1.0
 10
17.1665
 20
9.5596
 30
0.0
 10
17.1665
 20
9.5596
 30
0.0
 10
18.891
 20
8.1126
 30
0.0
 10
18.891
 20
8.1126
 30
0.0
  0
SPLINE
  5
7C
330
1F
100
AcDbEntity
  8
Vrstva 1
 62
   250
370
    18
100
AcDbSpline
210
0.0
220
0.0
230
1.0
 70
    24
 71
     3
 72
     8
 73
     4
 74
     0
 42
0.0000000001
 43
0.0000000001
 40
0.0
 40
0.0
 40
0.0
 40
0.0
 40
1.0
 40
1.0
 40
1.0
 40
1.0
 10
14.1312
 20
9.5596
 30
0.0
 10
14.1312
 20
9.5596
 30
0.0
 10
15.8558
 20
8.1126
 30
0.0
 10
15.8558
 20
8.1126
 30
0.0
  0
SPLINE
  5
7D
330
1F
100
AcDbEntity
  8
Vrstva 1
 62
   250
370
    18
100
AcDbSpline
210
0.0
220
0.0
230
1.0
 70
    24
 71
     3
 72
     8
 73
     4
 74
     0
 42
0.0000000001
 43
0.0000000001
 40
0.0
 40
0.0
 40
0.0
 40
0.0
 40
1.0
 40
1.0
 40
1.0
 40
1.0
 10
18.891
 20
-0.9007
 30
0.0
 10
18.891
 20
-0.9007
 30
0.0
 10
17.1665
 20
-2.3475
 30
0.0
 10
17.1665
 20
-2.3475
 30
0.0
  0
SPLINE
  5
7E
330
1F
100
AcDbEntity
  8
Vrstva 1
 62
   250
370
    18
100
AcDbSpline
210
0.0
220
0.0
230
1.0
 70
    24
 71
     3
 72
     8
 73
     4
 74
     0
 42
0.0000000001
 43
0.0000000001
 40
0.0
 40
0.0
 40
0.0
 40
0.0
 40
1.0
 40
1.0
 40
1.0
 40
1.0
 10
15.8558
 20
-0.9007
 30
0.0
 10
15.8558
 20
-0.9007
 30
0.0
 10
14.1312
 20
-2.3475
 30
0.0
 10
14.1312
 20
-2.3475
 30
0.0
  0
SPLINE
  5
7F
330
1F
100
AcDbEntity
  8
Vrstva 1
 62
   250
370
    18
100
AcDbSpline
210
0.0
220
0.0
230
1.0
 70
    24
 71
     3
 72
     8
 73
     4
 74
     0
 42
0.0000000001
 43
0.0000000001
 40
0.0
 40
0.0
 40
0.0
 40
0.0
 40
1.0
 40
1.0
 40
1.0
 40
1.0
 10
6.75
 20
8.1126
 30
0.0
 10
6.75
 20
8.1126
 30
0.0
 10
6.75
 20
-0.9007
 30
0.0
 10
6.75
 20
-0.9007
 30
0.0
  0
SPLINE
  5
80
330
1F
100
AcDbEntity
  8
Vrstva 1
 62
   250
370
    18
100
AcDbSpline
210
0.0
220
0.0
230
1.0
 70
    24
 71
     3
 72
     8
 73
     4
 74
     0
 42
0.0000000001
 43
0.0000000001
 40
0.0
 40
0.0
 40
0.0
 40
0.0
 40
1.0
 40
1.0
 40
1.0
 40
1.0
 10
5.0257
 20
-2.3475
 30
0.0
 10
5.0257
 20
-2.3475
 30
0.0
 10
5.0257
 20
9.5596
 30
0.0
 10
5.0257
 20
9.5596
 30
0.0
  0
SPLINE
  5
81
330
1F
100
AcDbEntity
  8
Vrstva 1
 62
   250
370
    18
100
AcDbSpline
210
0.0
220
0.0
230
1.0
 70
    24
 71
     3
 72
     8
 73
     4
 74
     0
 42
0.0000000001
 43
0.0000000001
 40
0.0
 40
0.0
 40
0.0
 40
0.0
 40
1.0
 40
1.0
 40
1.0
 40
1.0
 10
4.6876
 20
-2.19
 30
0.0
 10
4.6876
 20
-2.19
 30
0.0
 10
4.6876
 20
9.4019
 30
0.0
 10
4.6876
 20
9.4019
 30
0.0
  0
SPLINE
  5
82
330
1F
100
AcDbEntity
  8
Vrstva 1
 62
   250
370
    18
100
AcDbSpline
210
0.0
220
0.0
230
1.0
 70
    24
 71
     3
 72
     8
 73
     4
 74
     0
 42
0.0000000001
 43
0.0000000001
 40
0.0
 40
0.0
 40
0.0
 40
0.0
 40
1.0
 40
1.0
 40
1.0
 40
1.0
 10
15.8558
 20
-0.9007
 30
0.0
 10
15.8558
 20
-0.9007
 30
0.0
 10
16.8284
 20
-2.1457
 30
0.0
 10
16.8284
 20
-2.1457
 30
0.0
  0
SPLINE
  5
83
330
1F
100
AcDbEntity
  8
Vrstva 1
 62
   250
370
    18
100
AcDbSpline
210
0.0
220
0.0
230
1.0
 70
    24
 71
     3
 72
     8
 73
     4
 74
     0
 42
0.0000000001
 43
0.0000000001
 40
0.0
 40
0.0
 40
0.0
 40
0.0
 40
1.0
 40
1.0
 40
1.0
 40
1.0
 10
12.8205
 20
-0.9007
 30
0.0
 10
12.8205
 20
-0.9007
 30
0.0
 10
13.7933
 20
-2.1457
 30
0.0
 10
13.7933
 20
-2.1457
 30
0.0
  0
SPLINE
  5
84
330
1F
100
AcDbEntity
  8
Vrstva 1
 62
   250
370
    18
100
AcDbSpline
210
0.0
220
0.0
230
1.0
 70
    24
 71
     3
 72
     8
 73
     4
 74
     0
 42
0.0000000001
 43
0.0000000001
 40
0.0
 40
0.0
 40
0.0
 40
0.0
 40
1.0
 40
1.0
 40
1.0
 40
1.0
 10
11.0961
 20
9.5596
 30
0.0
 10
11.0961
 20
9.5596
 30
0.0
 10
12.8205
 20
8.1126
 30
0.0
 10
12.8205
 20
8.1126
 30
0.0
  0
SPLINE
  5
85
330
1F
100
AcDbEntity
  8
Vrstva 1
 62
   250
370
    18
100
AcDbSpline
210
0.0
220
0.0
230
1.0
 70
    24
 71
     3
 72
     8
 73
     4
 74
     0
 42
0.0000000001
 43
0.0000000001
 40
0.0
 40
0.0
 40
0.0
 40
0.0
 40
1.0
 40
1.0
 40
1.0
 40
1.0
 10
8.0609
 20
9.5596
 30
0.0
 10
8.0609
 20
9.5596
 30
0.0
 10
9.7853
 20
8.1126
 30
0.0
 10
9.7853
 20
8.1126
 30
0.0
  0
SPLINE
  5
86
330
1F
100
AcDbEntity
  8
Vrstva 1
 62
   250
370
    18
100
AcDbSpline
210
0.0
220
0.0
230
1.0
 70
    24
 71
     3
 72
     8
 73
     4
 74
     0
 42
0.0000000001
 43
0.0000000001
 40
0.0
 40
0.0
 40
0.0
 40
0.0
 40
1.0
 40
1.0
 40
1.0
 40
1.0
 10
5.0257
 20
9.5596
 30
0.0
 10
5.0257
 20
9.5596
 30
0.0
 10
6.75
 20
8.1126
 30
0.0
 10
6.75
 20
8.1126
 30
0.0
  0
SPLINE
  5
87
330
1F
100
AcDbEntity
  8
Vrstva 1
 62
   250
370
    18
100
AcDbSpline
210
0.0
220
0.0
230
1.0
 70
    24
 71
     3
 72
     8
 73
     4
 74
     0
 42
0.0000000001
 43
0.0000000001
 40
0.0
 40
0.0
 40
0.0
 40
0.0
 40
1.0
 40
1.0
 40
1.0
 40
1.0
 10
12.8205
 20
-0.9007
 30
0.0
 10
12.8205
 20
-0.9007
 30
0.0
 10
11.0961
 20
-2.3475
 30
0.0
 10
11.0961
 20
-2.3475
 30
0.0
  0
SPLINE
  5
88
330
1F
100
AcDbEntity
  8
Vrstva 1
 62
   250
370
    18
100
AcDbSpline
210
0.0
220
0.0
230
1.0
 70
    24
 71
     3
 72
     8
 73
     4
 74
     0
 42
0.0000000001
 43
0.0000000001
 40
0.0
 40
0.0
 40
0.0
 40
0.0
 40
1.0
 40
1.0
 40
1.0
 40
1.0
 10
9.7853
 20
-0.9007
 30
0.0
 10
9.7853
 20
-0.9007
 30
0.0
 10
8.0609
 20
-2.3475
 30
0.0
 10
8.0609
 20
-2.3475
 30
0.0
  0
SPLINE
  5
89
330
1F
100
AcDbEntity
  8
Vrstva 1
 62
   250
370
    18
100
AcDbSpline
210
0.0
220
0.0
230
1.0
 70
    24
 71
     3
 72
     8
 73
     4
 74
     0
 42
0.0000000001
 43
0.0000000001
 40
0.0
 40
0.0
 40
0.0
 40
0.0
 40
1.0
 40
1.0
 40
1.0
 40
1.0
 10
6.75
 20
-0.9007
 30
0.0
 10
6.75
 20
-0.9007
 30
0.0
 10
5.0257
 20
-2.3475
 30
0.0
 10
5.0257
 20
-2.3475
 30
0.0
  0
SPLINE
  5
8A
330
1F
100
AcDbEntity
  8
Vrstva 1
 62
   250
370
    18
100
AcDbSpline
210
0.0
220
0.0
230
1.0
 70
    24
 71
     3
 72
     8
 73
     4
 74
     0
 42
0.0000000001
 43
0.0000000001
 40
0.0
 40
0.0
 40
0.0
 40
0.0
 40
1.0
 40
1.0
 40
1.0
 40
1.0
 10
16.8284
 20
9.3576
 30
0.0
 10
16.8284
 20
9.3576
 30
0.0
 10
15.8558
 20
8.1126
 30
0.0
 10
15.8558
 20
8.1126
 30
0.0
  0
SPLINE
  5
8B
330
1F
100
AcDbEntity
  8
Vrstva 1
 62
   250
370
    18
100
AcDbSpline
210
0.0
220
0.0
230
1.0
 70
    24
 71
     3
 72
     8
 73
     4
 74
     0
 42
0.0000000001
 43
0.0000000001
 40
0.0
 40
0.0
 40
0.0
 40
0.0
 40
1.0
 40
1.0
 40
1.0
 40
1.0
 10
13.7933
 20
9.3576
 30
0.0
 10
13.7933
 20
9.3576
 30
0.0
 10
12.8205
 20
8.1126
 30
0.0
 10
12.8205
 20
8.1126
 30
0.0
  0
SPLINE
  5
8C
330
1F
100
AcDbEntity
  8
Vrstva 1
 62
   250
370
    18
100
AcDbSpline
210
0.0
220
0.0
230
1.0
 70
    24
 71
     3
 72
     8
 73
     4
 74
     0
 42
0.0000000001
 43
0.0000000001
 40
0.0
 40
0.0
 40
0.0
 40
0.0
 40
1.0
 40
1.0
 40
1.0
 40
1.0
 10
1.9904
 20
-2.3475
 30
0.0
 10
1.9904
 20
-2.3475
 30
0.0
 10
1.9904
 20
9.5596
 30
0.0
 10
1.9904
 20
9.5596
 30
0.0
  0
SPLINE
  5
8D
330
1F
100
AcDbEntity
  8
Vrstva 1
 62
   250
370
    18
100
AcDbSpline
210
0.0
220
0.0
230
1.0
 70
    24
 71
     3
 72
     8
 73
     4
 74
     0
 42
0.0000000001
 43
0.0000000001
 40
0.0
 40
0.0
 40
0.0
 40
0.0
 40
1.0
 40
1.0
 40
1.0
 40
1.0
 10
1.6523
 20
-2.19
 30
0.0
 10
1.6523
 20
-2.19
 30
0.0
 10
1.6523
 20
9.4019
 30
0.0
 10
1.6523
 20
9.4019
 30
0.0
  0
SPLINE
  5
8E
330
1F
100
AcDbEntity
  8
Vrstva 1
 62
   250
370
    18
100
AcDbSpline
210
0.0
220
0.0
230
1.0
 70
    24
 71
     3
 72
     8
 73
     4
 74
     0
 42
0.0000000001
 43
0.0000000001
 40
0.0
 40
0.0
 40
0.0
 40
0.0
 40
1.0
 40
1.0
 40
1.0
 40
1.0
 10
9.7853
 20
-0.9007
 30
0.0
 10
9.7853
 20
-0.9007
 30
0.0
 10
10.7581
 20
-2.1457
 30
0.0
 10
10.7581
 20
-2.1457
 30
0.0
  0
SPLINE
  5
8F
330
1F
100
AcDbEntity
  8
Vrstva 1
 62
   250
370
    18
100
AcDbSpline
210
0.0
220
0.0
230
1.0
 70
    24
 71
     3
 72
     8
 73
     4
 74
     0
 42
0.0000000001
 43
0.0000000001
 40
0.0
 40
0.0
 40
0.0
 40
0.0
 40
1.0
 40
1.0
 40
1.0
 40
1.0
 10
6.75
 20
-0.9007
 30
0.0
 10
6.75
 20
-0.9007
 30
0.0
 10
7.7229
 20
-2.1457
 30
0.0
 10
7.7229
 20
-2.1457
 30
0.0
  0
SPLINE
  5
90
330
1F
100
AcDbEntity
  8
Vrstva 1
 62
   250
370
    18
100
AcDbSpline
210
0.0
220
0.0
230
1.0
 70
    24
 71
     3
 72
     8
 73
     4
 74
     0
 42
0.0000000001
 43
0.0000000001
 40
0.0
 40
0.0
 40
0.0
 40
0.0
 40
1.0
 40
1.0
 40
1.0
 40
1.0
 10
4.0103
 20
-1.2789
 30
0.0
 10
4.0103
 20
-1.2789
 30
0.0
 10
4.6876
 20
-2.1457
 30
0.0
 10
4.6876
 20
-2.1457
 30
0.0
  0
SPLINE
  5
91
330
1F
100
AcDbEntity
  8
Vrstva 1
 62
   250
370
    18
100
AcDbSpline
210
0.0
220
0.0
230
1.0
 70
    24
 71
     3
 72
     8
 73
     4
 74
     0
 42
0.0000000001
 43
0.0000000001
 40
0.0
 40
0.0
 40
0.0
 40
0.0
 40
1.0
 40
1.0
 40
1.0
 40
1.0
 10
1.9904
 20
9.5596
 30
0.0
 10
1.9904
 20
9.5596
 30
0.0
 10
2.7948
 20
8.8846
 30
0.0
 10
2.7948
 20
8.8846
 30
0.0
  0
SPLINE
  5
92
330
1F
100
AcDbEntity
  8
Vrstva 1
 62
   250
370
    18
100
AcDbSpline
210
0.0
220
0.0
230
1.0
 70
    24
 71
     3
 72
     8
 73
     4
 74
     0
 42
0.0000000001
 43
0.0000000001
 40
0.0
 40
0.0
 40
0.0
 40
0.0
 40
1.0
 40
1.0
 40
1.0
 40
1.0
 10
2.4805
 20
-1.9365
 30
0.0
 10
2.4805
 20
-1.9365
 30
0.0
 10
1.9904
 20
-2.3477
 30
0.0
 10
1.9904
 20
-2.3477
 30
0.0
  0
SPLINE
  5
93
330
1F
100
AcDbEntity
  8
Vrstva 1
 62
   250
370
    18
100
AcDbSpline
210
0.0
220
0.0
230
1.0
 70
    24
 71
     3
 72
     8
 73
     4
 74
     0
 42
0.0000000001
 43
0.0000000001
 40
0.0
 40
0.0
 40
0.0
 40
0.0
 40
1.0
 40
1.0
 40
1.0
 40
1.0
 10
10.7581
 20
9.3576
 30
0.0
 10
10.7581
 20
9.3576
 30
0.0
 10
9.7853
 20
8.1126
 30
0.0
 10
9.7853
 20
8.1126
 30
0.0
  0
SPLINE
  5
94
330
1F
100
AcDbEntity
  8
Vrstva 1
 62
   250
370
    18
100
AcDbSpline
210
0.0
220
0.0
230
1.0
 70
    24
 71
     3
 72
     8
 73
     4
 74
     0
 42
0.0000000001
 43
0.0000000001
 40
0.0
 40
0.0
 40
0.0
 40
0.0
 40
1.0
 40
1.0
 40
1.0
 40
1.0
 10
7.7229
 20
9.3576
 30
0.0
 10
7.7229
 20
9.3576
 30
0.0
 10
6.75
 20
8.1126
 30
0.0
 10
6.75
 20
8.1126
 30
0.0
  0
SPLINE
  5
95
330
1F
100
AcDbEntity
  8
Vrstva 1
 62
   250
370
    18
100
AcDbSpline
210
0.0
220
0.0
230
1.0
 70
    24
 71
     3
 72
     8
 73
     4
 74
     0
 42
0.0000000001
 43
0.0000000001
 40
0.0
 40
0.0
 40
0.0
 40
0.0
 40
1.0
 40
1.0
 40
1.0
 40
1.0
 10
4.6876
 20
9.3576
 30
0.0
 10
4.6876
 20
9.3576
 30
0.0
 10
4.2502
 20
8.7977
 30
0.0
 10
4.2502
 20
8.7977
 30
0.0
  0
SPLINE
  5
96
330
1F
100
AcDbEntity
  8
Vrstva 1
 62
   250
370
    18
100
AcDbSpline
210
0.0
220
0.0
230
1.0
 70
    24
 71
     3
 72
     8
 73
     4
 74
     0
 42
0.0000000001
 43
0.0000000001
 40
0.0
 40
0.0
 40
0.0
 40
0.0
 40
1.0
 40
1.0
 40
1.0
 40
1.0
 10
0.6798
 20
-0.9007
 30
0.0
 10
0.6798
 20
-0.9007
 30
0.0
 10
1.6523
 20
-2.1457
 30
0.0
 10
1.6523
 20
-2.1457
 30
0.0
  0
SPLINE
  5
97
330
1F
100
AcDbEntity
  8
Vrstva 1
 62
   250
370
    18
100
AcDbSpline
210
0.0
220
0.0
230
1.0
 70
    24
 71
     3
 72
     8
 73
     4
 74
     0
 42
0.0000000001
 43
0.0000000001
 40
0.0
 40
0.0
 40
0.0
 40
0.0
 40
1.0
 40
1.0
 40
1.0
 40
1.0
 10
1.6523
 20
9.3576
 30
0.0
 10
1.6523
 20
9.3576
 30
0.0
 10
0.6798
 20
8.1126
 30
0.0
 10
0.6798
 20
8.1126
 30
0.0
  0
SPLINE
  5
98
330
1F
100
AcDbEntity
  8
Vrstva 1
 62
   250
370
    18
100
AcDbSpline
210
0.0
220
0.0
230
1.0
 70
     8
 71
     3
 72
     8
 73
     4
 74
     0
 42
0.0000000001
 43
0.0000000001
 40
0.0
 40
0.0
 40
0.0
 40
0.0
 40
1.0
 40
1.0
 40
1.0
 40
1.0
 10
14.1312
 20
-2.3475
 30
0.0
 10
14.07
 20
-2.3991
 30
0.0
 10
13.9846
 20
-2.4103
 30
0.0
 10
13.9121
 20
-2.3765
 30
0.0
  0
SPLINE
  5
99
330
1F
100
AcDbEntity
  8
Vrstva 1
 62
   250
370
    18
100
AcDbSpline
210
0.0
220
0.0
230
1.0
 70
     8
 71
     3
 72
     8
 73
     4
 74
     0
 42
0.0000000001
 43
0.0000000001
 40
0.0
 40
0.0
 40
0.0
 40
0.0
 40
1.0
 40
1.0
 40
1.0
 40
1.0
 10
13.9121
 20
-2.3765
 30
0.0
 10
13.8395
 20
-2.3427
 30
0.0
 10
13.7933
 20
-2.27
 30
0.0
 10
13.7933
 20
-2.19
 30
0.0
  0
SPLINE
  5
9A
330
1F
100
AcDbEntity
  8
Vrstva 1
 62
   250
370
    18
100
AcDbSpline
210
0.0
220
0.0
230
1.0
 70
     8
 71
     3
 72
     8
 73
     4
 74
     0
 42
0.0000000001
 43
0.0000000001
 40
0.0
 40
0.0
 40
0.0
 40
0.0
 40
1.0
 40
1.0
 40
1.0
 40
1.0
 10
17.1665
 20
-2.3475
 30
0.0
 10
17.1052
 20
-2.3991
 30
0.0
 10
17.0198
 20
-2.4103
 30
0.0
 10
16.9473
 20
-2.3765
 30
0.0
  0
SPLINE
  5
9B
330
1F
100
AcDbEntity
  8
Vrstva 1
 62
   250
370
    18
100
AcDbSpline
210
0.0
220
0.0
230
1.0
 70
     8
 71
     3
 72
     8
 73
     4
 74
     0
 42
0.0000000001
 43
0.0000000001
 40
0.0
 40
0.0
 40
0.0
 40
0.0
 40
1.0
 40
1.0
 40
1.0
 40
1.0
 10
16.9473
 20
-2.3765
 30
0.0
 10
16.8748
 20
-2.3427
 30
0.0
 10
16.8284
 20
-2.27
 30
0.0
 10
16.8284
 20
-2.19
 30
0.0
  0
SPLINE
  5
9C
330
1F
100
AcDbEntity
  8
Vrstva 1
 62
   250
370
    18
100
AcDbSpline
210
0.0
220
0.0
230
1.0
 70
     8
 71
     3
 72
     8
 73
     4
 74
     0
 42
0.0000000001
 43
0.0000000001
 40
0.0
 40
0.0
 40
0.0
 40
0.0
 40
1.0
 40
1.0
 40
1.0
 40
1.0
 10
11.0961
 20
-2.3475
 30
0.0
 10
11.0348
 20
-2.3991
 30
0.0
 10
10.9493
 20
-2.4103
 30
0.0
 10
10.8768
 20
-2.3765
 30
0.0
  0
SPLINE
  5
9D
330
1F
100
AcDbEntity
  8
Vrstva 1
 62
   250
370
    18
100
AcDbSpline
210
0.0
220
0.0
230
1.0
 70
     8
 71
     3
 72
     8
 73
     4
 74
     0
 42
0.0000000001
 43
0.0000000001
 40
0.0
 40
0.0
 40
0.0
 40
0.0
 40
1.0
 40
1.0
 40
1.0
 40
1.0
 10
10.8768
 20
-2.3765
 30
0.0
 10
10.8043
 20
-2.3427
 30
0.0
 10
10.7581
 20
-2.27
 30
0.0
 10
10.7581
 20
-2.19
 30
0.0
  0
SPLINE
  5
9E
330
1F
100
AcDbEntity
  8
Vrstva 1
 62
   250
370
    18
100
AcDbSpline
210
0.0
220
0.0
230
1.0
 70
     8
 71
     3
 72
     8
 73
     4
 74
     0
 42
0.0000000001
 43
0.0000000001
 40
0.0
 40
0.0
 40
0.0
 40
0.0
 40
1.0
 40
1.0
 40
1.0
 40
1.0
 10
8.0609
 20
-2.3475
 30
0.0
 10
7.9997
 20
-2.3991
 30
0.0
 10
7.9141
 20
-2.4103
 30
0.0
 10
7.8416
 20
-2.3765
 30
0.0
  0
SPLINE
  5
9F
330
1F
100
AcDbEntity
  8
Vrstva 1
 62
   250
370
    18
100
AcDbSpline
210
0.0
220
0.0
230
1.0
 70
     8
 71
     3
 72
     8
 73
     4
 74
     0
 42
0.0000000001
 43
0.0000000001
 40
0.0
 40
0.0
 40
0.0
 40
0.0
 40
1.0
 40
1.0
 40
1.0
 40
1.0
 10
7.8416
 20
-2.3765
 30
0.0
 10
7.7691
 20
-2.3427
 30
0.0
 10
7.7229
 20
-2.27
 30
0.0
 10
7.7229
 20
-2.19
 30
0.0
  0
SPLINE
  5
A0
330
1F
100
AcDbEntity
  8
Vrstva 1
 62
   250
370
    18
100
AcDbSpline
210
0.0
220
0.0
230
1.0
 70
     8
 71
     3
 72
     8
 73
     4
 74
     0
 42
0.0000000001
 43
0.0000000001
 40
0.0
 40
0.0
 40
0.0
 40
0.0
 40
1.0
 40
1.0
 40
1.0
 40
1.0
 10
13.7933
 20
9.4019
 30
0.0
 10
13.7933
 20
9.482
 30
0.0
 10
13.8395
 20
9.5546
 30
0.0
 10
13.9121
 20
9.5885
 30
0.0
  0
SPLINE
  5
A1
330
1F
100
AcDbEntity
  8
Vrstva 1
 62
   250
370
    18
100
AcDbSpline
210
0.0
220
0.0
230
1.0
 70
     8
 71
     3
 72
     8
 73
     4
 74
     0
 42
0.0000000001
 43
0.0000000001
 40
0.0
 40
0.0
 40
0.0
 40
0.0
 40
1.0
 40
1.0
 40
1.0
 40
1.0
 10
13.9121
 20
9.5885
 30
0.0
 10
13.9846
 20
9.6223
 30
0.0
 10
14.07
 20
9.611
 30
0.0
 10
14.1312
 20
9.5596
 30
0.0
  0
SPLINE
  5
A2
330
1F
100
AcDbEntity
  8
Vrstva 1
 62
   250
370
    18
100
AcDbSpline
210
0.0
220
0.0
230
1.0
 70
     8
 71
     3
 72
     8
 73
     4
 74
     0
 42
0.0000000001
 43
0.0000000001
 40
0.0
 40
0.0
 40
0.0
 40
0.0
 40
1.0
 40
1.0
 40
1.0
 40
1.0
 10
16.8284
 20
9.4019
 30
0.0
 10
16.8284
 20
9.482
 30
0.0
 10
16.8748
 20
9.5546
 30
0.0
 10
16.9473
 20
9.5885
 30
0.0
  0
SPLINE
  5
A3
330
1F
100
AcDbEntity
  8
Vrstva 1
 62
   250
370
    18
100
AcDbSpline
210
0.0
220
0.0
230
1.0
 70
     8
 71
     3
 72
     8
 73
     4
 74
     0
 42
0.0000000001
 43
0.0000000001
 40
0.0
 40
0.0
 40
0.0
 40
0.0
 40
1.0
 40
1.0
 40
1.0
 40
1.0
 10
16.9473
 20
9.5885
 30
0.0
 10
17.0198
 20
9.6223
 30
0.0
 10
17.1052
 20
9.611
 30
0.0
 10
17.1665
 20
9.5596
 30
0.0
  0
SPLINE
  5
A4
330
1F
100
AcDbEntity
  8
Vrstva 1
 62
   250
370
    18
100
AcDbSpline
210
0.0
220
0.0
230
1.0
 70
     8
 71
     3
 72
     8
 73
     4
 74
     0
 42
0.0000000001
 43
0.0000000001
 40
0.0
 40
0.0
 40
0.0
 40
0.0
 40
1.0
 40
1.0
 40
1.0
 40
1.0
 10
10.7581
 20
9.4019
 30
0.0
 10
10.7581
 20
9.482
 30
0.0
 10
10.8043
 20
9.5546
 30
0.0
 10
10.8768
 20
9.5885
 30
0.0
  0
SPLINE
  5
A5
330
1F
100
AcDbEntity
  8
Vrstva 1
 62
   250
370
    18
100
AcDbSpline
210
0.0
220
0.0
230
1.0
 70
     8
 71
     3
 72
     8
 73
     4
 74
     0
 42
0.0000000001
 43
0.0000000001
 40
0.0
 40
0.0
 40
0.0
 40
0.0
 40
1.0
 40
1.0
 40
1.0
 40
1.0
 10
10.8768
 20
9.5885
 30
0.0
 10
10.9493
 20
9.6223
 30
0.0
 10
11.0348
 20
9.611
 30
0.0
 10
11.0961
 20
9.5596
 30
0.0
  0
SPLINE
  5
A6
330
1F
100
AcDbEntity
  8
Vrstva 1
 62
   250
370
    18
100
AcDbSpline
210
0.0
220
0.0
230
1.0
 70
     8
 71
     3
 72
     8
 73
     4
 74
     0
 42
0.0000000001
 43
0.0000000001
 40
0.0
 40
0.0
 40
0.0
 40
0.0
 40
1.0
 40
1.0
 40
1.0
 40
1.0
 10
7.7229
 20
9.4019
 30
0.0
 10
7.7229
 20
9.482
 30
0.0
 10
7.7691
 20
9.5546
 30
0.0
 10
7.8416
 20
9.5885
 30
0.0
  0
SPLINE
  5
A7
330
1F
100
AcDbEntity
  8
Vrstva 1
 62
   250
370
    18
100
AcDbSpline
210
0.0
220
0.0
230
1.0
 70
     8
 71
     3
 72
     8
 73
     4
 74
     0
 42
0.0000000001
 43
0.0000000001
 40
0.0
 40
0.0
 40
0.0
 40
0.0
 40
1.0
 40
1.0
 40
1.0
 40
1.0
 10
7.8416
 20
9.5885
 30
0.0
 10
7.9141
 20
9.6223
 30
0.0
 10
7.9997
 20
9.611
 30
0.0
 10
8.0609
 20
9.5596
 30
0.0
  0
SPLINE
  5
A8
330
1F
100
AcDbEntity
  8
Vrstva 1
 62
   250
370
    18
100
AcDbSpline
210
0.0
220
0.0
230
1.0
 70
     8
 71
     3
 72
     8
 73
     4
 74
     0
 42
0.0000000001
 43
0.0000000001
 40
0.0
 40
0.0
 40
0.0
 40
0.0
 40
1.0
 40
1.0
 40
1.0
 40
1.0
 10
5.0257
 20
-2.3475
 30
0.0
 10
4.9644
 20
-2.3991
 30
0.0
 10
4.8788
 20
-2.4103
 30
0.0
 10
4.8064
 20
-2.3765
 30
0.0
  0
SPLINE
  5
A9
330
1F
100
AcDbEntity
  8
Vrstva 1
 62
   250
370
    18
100
AcDbSpline
210
0.0
220
0.0
230
1.0
 70
     8
 71
     3
 72
     8
 73
     4
 74
     0
 42
0.0000000001
 43
0.0000000001
 40
0.0
 40
0.0
 40
0.0
 40
0.0
 40
1.0
 40
1.0
 40
1.0
 40
1.0
 10
4.8064
 20
-2.3765
 30
0.0
 10
4.734
 20
-2.3427
 30
0.0
 10
4.6876
 20
-2.27
 30
0.0
 10
4.6876
 20
-2.19
 30
0.0
  0
SPLINE
  5
AA
330
1F
100
AcDbEntity
  8
Vrstva 1
 62
   250
370
    18
100
AcDbSpline
210
0.0
220
0.0
230
1.0
 70
     8
 71
     3
 72
     8
 73
     4
 74
     0
 42
0.0000000001
 43
0.0000000001
 40
0.0
 40
0.0
 40
0.0
 40
0.0
 40
1.0
 40
1.0
 40
1.0
 40
1.0
 10
1.9904
 20
-2.3475
 30
0.0
 10
1.9292
 20
-2.3991
 30
0.0
 10
1.8436
 20
-2.4103
 30
0.0
 10
1.7713
 20
-2.3765
 30
0.0
  0
SPLINE
  5
AB
330
1F
100
AcDbEntity
  8
Vrstva 1
 62
   250
370
    18
100
AcDbSpline
210
0.0
220
0.0
230
1.0
 70
     8
 71
     3
 72
     8
 73
     4
 74
     0
 42
0.0000000001
 43
0.0000000001
 40
0.0
 40
0.0
 40
0.0
 40
0.0
 40
1.0
 40
1.0
 40
1.0
 40
1.0
 10
1.7713
 20
-2.3765
 30
0.0
 10
1.6988
 20
-2.3427
 30
0.0
 10
1.6523
 20
-2.27
 30
0.0
 10
1.6523
 20
-2.19
 30
0.0
  0
SPLINE
  5
AC
330
1F
100
AcDbEntity
  8
Vrstva 1
 62
   250
370
    18
100
AcDbSpline
210
0.0
220
0.0
230
1.0
 70
     8
 71
     3
 72
     8
 73
     4
 74
     0
 42
0.0000000001
 43
0.0000000001
 40
0.0
 40
0.0
 40
0.0
 40
0.0
 40
1.0
 40
1.0
 40
1.0
 40
1.0
 10
4.6876
 20
9.4019
 30
0.0
 10
4.6876
 20
9.482
 30
0.0
 10
4.734
 20
9.5546
 30
0.0
 10
4.8064
 20
9.5885
 30
0.0
  0
SPLINE
  5
AD
330
1F
100
AcDbEntity
  8
Vrstva 1
 62
   250
370
    18
100
AcDbSpline
210
0.0
220
0.0
230
1.0
 70
     8
 71
     3
 72
     8
 73
     4
 74
     0
 42
0.0000000001
 43
0.0000000001
 40
0.0
 40
0.0
 40
0.0
 40
0.0
 40
1.0
 40
1.0
 40
1.0
 40
1.0
 10
4.8064
 20
9.5885
 30
0.0
 10
4.8788
 20
9.6223
 30
0.0
 10
4.9644
 20
9.611
 30
0.0
 10
5.0257
 20
9.5596
 30
0.0
  0
SPLINE
  5
AE
330
1F
100
AcDbEntity
  8
Vrstva 1
 62
   250
370
    18
100
AcDbSpline
210
0.0
220
0.0
230
1.0
 70
     8
 71
     3
 72
     8
 73
     4
 74
     0
 42
0.0000000001
 43
0.0000000001
 40
0.0
 40
0.0
 40
0.0
 40
0.0
 40
1.0
 40
1.0
 40
1.0
 40
1.0
 10
1.6523
 20
9.4019
 30
0.0
 10
1.6523
 20
9.482
 30
0.0
 10
1.6988
 20
9.5546
 30
0.0
 10
1.7713
 20
9.5885
 30
0.0
  0
SPLINE
  5
AF
330
1F
100
AcDbEntity
  8
Vrstva 1
 62
   250
370
    18
100
AcDbSpline
210
0.0
220
0.0
230
1.0
 70
     8
 71
     3
 72
     8
 73
     4
 74
     0
 42
0.0000000001
 43
0.0000000001
 40
0.0
 40
0.0
 40
0.0
 40
0.0
 40
1.0
 40
1.0
 40
1.0
 40
1.0
 10
1.7713
 20
9.5885
 30
0.0
 10
1.8436
 20
9.6223
 30
0.0
 10
1.9292
 20
9.611
 30
0.0
 10
1.9904
 20
9.5596
 30
0.0
  0
SPLINE
  5
B0
330
1F
100
AcDbEntity
  8
Vrstva 1
 62
   250
370
    18
100
AcDbSpline
210
0.0
220
0.0
230
1.0
 70
    24
 71
     3
 72
     8
 73
     4
 74
     0
 42
0.0000000001
 43
0.0000000001
 40
0.0
 40
0.0
 40
0.0
 40
0.0
 40
1.0
 40
1.0
 40
1.0
 40
1.0
 10
22.3448
 20
-0.8353
 30
0.0
 10
22.3448
 20
-0.8353
 30
0.0
 10
22.3448
 20
8.0472
 30
0.0
 10
22.3448
 20
8.0472
 30
0.0
  0
SPLINE
  5
B1
330
1F
100
AcDbEntity
  8
Vrstva 1
 62
   250
370
    18
100
AcDbSpline
210
0.0
220
0.0
230
1.0
 70
    24
 71
     3
 72
     8
 73
     4
 74
     0
 42
0.0000000001
 43
0.0000000001
 40
0.0
 40
0.0
 40
0.0
 40
0.0
 40
1.0
 40
1.0
 40
1.0
 40
1.0
 10
21.7849
 20
-1.0434
 30
0.0
 10
21.7849
 20
-1.0434
 30
0.0
 10
21.7849
 20
8.2552
 30
0.0
 10
21.7849
 20
8.2552
 30
0.0
  0
SPLINE
  5
B2
330
1F
100
AcDbEntity
  8
Vrstva 1
 62
   250
370
    18
100
AcDbSpline
210
0.0
220
0.0
230
1.0
 70
    24
 71
     3
 72
     8
 73
     4
 74
     0
 42
0.0000000001
 43
0.0000000001
 40
0.0
 40
0.0
 40
0.0
 40
0.0
 40
1.0
 40
1.0
 40
1.0
 40
1.0
 10
20.2722
 20
-2.3475
 30
0.0
 10
20.2722
 20
-2.3475
 30
0.0
 10
20.2722
 20
9.5596
 30
0.0
 10
20.2722
 20
9.5596
 30
0.0
  0
SPLINE
  5
B3
330
1F
100
AcDbEntity
  8
Vrstva 1
 62
   250
370
    18
100
AcDbSpline
210
0.0
220
0.0
230
1.0
 70
    24
 71
     3
 72
     8
 73
     4
 74
     0
 42
0.0000000001
 43
0.0000000001
 40
0.0
 40
0.0
 40
0.0
 40
0.0
 40
1.0
 40
1.0
 40
1.0
 40
1.0
 10
19.9342
 20
-2.19
 30
0.0
 10
19.9342
 20
-2.19
 30
0.0
 10
19.9342
 20
9.4019
 30
0.0
 10
19.9342
 20
9.4019
 30
0.0
  0
SPLINE
  5
B4
330
1F
100
AcDbEntity
  8
Vrstva 1
 62
   250
370
    18
100
AcDbSpline
210
0.0
220
0.0
230
1.0
 70
    24
 71
     3
 72
     8
 73
     4
 74
     0
 42
0.0000000001
 43
0.0000000001
 40
0.0
 40
0.0
 40
0.0
 40
0.0
 40
1.0
 40
1.0
 40
1.0
 40
1.0
 10
18.9613
 20
8.1126
 30
0.0
 10
18.9613
 20
8.1126
 30
0.0
 10
18.9613
 20
-0.9007
 30
0.0
 10
18.9613
 20
-0.9007
 30
0.0
  0
SPLINE
  5
B5
330
1F
100
AcDbEntity
  8
Vrstva 1
 62
   250
370
    18
100
AcDbSpline
210
0.0
220
0.0
230
1.0
 70
    24
 71
     3
 72
     8
 73
     4
 74
     0
 42
0.0000000001
 43
0.0000000001
 40
0.0
 40
0.0
 40
0.0
 40
0.0
 40
1.0
 40
1.0
 40
1.0
 40
1.0
 10
18.9613
 20
-0.9007
 30
0.0
 10
18.9613
 20
-0.9007
 30
0.0
 10
19.9342
 20
-2.1457
 30
0.0
 10
19.9342
 20
-2.1457
 30
0.0
  0
SPLINE
  5
B6
330
1F
100
AcDbEntity
  8
Vrstva 1
 62
   250
370
    18
100
AcDbSpline
210
0.0
220
0.0
230
1.0
 70
    24
 71
     3
 72
     8
 73
     4
 74
     0
 42
0.0000000001
 43
0.0000000001
 40
0.0
 40
0.0
 40
0.0
 40
0.0
 40
1.0
 40
1.0
 40
1.0
 40
1.0
 10
20.2722
 20
9.5596
 30
0.0
 10
20.2722
 20
9.5596
 30
0.0
 10
21.7849
 20
8.2552
 30
0.0
 10
21.7849
 20
8.2552
 30
0.0
  0
SPLINE
  5
B7
330
1F
100
AcDbEntity
  8
Vrstva 1
 62
   250
370
    18
100
AcDbSpline
210
0.0
220
0.0
230
1.0
 70
    24
 71
     3
 72
     8
 73
     4
 74
     0
 42
0.0000000001
 43
0.0000000001
 40
0.0
 40
0.0
 40
0.0
 40
0.0
 40
1.0
 40
1.0
 40
1.0
 40
1.0
 10
21.7849
 20
-1.0434
 30
0.0
 10
21.7849
 20
-1.0434
 30
0.0
 10
20.2722
 20
-2.3475
 30
0.0
 10
20.2722
 20
-2.3475
 30
0.0
  0
SPLINE
  5
B8
330
1F
100
AcDbEntity
  8
Vrstva 1
 62
   250
370
    18
100
AcDbSpline
210
0.0
220
0.0
230
1.0
 70
    24
 71
     3
 72
     8
 73
     4
 74
     0
 42
0.0000000001
 43
0.0000000001
 40
0.0
 40
0.0
 40
0.0
 40
0.0
 40
1.0
 40
1.0
 40
1.0
 40
1.0
 10
19.9342
 20
9.3576
 30
0.0
 10
19.9342
 20
9.3576
 30
0.0
 10
18.9613
 20
8.1126
 30
0.0
 10
18.9613
 20
8.1126
 30
0.0
  0
SPLINE
  5
B9
330
1F
100
AcDbEntity
  8
Vrstva 1
 62
   250
370
    18
100
AcDbSpline
210
0.0
220
0.0
230
1.0
 70
    24
 71
     3
 72
     8
 73
     4
 74
     0
 42
0.0000000001
 43
0.0000000001
 40
0.0
 40
0.0
 40
0.0
 40
0.0
 40
1.0
 40
1.0
 40
1.0
 40
1.0
 10
22.3448
 20
-0.8353
 30
0.0
 10
22.3448
 20
-0.8353
 30
0.0
 10
23.4281
 20
-0.8353
 30
0.0
 10
23.4281
 20
-0.8353
 30
0.0
  0
SPLINE
  5
BA
330
1F
100
AcDbEntity
  8
Vrstva 1
 62
   250
370
    18
100
AcDbSpline
210
0.0
220
0.0
230
1.0
 70
    24
 71
     3
 72
     8
 73
     4
 74
     0
 42
0.0000000001
 43
0.0000000001
 40
0.0
 40
0.0
 40
0.0
 40
0.0
 40
1.0
 40
1.0
 40
1.0
 40
1.0
 10
22.3448
 20
8.0472
 30
0.0
 10
22.3448
 20
8.0472
 30
0.0
 10
23.4281
 20
8.0472
 30
0.0
 10
23.4281
 20
8.0472
 30
0.0
  0
SPLINE
  5
BB
330
1F
100
AcDbEntity
  8
Vrstva 1
 62
   250
370
    18
100
AcDbSpline
210
0.0
220
0.0
230
1.0
 70
     8
 71
     3
 72
     8
 73
     4
 74
     0
 42
0.0000000001
 43
0.0000000001
 40
0.0
 40
0.0
 40
0.0
 40
0.0
 40
1.0
 40
1.0
 40
1.0
 40
1.0
 10
21.7849
 20
-1.0434
 30
0.0
 10
21.9405
 20
-0.9091
 30
0.0
 10
22.1392
 20
-0.8353
 30
0.0
 10
22.3448
 20
-0.8353
 30
0.0
  0
SPLINE
  5
BC
330
1F
100
AcDbEntity
  8
Vrstva 1
 62
   250
370
    18
100
AcDbSpline
210
0.0
220
0.0
230
1.0
 70
     8
 71
     3
 72
     8
 73
     4
 74
     0
 42
0.0000000001
 43
0.0000000001
 40
0.0
 40
0.0
 40
0.0
 40
0.0
 40
1.0
 40
1.0
 40
1.0
 40
1.0
 10
22.3448
 20
8.0472
 30
0.0
 10
22.1392
 20
8.0472
 30
0.0
 10
21.9405
 20
8.121
 30
0.0
 10
21.7849
 20
8.2552
 30
0.0
  0
SPLINE
  5
BD
330
1F
100
AcDbEntity
  8
Vrstva 1
 62
   250
370
    18
100
AcDbSpline
210
0.0
220
0.0
230
1.0
 70
     8
 71
     3
 72
     8
 73
     4
 74
     0
 42
0.0000000001
 43
0.0000000001
 40
0.0
 40
0.0
 40
0.0
 40
0.0
 40
1.0
 40
1.0
 40
1.0
 40
1.0
 10
20.2722
 20
-2.3475
 30
0.0
 10
20.2109
 20
-2.3991
 30
0.0
 10
20.1254
 20
-2.4103
 30
0.0
 10
20.0529
 20
-2.3765
 30
0.0
  0
SPLINE
  5
BE
330
1F
100
AcDbEntity
  8
Vrstva 1
 62
   250
370
    18
100
AcDbSpline
210
0.0
220
0.0
230
1.0
 70
     8
 71
     3
 72
     8
 73
     4
 74
     0
 42
0.0000000001
 43
0.0000000001
 40
0.0
 40
0.0
 40
0.0
 40
0.0
 40
1.0
 40
1.0
 40
1.0
 40
1.0
 10
20.0529
 20
-2.3765
 30
0.0
 10
19.9804
 20
-2.3427
 30
0.0
 10
19.9342
 20
-2.27
 30
0.0
 10
19.9342
 20
-2.19
 30
0.0
  0
SPLINE
  5
BF
330
1F
100
AcDbEntity
  8
Vrstva 1
 62
   250
370
    18
100
AcDbSpline
210
0.0
220
0.0
230
1.0
 70
     8
 71
     3
 72
     8
 73
     4
 74
     0
 42
0.0000000001
 43
0.0000000001
 40
0.0
 40
0.0
 40
0.0
 40
0.0
 40
1.0
 40
1.0
 40
1.0
 40
1.0
 10
19.9342
 20
9.4019
 30
0.0
 10
19.9342
 20
9.482
 30
0.0
 10
19.9804
 20
9.5546
 30
0.0
 10
20.0529
 20
9.5885
 30
0.0
  0
SPLINE
  5
C0
330
1F
100
AcDbEntity
  8
Vrstva 1
 62
   250
370
    18
100
AcDbSpline
210
0.0
220
0.0
230
1.0
 70
     8
 71
     3
 72
     8
 73
     4
 74
     0
 42
0.0000000001
 43
0.0000000001
 40
0.0
 40
0.0
 40
0.0
 40
0.0
 40
1.0
 40
1.0
 40
1.0
 40
1.0
 10
20.0529
 20
9.5885
 30
0.0
 10
20.1254
 20
9.6223
 30
0.0
 10
20.2109
 20
9.611
 30
0.0
 10
20.2722
 20
9.5596
 30
0.0
  0
SPLINE
  5
C1
330
1F
100
AcDbEntity
  8
Vrstva 1
 62
   250
370
    18
100
AcDbSpline
210
0.0
220
0.0
230
1.0
 70
     8
 71
     3
 72
     8
 73
     4
 74
     0
 42
0.0000000001
 43
0.0000000001
 40
0.0
 40
0.0
 40
0.0
 40
0.0
 40
1.0
 40
1.0
 40
1.0
 40
1.0
 10
2.7911
 20
8.8988
 30
0.0
 10
3.1805
 20
6.3938
 30
0.0
 10
2.5379
 20
1.3668
 30
0.0
 10
2.5379
 20
0.2421
 30
0.0
  0
SPLINE
  5
C2
330
1F
100
AcDbEntity
  8
Vrstva 1
 62
   250
370
    18
100
AcDbSpline
210
0.0
220
0.0
230
1.0
 70
    24
 71
     3
 72
     8
 73
     4
 74
     0
 42
0.0000000001
 43
0.0000000001
 40
0.0
 40
0.0
 40
0.0
 40
0.0
 40
1.0
 40
1.0
 40
1.0
 40
1.0
 10
2.5379
 20
0.2421
 30
0.0
 10
2.5379
 20
0.2421
 30
0.0
 10
2.5379
 20
0.2048
 30
0.0
 10
2.5379
 20
0.2048
 30
0.0
  0
SPLINE
  5
C3
330
1F
100
AcDbEntity
  8
Vrstva 1
 62
   250
370
    18
100
AcDbSpline
210
0.0
220
0.0
230
1.0
 70
     8
 71
     3
 72
     8
 73
     4
 74
     0
 42
0.0000000001
 43
0.0000000001
 40
0.0
 40
0.0
 40
0.0
 40
0.0
 40
1.0
 40
1.0
 40
1.0
 40
1.0
 10
2.5379
 20
0.2048
 30
0.0
 10
2.5379
 20
-1.0126
 30
0.0
 10
2.3426
 20
-1.0344
 30
0.0
 10
2.4925
 20
-1.8749
 30
0.0
  0
SPLINE
  5
C4
330
1F
100
AcDbEntity
  8
Vrstva 1
 62
   250
370
    18
100
AcDbSpline
210
0.0
220
0.0
230
1.0
 70
     8
 71
     3
 72
     8
 73
     4
 74
     0
 42
0.0000000001
 43
0.0000000001
 40
0.0
 40
0.0
 40
0.0
 40
0.0
 40
1.0
 40
1.0
 40
1.0
 40
1.0
 10
4.2494
 20
8.8332
 30
0.0
 10
4.796
 20
6.5181
 30
0.0
 10
4.0758
 20
0.9531
 30
0.0
 10
4.0758
 20
-0.2373
 30
0.0
  0
SPLINE
  5
C5
330
1F
100
AcDbEntity
  8
Vrstva 1
 62
   250
370
    18
100
AcDbSpline
210
0.0
220
0.0
230
1.0
 70
    24
 71
     3
 72
     8
 73
     4
 74
     0
 42
0.0000000001
 43
0.0000000001
 40
0.0
 40
0.0
 40
0.0
 40
0.0
 40
1.0
 40
1.0
 40
1.0
 40
1.0
 10
4.0758
 20
-0.2373
 30
0.0
 10
4.0758
 20
-0.2373
 30
0.0
 10
4.0758
 20
-0.2746
 30
0.0
 10
4.0758
 20
-0.2746
 30
0.0
  0
SPLINE
  5
C6
330
1F
100
AcDbEntity
  8
Vrstva 1
 62
   250
370
    18
100
AcDbSpline
210
0.0
220
0.0
230
1.0
 70
     8
 71
     3
 72
     8
 73
     4
 74
     0
 42
0.0000000001
 43
0.0000000001
 40
0.0
 40
0.0
 40
0.0
 40
0.0
 40
1.0
 40
1.0
 40
1.0
 40
1.0
 10
4.0758
 20
-0.2746
 30
0.0
 10
4.0758
 20
-0.8001
 30
0.0
 10
4.0393
 20
-1.1029
 30
0.0
 10
4.0102
 20
-1.3448
 30
0.0
  0
SPLINE
  5
C7
330
1F
100
AcDbEntity
  8
Vrstva 1
 62
   250
370
    18
100
AcDbSpline
210
0.0
220
0.0
230
1.0
 70
    24
 71
     3
 72
     8
 73
     4
 74
     0
 42
0.0000000001
 43
0.0000000001
 40
0.0
 40
0.0
 40
0.0
 40
0.0
 40
1.0
 40
1.0
 40
1.0
 40
1.0
 10
23.4903
 20
-0.8749
 30
0.0
 10
23.4903
 20
-0.8749
 30
0.0
 10
23.4903
 20
8.0869
 30
0.0
 10
23.4903
 20
8.0869
 30
0.0
  0
SPLINE
  5
C8
330
1F
100
AcDbEntity
  8
Vrstva 1
 62
   250
370
    18
100
AcDbSpline
210
0.0
220
0.0
230
1.0
 70
    24
 71
     3
 72
     8
 73
     4
 74
     0
 42
0.0000000001
 43
0.0000000001
 40
0.0
 40
0.0
 40
0.0
 40
0.0
 40
1.0
 40
1.0
 40
1.0
 40
1.0
 10
23.4281
 20
-0.8353
 30
0.0
 10
23.4281
 20
-0.8353
 30
0.0
 10
23.4281
 20
8.0472
 30
0.0
 10
23.4281
 20
8.0472
 30
0.0
  0
SPLINE
  5
C9
330
1F
100
AcDbEntity
  8
Vrstva 1
 62
   250
370
    18
100
AcDbSpline
210
0.0
220
0.0
230
1.0
 70
     8
 71
     3
 72
     8
 73
     4
 74
     0
 42
0.0000000001
 43
0.0000000001
 40
0.0
 40
0.0
 40
0.0
 40
0.0
 40
1.0
 40
1.0
 40
1.0
 40
1.0
 10
23.4281
 20
-0.8353
 30
0.0
 10
23.4547
 20
-0.8353
 30
0.0
 10
23.479
 20
-0.8507
 30
0.0
 10
23.4903
 20
-0.8749
 30
0.0
  0
SPLINE
  5
CA
330
1F
100
AcDbEntity
  8
Vrstva 1
 62
   250
370
    18
100
AcDbSpline
210
0.0
220
0.0
230
1.0
 70
     8
 71
     3
 72
     8
 73
     4
 74
     0
 42
0.0000000001
 43
0.0000000001
 40
0.0
 40
0.0
 40
0.0
 40
0.0
 40
1.0
 40
1.0
 40
1.0
 40
1.0
 10
23.4903
 20
8.0869
 30
0.0
 10
23.479
 20
8.0627
 30
0.0
 10
23.4547
 20
8.0472
 30
0.0
 10
23.4281
 20
8.0472
 30
0.0
  0
SPLINE
  5
CB
330
1F
100
AcDbEntity
  8
Vrstva 1
 62
   250
370
    18
100
AcDbSpline
210
0.0
220
0.0
230
1.0
 70
    24
 71
     3
 72
     8
 73
     4
 74
     0
 42
0.0000000001
 43
0.0000000001
 40
0.0
 40
0.0
 40
0.0
 40
0.0
 40
1.0
 40
1.0
 40
1.0
 40
1.0
 10
-0.9834
 20
9.5596
 30
0.0
 10
-0.9834
 20
9.5596
 30
0.0
 10
0.7411
 20
8.1126
 30
0.0
 10
0.7411
 20
8.1126
 30
0.0
  0
SPLINE
  5
CC
330
1F
100
AcDbEntity
  8
Vrstva 1
 62
   250
370
    18
100
AcDbSpline
210
0.0
220
0.0
230
1.0
 70
    24
 71
     3
 72
     8
 73
     4
 74
     0
 42
0.0000000001
 43
0.0000000001
 40
0.0
 40
0.0
 40
0.0
 40
0.0
 40
1.0
 40
1.0
 40
1.0
 40
1.0
 10
-5.1364
 20
-0.8353
 30
0.0
 10
-5.1364
 20
-0.8353
 30
0.0
 10
-3.8334
 20
-0.8353
 30
0.0
 10
-3.8334
 20
-0.8353
 30
0.0
  0
SPLINE
  5
CD
330
1F
100
AcDbEntity
  8
Vrstva 1
 62
   250
370
    18
100
AcDbSpline
210
0.0
220
0.0
230
1.0
 70
    24
 71
     3
 72
     8
 73
     4
 74
     0
 42
0.0000000001
 43
0.0000000001
 40
0.0
 40
0.0
 40
0.0
 40
0.0
 40
1.0
 40
1.0
 40
1.0
 40
1.0
 10
-0.9834
 20
-2.3475
 30
0.0
 10
-0.9834
 20
-2.3475
 30
0.0
 10
0.7411
 20
-0.9007
 30
0.0
 10
0.7411
 20
-0.9007
 30
0.0
  0
SPLINE
  5
CE
330
1F
100
AcDbEntity
  8
Vrstva 1
 62
   250
370
    18
100
AcDbSpline
210
0.0
220
0.0
230
1.0
 70
    24
 71
     3
 72
     8
 73
     4
 74
     0
 42
0.0000000001
 43
0.0000000001
 40
0.0
 40
0.0
 40
0.0
 40
0.0
 40
1.0
 40
1.0
 40
1.0
 40
1.0
 10
0.7411
 20
-0.9007
 30
0.0
 10
0.7411
 20
-0.9007
 30
0.0
 10
0.7411
 20
8.1126
 30
0.0
 10
0.7411
 20
8.1126
 30
0.0
  0
SPLINE
  5
CF
330
1F
100
AcDbEntity
  8
Vrstva 1
 62
   250
370
    18
100
AcDbSpline
210
0.0
220
0.0
230
1.0
 70
    24
 71
     3
 72
     8
 73
     4
 74
     0
 42
0.0000000001
 43
0.0000000001
 40
0.0
 40
0.0
 40
0.0
 40
0.0
 40
1.0
 40
1.0
 40
1.0
 40
1.0
 10
-0.9834
 20
-2.3475
 30
0.0
 10
-0.9834
 20
-2.3475
 30
0.0
 10
-0.9834
 20
9.5596
 30
0.0
 10
-0.9834
 20
9.5596
 30
0.0
  0
SPLINE
  5
D0
330
1F
100
AcDbEntity
  8
Vrstva 1
 62
   250
370
    18
100
AcDbSpline
210
0.0
220
0.0
230
1.0
 70
    24
 71
     3
 72
     8
 73
     4
 74
     0
 42
0.0000000001
 43
0.0000000001
 40
0.0
 40
0.0
 40
0.0
 40
0.0
 40
1.0
 40
1.0
 40
1.0
 40
1.0
 10
-1.2278
 20
-2.3626
 30
0.0
 10
-1.2278
 20
-2.3626
 30
0.0
 10
-1.2278
 20
9.5746
 30
0.0
 10
-1.2278
 20
9.5746
 30
0.0
  0
SPLINE
  5
D1
330
1F
100
AcDbEntity
  8
Vrstva 1
 62
   250
370
    18
100
AcDbSpline
210
0.0
220
0.0
230
1.0
 70
    24
 71
     3
 72
     8
 73
     4
 74
     0
 42
0.0000000001
 43
0.0000000001
 40
0.0
 40
0.0
 40
0.0
 40
0.0
 40
1.0
 40
1.0
 40
1.0
 40
1.0
 10
-3.3664
 20
-0.9735
 30
0.0
 10
-3.3664
 20
-0.9735
 30
0.0
 10
-3.3664
 20
8.1856
 30
0.0
 10
-3.3664
 20
8.1856
 30
0.0
  0
SPLINE
  5
D2
330
1F
100
AcDbEntity
  8
Vrstva 1
 62
   250
370
    18
100
AcDbSpline
210
0.0
220
0.0
230
1.0
 70
    24
 71
     3
 72
     8
 73
     4
 74
     0
 42
0.0000000001
 43
0.0000000001
 40
0.0
 40
0.0
 40
0.0
 40
0.0
 40
1.0
 40
1.0
 40
1.0
 40
1.0
 10
-3.8334
 20
-0.8353
 30
0.0
 10
-3.8334
 20
-0.8353
 30
0.0
 10
-3.8334
 20
8.0472
 30
0.0
 10
-3.8334
 20
8.0472
 30
0.0
  0
SPLINE
  5
D3
330
1F
100
AcDbEntity
  8
Vrstva 1
 62
   250
370
    18
100
AcDbSpline
210
0.0
220
0.0
230
1.0
 70
    24
 71
     3
 72
     8
 73
     4
 74
     0
 42
0.0000000001
 43
0.0000000001
 40
0.0
 40
0.0
 40
0.0
 40
0.0
 40
1.0
 40
1.0
 40
1.0
 40
1.0
 10
-3.3664
 20
-0.9735
 30
0.0
 10
-3.3664
 20
-0.9735
 30
0.0
 10
-1.2278
 20
-2.3626
 30
0.0
 10
-1.2278
 20
-2.3626
 30
0.0
  0
SPLINE
  5
D4
330
1F
100
AcDbEntity
  8
Vrstva 1
 62
   250
370
    18
100
AcDbSpline
210
0.0
220
0.0
230
1.0
 70
    24
 71
     3
 72
     8
 73
     4
 74
     0
 42
0.0000000001
 43
0.0000000001
 40
0.0
 40
0.0
 40
0.0
 40
0.0
 40
1.0
 40
1.0
 40
1.0
 40
1.0
 10
-5.1364
 20
8.0472
 30
0.0
 10
-5.1364
 20
8.0472
 30
0.0
 10
-3.8334
 20
8.0472
 30
0.0
 10
-3.8334
 20
8.0472
 30
0.0
  0
SPLINE
  5
D5
330
1F
100
AcDbEntity
  8
Vrstva 1
 62
   250
370
    18
100
AcDbSpline
210
0.0
220
0.0
230
1.0
 70
    24
 71
     3
 72
     8
 73
     4
 74
     0
 42
0.0000000001
 43
0.0000000001
 40
0.0
 40
0.0
 40
0.0
 40
0.0
 40
1.0
 40
1.0
 40
1.0
 40
1.0
 10
-3.3664
 20
8.1856
 30
0.0
 10
-3.3664
 20
8.1856
 30
0.0
 10
-1.2278
 20
9.5746
 30
0.0
 10
-1.2278
 20
9.5746
 30
0.0
  0
SPLINE
  5
D6
330
1F
100
AcDbEntity
  8
Vrstva 1
 62
   250
370
    18
100
AcDbSpline
210
0.0
220
0.0
230
1.0
 70
     8
 71
     3
 72
     8
 73
     4
 74
     0
 42
0.0000000001
 43
0.0000000001
 40
0.0
 40
0.0
 40
0.0
 40
0.0
 40
1.0
 40
1.0
 40
1.0
 40
1.0
 10
-0.9834
 20
-2.3475
 30
0.0
 10
-1.0526
 20
-2.4058
 30
0.0
 10
-1.1518
 20
-2.4118
 30
0.0
 10
-1.2278
 20
-2.3626
 30
0.0
  0
SPLINE
  5
D7
330
1F
100
AcDbEntity
  8
Vrstva 1
 62
   250
370
    18
100
AcDbSpline
210
0.0
220
0.0
230
1.0
 70
     8
 71
     3
 72
     8
 73
     4
 74
     0
 42
0.0000000001
 43
0.0000000001
 40
0.0
 40
0.0
 40
0.0
 40
0.0
 40
1.0
 40
1.0
 40
1.0
 40
1.0
 10
-3.8334
 20
-0.8353
 30
0.0
 10
-3.6677
 20
-0.8353
 30
0.0
 10
-3.5055
 20
-0.8833
 30
0.0
 10
-3.3664
 20
-0.9735
 30
0.0
  0
SPLINE
  5
D8
330
1F
100
AcDbEntity
  8
Vrstva 1
 62
   250
370
    18
100
AcDbSpline
210
0.0
220
0.0
230
1.0
 70
     8
 71
     3
 72
     8
 73
     4
 74
     0
 42
0.0000000001
 43
0.0000000001
 40
0.0
 40
0.0
 40
0.0
 40
0.0
 40
1.0
 40
1.0
 40
1.0
 40
1.0
 10
-3.3664
 20
8.1856
 30
0.0
 10
-3.5055
 20
8.0953
 30
0.0
 10
-3.6677
 20
8.0472
 30
0.0
 10
-3.8334
 20
8.0472
 30
0.0
  0
SPLINE
  5
D9
330
1F
100
AcDbEntity
  8
Vrstva 1
 62
   250
370
    18
100
AcDbSpline
210
0.0
220
0.0
230
1.0
 70
     8
 71
     3
 72
     8
 73
     4
 74
     0
 42
0.0000000001
 43
0.0000000001
 40
0.0
 40
0.0
 40
0.0
 40
0.0
 40
1.0
 40
1.0
 40
1.0
 40
1.0
 10
-1.2278
 20
9.5746
 30
0.0
 10
-1.1518
 20
9.6238
 30
0.0
 10
-1.0526
 20
9.6177
 30
0.0
 10
-0.9834
 20
9.5596
 30
0.0
  0
SPLINE
  5
DA
330
1F
100
AcDbEntity
  8
Vrstva 1
370
    18
100
AcDbSpline
210
0.0
220
0.0
230
1.0
 70
    24
 71
     3
 72
     8
 73
     4
 74
     0
 42
0.0000000001
 43
0.0000000001
 40
0.0
 40
0.0
 40
0.0
 40
0.0
 40
1.0
 40
1.0
 40
1.0
 40
1.0
 10
41.8032
 20
-2.8554
 30
0.0
 10
41.8032
 20
-2.8554
 30
0.0
 10
41.8034
 20
9.805
 30
0.0
 10
41.8034
 20
9.805
 30
0.0
  0
SPLINE
  5
DB
330
1F
100
AcDbEntity
  8
Vrstva 1
370
    18
100
AcDbSpline
210
0.0
220
0.0
230
1.0
 70
    24
 71
     3
 72
     8
 73
     4
 74
     0
 42
0.0000000001
 43
0.0000000001
 40
0.0
 40
0.0
 40
0.0
 40
0.0
 40
1.0
 40
1.0
 40
1.0
 40
1.0
 10
41.8032
 20
10.0672
 30
0.0
 10
41.8032
 20
10.0672
 30
0.0
 10
41.8034
 20
-2.5928
 30
0.0
 10
41.8034
 20
-2.5928
 30
0.0
  0
SPLINE
  5
DC
330
1F
100
AcDbEntity
  8
Vrstva 1
370
    18
100
AcDbSpline
210
0.0
220
0.0
230
1.0
 70
    24
 71
     3
 72
     8
 73
     4
 74
     0
 42
0.0000000001
 43
0.0000000001
 40
0.0
 40
0.0
 40
0.0
 40
0.0
 40
1.0
 40
1.0
 40
1.0
 40
1.0
 10
41.1177
 20
-3.2513
 30
0.0
 10
41.1177
 20
-3.2513
 30
0.0
 10
41.1177
 20
10.4632
 30
0.0
 10
41.1177
 20
10.4632
 30
0.0
  0
SPLINE
  5
DD
330
1F
100
AcDbEntity
  8
Vrstva 1
370
    18
100
AcDbSpline
210
0.0
220
0.0
230
1.0
 70
     8
 71
     3
 72
    16
 73
    12
 74
     0
 42
0.0000000001
 43
0.0000000001
 40
0.0
 40
0.0
 40
0.0
 40
0.0
 40
0.25
 40
0.25
 40
0.25
 40
0.25
 40
0.5
 40
0.5
 40
0.5
 40
0.5
 40
1.0
 40
1.0
 40
1.0
 40
1.0
 10
41.8032
 20
-2.8554
 30
0.0
 10
41.8032
 20
-2.8554
 30
0.0
 10
41.1177
 20
-3.2513
 30
0.0
 10
41.1177
 20
-3.2513
 30
0.0
 10
41.1177
 20
-3.2513
 30
0.0
 10
41.1177
 20
-3.2513
 30
0.0
 10
40.4319
 20
-3.2513
 30
0.0
 10
40.4319
 20
-3.2513
 30
0.0
 10
40.4319
 20
-3.2513
 30
0.0
 10
40.4319
 20
-3.2513
 30
0.0
 10
27.3971
 20
-3.2513
 30
0.0
 10
27.3971
 20
-3.2513
 30
0.0
  0
SPLINE
  5
DE
330
1F
100
AcDbEntity
  8
Vrstva 1
370
    18
100
AcDbSpline
210
0.0
220
0.0
230
1.0
 70
     8
 71
     3
 72
    20
 73
    16
 74
     0
 42
0.0000000001
 43
0.0000000001
 40
0.0
 40
0.0
 40
0.0
 40
0.0
 40
0.2
 40
0.2
 40
0.2
 40
0.2
 40
0.4
 40
0.4
 40
0.4
 40
0.4
 40
0.6
 40
0.6
 40
0.6
 40
0.6
 40
1.0
 40
1.0
 40
1.0
 40
1.0
 10
27.3971
 20
-3.2513
 30
0.0
 10
27.3184
 20
-3.2513
 30
0.0
 10
26.7318
 20
-3.3392
 30
0.0
 10
26.5166
 20
-3.1905
 30
0.0
 10
26.5166
 20
-3.1905
 30
0.0
 10
26.4349
 20
-3.1341
 30
0.0
 10
26.3808
 20
-3.0427
 30
0.0
 10
26.3704
 20
-2.944
 30
0.0
 10
26.3704
 20
-2.944
 30
0.0
 10
26.36
 20
-2.8432
 30
0.0
 10
26.3923
 20
-2.7289
 30
0.0
 10
26.3042
 20
-2.6561
 30
0.0
 10
26.3042
 20
-2.6561
 30
0.0
 10
26.2735
 20
-2.6309
 30
0.0
 10
26.2347
 20
-2.617
 30
0.0
 10
26.195
 20
-2.617
 30
0.0
  0
SPLINE
  5
DF
330
1F
100
AcDbEntity
  8
Vrstva 1
370
    18
100
AcDbSpline
210
0.0
220
0.0
230
1.0
 70
    24
 71
     3
 72
    16
 73
    12
 74
     0
 42
0.0000000001
 43
0.0000000001
 40
0.0
 40
0.0
 40
0.0
 40
0.0
 40
0.25
 40
0.25
 40
0.25
 40
0.25
 40
0.5
 40
0.5
 40
0.5
 40
0.5
 40
1.0
 40
1.0
 40
1.0
 40
1.0
 10
26.195
 20
-2.617
 30
0.0
 10
26.195
 20
-2.617
 30
0.0
 10
25.5092
 20
-2.617
 30
0.0
 10
25.5092
 20
-2.617
 30
0.0
 10
25.5092
 20
-2.617
 30
0.0
 10
25.5092
 20
-2.617
 30
0.0
 10
24.3472
 20
-2.617
 30
0.0
 10
24.3472
 20
-2.617
 30
0.0
 10
24.3472
 20
-2.617
 30
0.0
 10
24.3472
 20
-2.617
 30
0.0
 10
23.6614
 20
-2.617
 30
0.0
 10
23.6614
 20
-2.617
 30
0.0
  0
SPLINE
  5
E0
330
1F
100
AcDbEntity
  8
Vrstva 1
370
    18
100
AcDbSpline
210
0.0
220
0.0
230
1.0
 70
     8
 71
     3
 72
    12
 73
     8
 74
     0
 42
0.0000000001
 43
0.0000000001
 40
0.0
 40
0.0
 40
0.0
 40
0.0
 40
0.3333333333333333
 40
0.3333333333333333
 40
0.3333333333333333
 40
0.3333333333333333
 40
1.0
 40
1.0
 40
1.0
 40
1.0
 10
23.6614
 20
-2.617
 30
0.0
 10
23.6264
 20
-2.6169
 30
0.0
 10
23.592
 20
-2.6059
 30
0.0
 10
23.5634
 20
-2.5858
 30
0.0
 10
23.5634
 20
-2.5858
 30
0.0
 10
23.5179
 20
-2.554
 30
0.0
 10
23.4902
 20
-2.501
 30
0.0
 10
23.4902
 20
-2.4455
 30
0.0
  0
SPLINE
  5
E1
330
1F
100
AcDbEntity
  8
Vrstva 1
370
    18
100
AcDbSpline
210
0.0
220
0.0
230
1.0
 70
    24
 71
     3
 72
    16
 73
    12
 74
     0
 42
0.0000000001
 43
0.0000000001
 40
0.0
 40
0.0
 40
0.0
 40
0.0
 40
0.25
 40
0.25
 40
0.25
 40
0.25
 40
0.5
 40
0.5
 40
0.5
 40
0.5
 40
1.0
 40
1.0
 40
1.0
 40
1.0
 10
23.4902
 20
-2.4455
 30
0.0
 10
23.4902
 20
-2.4455
 30
0.0
 10
23.4902
 20
-1.7597
 30
0.0
 10
23.4902
 20
-1.7597
 30
0.0
 10
23.4902
 20
-1.7597
 30
0.0
 10
23.4902
 20
-1.7597
 30
0.0
 10
23.4902
 20
8.9716
 30
0.0
 10
23.4902
 20
8.9716
 30
0.0
 10
23.4902
 20
8.9716
 30
0.0
 10
23.4902
 20
8.9716
 30
0.0
 10
23.4902
 20
9.6575
 30
0.0
 10
23.4902
 20
9.6575
 30
0.0
  0
SPLINE
  5
E2
330
1F
100
AcDbEntity
  8
Vrstva 1
370
    18
100
AcDbSpline
210
0.0
220
0.0
230
1.0
 70
     8
 71
     3
 72
    12
 73
     8
 74
     0
 42
0.0000000001
 43
0.0000000001
 40
0.0
 40
0.0
 40
0.0
 40
0.0
 40
0.3333333333333333
 40
0.3333333333333333
 40
0.3333333333333333
 40
0.3333333333333333
 40
1.0
 40
1.0
 40
1.0
 40
1.0
 10
23.4902
 20
9.6575
 30
0.0
 10
23.4902
 20
9.7128
 30
0.0
 10
23.5179
 20
9.766
 30
0.0
 10
23.5634
 20
9.7979
 30
0.0
 10
23.5634
 20
9.7979
 30
0.0
 10
23.592
 20
9.818
 30
0.0
 10
23.6264
 20
9.8288
 30
0.0
 10
23.6614
 20
9.8288
 30
0.0
  0
SPLINE
  5
E3
330
1F
100
AcDbEntity
  8
Vrstva 1
370
    18
100
AcDbSpline
210
0.0
220
0.0
230
1.0
 70
    24
 71
     3
 72
    16
 73
    12
 74
     0
 42
0.0000000001
 43
0.0000000001
 40
0.0
 40
0.0
 40
0.0
 40
0.0
 40
0.25
 40
0.25
 40
0.25
 40
0.25
 40
0.5
 40
0.5
 40
0.5
 40
0.5
 40
1.0
 40
1.0
 40
1.0
 40
1.0
 10
23.6614
 20
9.8288
 30
0.0
 10
23.6614
 20
9.8288
 30
0.0
 10
24.3472
 20
9.8288
 30
0.0
 10
24.3472
 20
9.8288
 30
0.0
 10
24.3472
 20
9.8288
 30
0.0
 10
24.3472
 20
9.8288
 30
0.0
 10
25.5092
 20
9.8288
 30
0.0
 10
25.5092
 20
9.8288
 30
0.0
 10
25.5092
 20
9.8288
 30
0.0
 10
25.5092
 20
9.8288
 30
0.0
 10
26.195
 20
9.8288
 30
0.0
 10
26.195
 20
9.8288
 30
0.0
  0
SPLINE
  5
E4
330
1F
100
AcDbEntity
  8
Vrstva 1
370
    18
100
AcDbSpline
210
0.0
220
0.0
230
1.0
 70
     8
 71
     3
 72
    16
 73
    12
 74
     0
 42
0.0000000001
 43
0.0000000001
 40
0.0
 40
0.0
 40
0.0
 40
0.0
 40
0.25
 40
0.25
 40
0.25
 40
0.25
 40
0.5
 40
0.5
 40
0.5
 40
0.5
 40
1.0
 40
1.0
 40
1.0
 40
1.0
 10
26.195
 20
9.8288
 30
0.0
 10
26.2395
 20
9.8288
 30
0.0
 10
26.2833
 20
9.8468
 30
0.0
 10
26.3151
 20
9.8779
 30
0.0
 10
26.3151
 20
9.8779
 30
0.0
 10
26.3907
 20
9.9523
 30
0.0
 10
26.3605
 20
10.0608
 30
0.0
 10
26.3704
 20
10.1559
 30
0.0
 10
26.3704
 20
10.1559
 30
0.0
 10
26.3883
 20
10.3283
 30
0.0
 10
26.5383
 20
10.4627
 30
0.0
 10
26.7116
 20
10.4632
 30
0.0
  0
SPLINE
  5
E5
330
1F
100
AcDbEntity
  8
Vrstva 1
370
    18
100
AcDbSpline
210
0.0
220
0.0
230
1.0
 70
     8
 71
     3
 72
    20
 73
    16
 74
     0
 42
0.0000000001
 43
0.0000000001
 40
0.0
 40
0.0
 40
0.0
 40
0.0
 40
0.2
 40
0.2
 40
0.2
 40
0.2
 40
0.4
 40
0.4
 40
0.4
 40
0.4
 40
0.6
 40
0.6
 40
0.6
 40
0.6
 40
1.0
 40
1.0
 40
1.0
 40
1.0
 10
26.7116
 20
10.4632
 30
0.0
 10
26.7116
 20
10.4632
 30
0.0
 10
27.3971
 20
10.4632
 30
0.0
 10
27.3971
 20
10.4632
 30
0.0
 10
27.3971
 20
10.4632
 30
0.0
 10
27.3971
 20
10.4632
 30
0.0
 10
40.4319
 20
10.4632
 30
0.0
 10
40.4319
 20
10.4632
 30
0.0
 10
40.4319
 20
10.4632
 30
0.0
 10
40.4319
 20
10.4632
 30
0.0
 10
41.1177
 20
10.4632
 30
0.0
 10
41.1177
 20
10.4632
 30
0.0
 10
41.1177
 20
10.4632
 30
0.0
 10
41.1177
 20
10.4632
 30
0.0
 10
41.8032
 20
10.0672
 30
0.0
 10
41.8032
 20
10.0672
 30
0.0
  0
SPLINE
  5
E6
330
1F
100
AcDbEntity
  8
Vrstva 1
370
    18
100
AcDbSpline
210
0.0
220
0.0
230
1.0
 70
     8
 71
     3
 72
     8
 73
     4
 74
     0
 42
0.0000000001
 43
0.0000000001
 40
0.0
 40
0.0
 40
0.0
 40
0.0
 40
1.0
 40
1.0
 40
1.0
 40
1.0
 10
26.3687
 20
-2.9144
 30
0.0
 10
26.3687
 20
1.3893
 30
0.0
 10
26.3664
 20
5.6933
 30
0.0
 10
26.3664
 20
9.9971
 30
0.0
  0
SPLINE
  5
E7
330
1F
100
AcDbEntity
  8
Vrstva 1
370
    18
100
AcDbSpline
210
0.0
220
0.0
230
1.0
 70
     8
 71
     3
 72
     8
 73
     4
 74
     0
 42
0.0000000001
 43
0.0000000001
 40
0.0
 40
0.0
 40
0.0
 40
0.0
 40
1.0
 40
1.0
 40
1.0
 40
1.0
 10
26.3664
 20
-2.7853
 30
0.0
 10
26.3664
 20
1.5185
 30
0.0
 10
26.3687
 20
5.8224
 30
0.0
 10
26.3687
 20
10.1262
 30
0.0
  0
SPLINE
  5
E8
330
1F
100
AcDbEntity
  8
Vrstva 1
370
    18
100
AcDbSpline
210
0.0
220
0.0
230
1.0
 70
    24
 71
     3
 72
     8
 73
     4
 74
     0
 42
0.0000000001
 43
0.0000000001
 40
0.0
 40
0.0
 40
0.0
 40
0.0
 40
1.0
 40
1.0
 40
1.0
 40
1.0
 10
23.2392
 20
-1.8678
 30
0.0
 10
23.2392
 20
-1.8678
 30
0.0
 10
23.2392
 20
9.0799
 30
0.0
 10
23.2392
 20
9.0799
 30
0.0
  0
SPLINE
  5
E9
330
1F
100
AcDbEntity
  8
Vrstva 1
370
    18
100
AcDbSpline
210
0.0
220
0.0
230
1.0
 70
     8
 71
     3
 72
     8
 73
     4
 74
     0
 42
0.0000000001
 43
0.0000000001
 40
0.0
 40
0.0
 40
0.0
 40
0.0
 40
1.0
 40
1.0
 40
1.0
 40
1.0
 10
23.206
 20
-1.8347
 30
0.0
 10
23.3544
 20
-1.9039
 30
0.0
 10
23.287
 20
-2.1622
 30
0.0
 10
23.4899
 20
-2.1713
 30
0.0
  0
SPLINE
  5
EA
330
1F
100
AcDbEntity
  8
Vrstva 1
370
    18
100
AcDbSpline
210
0.0
220
0.0
230
1.0
 70
     8
 71
     3
 72
    12
 73
     8
 74
     0
 42
0.0000000001
 43
0.0000000001
 40
0.0
 40
0.0
 40
0.0
 40
0.0
 40
0.3333333333333333
 40
0.3333333333333333
 40
0.3333333333333333
 40
0.3333333333333333
 40
1.0
 40
1.0
 40
1.0
 40
1.0
 10
23.4899
 20
9.3831
 30
0.0
 10
23.4231
 20
9.3802
 30
0.0
 10
23.3633
 20
9.3458
 30
0.0
 10
23.3343
 20
9.2843
 30
0.0
 10
23.3343
 20
9.2843
 30
0.0
 10
23.324
 20
9.2621
 30
0.0
 10
23.2749
 20
9.0444
 30
0.0
 10
23.1771
 20
9.0403
 30
0.0
  0
SPLINE
  5
EB
330
1F
100
AcDbEntity
  8
Vrstva 1
370
    18
100
AcDbSpline
210
0.0
220
0.0
230
1.0
 70
    24
 71
     3
 72
     8
 73
     4
 74
     0
 42
0.0000000001
 43
0.0000000001
 40
0.0
 40
0.0
 40
0.0
 40
0.0
 40
1.0
 40
1.0
 40
1.0
 40
1.0
 10
-5.1264
 20
8.9736
 30
0.0
 10
-5.1264
 20
8.9736
 30
0.0
 10
-5.1264
 20
-1.895
 30
0.0
 10
-5.1264
 20
-1.895
 30
0.0
  0
SPLINE
  5
EC
330
1F
100
AcDbEntity
  8
Vrstva 1
370
    18
100
AcDbSpline
210
0.0
220
0.0
230
1.0
 70
     8
 71
     3
 72
     8
 73
     4
 74
     0
 42
0.0000000001
 43
0.0000000001
 40
0.0
 40
0.0
 40
0.0
 40
0.0
 40
1.0
 40
1.0
 40
1.0
 40
1.0
 10
-5.1263
 20
-1.8939
 30
0.0
 10
-5.3052
 20
-1.8806
 30
0.0
 10
-5.4913
 20
-1.895
 30
0.0
 10
-5.673
 20
-1.895
 30
0.0
  0
SPLINE
  5
ED
330
1F
100
AcDbEntity
  8
Vrstva 1
370
    18
100
AcDbSpline
210
0.0
220
0.0
230
1.0
 70
    24
 71
     3
 72
     8
 73
     4
 74
     0
 42
0.0000000001
 43
0.0000000001
 40
0.0
 40
0.0
 40
0.0
 40
0.0
 40
1.0
 40
1.0
 40
1.0
 40
1.0
 10
-5.673
 20
-1.895
 30
0.0
 10
-5.673
 20
-1.895
 30
0.0
 10
-6.2194
 20
-1.895
 30
0.0
 10
-6.2194
 20
-1.895
 30
0.0
  0
SPLINE
  5
EE
330
1F
100
AcDbEntity
  8
Vrstva 1
370
    18
100
AcDbSpline
210
0.0
220
0.0
230
1.0
 70
     8
 71
     3
 72
    12
 73
     8
 74
     0
 42
0.0000000001
 43
0.0000000001
 40
0.0
 40
0.0
 40
0.0
 40
0.0
 40
0.3333333333333333
 40
0.3333333333333333
 40
0.3333333333333333
 40
0.3333333333333333
 40
1.0
 40
1.0
 40
1.0
 40
1.0
 10
-6.2194
 20
-1.895
 30
0.0
 10
-6.3171
 20
-1.8992
 30
0.0
 10
-6.3666
 20
-2.1169
 30
0.0
 10
-6.377
 20
-2.1388
 30
0.0
 10
-6.377
 20
-2.1388
 30
0.0
 10
-6.4059
 20
-2.2005
 30
0.0
 10
-6.4657
 20
-2.235
 30
0.0
 10
-6.5323
 20
-2.238
 30
0.0
  0
SPLINE
  5
EF
330
1F
100
AcDbEntity
  8
Vrstva 1
370
    18
100
AcDbSpline
210
0.0
220
0.0
230
1.0
 70
     8
 71
     3
 72
    12
 73
     8
 74
     0
 42
0.0000000001
 43
0.0000000001
 40
0.0
 40
0.0
 40
0.0
 40
0.0
 40
0.3333333333333333
 40
0.3333333333333333
 40
0.3333333333333333
 40
0.3333333333333333
 40
1.0
 40
1.0
 40
1.0
 40
1.0
 10
-5.1263
 20
8.9735
 30
0.0
 10
-5.2393
 20
8.9735
 30
0.0
 10
-6.1331
 20
8.948
 30
0.0
 10
-6.2371
 20
8.976
 30
0.0
 10
-6.2371
 20
8.976
 30
0.0
 10
-6.2565
 20
8.981
 30
0.0
 10
-6.2731
 20
8.9949
 30
0.0
 10
-6.2815
 20
9.013
 30
0.0
  0
SPLINE
  5
F0
330
1F
100
AcDbEntity
  8
Vrstva 1
370
    18
100
AcDbSpline
210
0.0
220
0.0
230
1.0
 70
    24
 71
     3
 72
     8
 73
     4
 74
     0
 42
0.0000000001
 43
0.0000000001
 40
0.0
 40
0.0
 40
0.0
 40
0.0
 40
1.0
 40
1.0
 40
1.0
 40
1.0
 10
-6.2817
 20
9.0131
 30
0.0
 10
-6.2817
 20
9.0131
 30
0.0
 10
-6.377
 20
9.2176
 30
0.0
 10
-6.377
 20
9.2176
 30
0.0
  0
SPLINE
  5
F1
330
1F
100
AcDbEntity
  8
Vrstva 1
370
    18
100
AcDbSpline
210
0.0
220
0.0
230
1.0
 70
     8
 71
     3
 72
     8
 73
     4
 74
     0
 42
0.0000000001
 43
0.0000000001
 40
0.0
 40
0.0
 40
0.0
 40
0.0
 40
1.0
 40
1.0
 40
1.0
 40
1.0
 10
-6.377
 20
9.2176
 30
0.0
 10
-6.4059
 20
9.2791
 30
0.0
 10
-6.4657
 20
9.3135
 30
0.0
 10
-6.5323
 20
9.3164
 30
0.0
  0
SPLINE
  5
F2
330
1F
100
AcDbEntity
  8
Vrstva 1
370
    18
100
AcDbSpline
210
0.0
220
0.0
230
1.0
 70
    24
 71
     3
 72
     8
 73
     4
 74
     0
 42
0.0000000001
 43
0.0000000001
 40
0.0
 40
0.0
 40
0.0
 40
0.0
 40
1.0
 40
1.0
 40
1.0
 40
1.0
 10
-42.0186
 20
11.4592
 30
0.0
 10
-42.0186
 20
11.4592
 30
0.0
 10
-42.0186
 20
-4.3807
 30
0.0
 10
-42.0186
 20
-4.3807
 30
0.0
  0
SPLINE
  5
F3
330
1F
100
AcDbEntity
  8
Vrstva 1
370
    18
100
AcDbSpline
210
0.0
220
0.0
230
1.0
 70
    24
 71
     3
 72
     8
 73
     4
 74
     0
 42
0.0000000001
 43
0.0000000001
 40
0.0
 40
0.0
 40
0.0
 40
0.0
 40
1.0
 40
1.0
 40
1.0
 40
1.0
 10
-42.0186
 20
11.7148
 30
0.0
 10
-42.0186
 20
11.7148
 30
0.0
 10
-42.0186
 20
-4.6364
 30
0.0
 10
-42.0186
 20
-4.6364
 30
0.0
  0
SPLINE
  5
F4
330
1F
100
AcDbEntity
  8
Vrstva 1
370
    18
100
AcDbSpline
210
0.0
220
0.0
230
1.0
 70
    24
 71
     3
 72
     8
 73
     4
 74
     0
 42
0.0000000001
 43
0.0000000001
 40
0.0
 40
0.0
 40
0.0
 40
0.0
 40
1.0
 40
1.0
 40
1.0
 40
1.0
 10
-9.4109
 20
-2.9811
 30
0.0
 10
-9.4109
 20
-2.9811
 30
0.0
 10
-9.4109
 20
10.0596
 30
0.0
 10
-9.4109
 20
10.0596
 30
0.0
  0
SPLINE
  5
F5
330
1F
100
AcDbEntity
  8
Vrstva 1
370
    18
100
AcDbSpline
210
0.0
220
0.0
230
1.0
 70
    24
 71
     3
 72
     8
 73
     4
 74
     0
 42
0.0000000001
 43
0.0000000001
 40
0.0
 40
0.0
 40
0.0
 40
0.0
 40
1.0
 40
1.0
 40
1.0
 40
1.0
 10
-9.4086
 20
9.9304
 30
0.0
 10
-9.4086
 20
9.9304
 30
0.0
 10
-9.4086
 20
-2.8521
 30
0.0
 10
-9.4086
 20
-2.8521
 30
0.0
  0
SPLINE
  5
F6
330
1F
100
AcDbEntity
  8
Vrstva 1
370
    18
100
AcDbSpline
210
0.0
220
0.0
230
1.0
 70
    24
 71
     3
 72
     8
 73
     4
 74
     0
 42
0.0000000001
 43
0.0000000001
 40
0.0
 40
0.0
 40
0.0
 40
0.0
 40
1.0
 40
1.0
 40
1.0
 40
1.0
 10
-24.6772
 20
-3.318
 30
0.0
 10
-24.6772
 20
-3.318
 30
0.0
 10
-24.6772
 20
10.3965
 30
0.0
 10
-24.6772
 20
10.3965
 30
0.0
  0
SPLINE
  5
F7
330
1F
100
AcDbEntity
  8
Vrstva 1
370
    18
100
AcDbSpline
210
0.0
220
0.0
230
1.0
 70
    24
 71
     3
 72
     8
 73
     4
 74
     0
 42
0.0000000001
 43
0.0000000001
 40
0.0
 40
0.0
 40
0.0
 40
0.0
 40
1.0
 40
1.0
 40
1.0
 40
1.0
 10
-24.8725
 20
11.9424
 30
0.0
 10
-24.8725
 20
11.9424
 30
0.0
 10
-24.8725
 20
-4.8638
 30
0.0
 10
-24.8725
 20
-4.8638
 30
0.0
  0
SPLINE
  5
F8
330
1F
100
AcDbEntity
  8
Vrstva 1
370
    18
100
AcDbSpline
210
0.0
220
0.0
230
1.0
 70
    24
 71
     3
 72
     8
 73
     4
 74
     0
 42
0.0000000001
 43
0.0000000001
 40
0.0
 40
0.0
 40
0.0
 40
0.0
 40
1.0
 40
1.0
 40
1.0
 40
1.0
 10
-24.8485
 20
10.3255
 30
0.0
 10
-24.8485
 20
10.3255
 30
0.0
 10
-24.8485
 20
10.5648
 30
0.0
 10
-24.8485
 20
10.5648
 30
0.0
  0
SPLINE
  5
F9
330
1F
100
AcDbEntity
  8
Vrstva 1
370
    18
100
AcDbSpline
210
0.0
220
0.0
230
1.0
 70
    24
 71
     3
 72
     8
 73
     4
 74
     0
 42
0.0000000001
 43
0.0000000001
 40
0.0
 40
0.0
 40
0.0
 40
0.0
 40
1.0
 40
1.0
 40
1.0
 40
1.0
 10
-24.8485
 20
-3.2468
 30
0.0
 10
-24.8485
 20
-3.2468
 30
0.0
 10
-24.8485
 20
-3.4863
 30
0.0
 10
-24.8485
 20
-3.4863
 30
0.0
  0
SPLINE
  5
FA
330
1F
100
AcDbEntity
  8
Vrstva 1
370
    18
100
AcDbSpline
210
0.0
220
0.0
230
1.0
 70
     8
 71
     3
 72
     8
 73
     4
 74
     0
 42
0.0000000001
 43
0.0000000001
 40
0.0
 40
0.0
 40
0.0
 40
0.0
 40
1.0
 40
1.0
 40
1.0
 40
1.0
 10
-24.8476
 20
10.5501
 30
0.0
 10
-24.7999
 20
10.2281
 30
0.0
 10
-23.9948
 20
10.3965
 30
0.0
 10
-23.9914
 20
10.3965
 30
0.0
  0
SPLINE
  5
FB
330
1F
100
AcDbEntity
  8
Vrstva 1
370
    18
100
AcDbSpline
210
0.0
220
0.0
230
1.0
 70
    24
 71
     3
 72
    12
 73
     8
 74
     0
 42
0.0000000001
 43
0.0000000001
 40
0.0
 40
0.0
 40
0.0
 40
0.0
 40
0.3333333333333333
 40
0.3333333333333333
 40
0.3333333333333333
 40
0.3333333333333333
 40
1.0
 40
1.0
 40
1.0
 40
1.0
 10
-23.9914
 20
10.3965
 30
0.0
 10
-23.9914
 20
10.3965
 30
0.0
 10
-10.4392
 20
10.3965
 30
0.0
 10
-10.4392
 20
10.3965
 30
0.0
 10
-10.4392
 20
10.3965
 30
0.0
 10
-10.4392
 20
10.3965
 30
0.0
 10
-9.7535
 20
10.3965
 30
0.0
 10
-9.7535
 20
10.3965
 30
0.0
  0
SPLINE
  5
FC
330
1F
100
AcDbEntity
  8
Vrstva 1
370
    18
100
AcDbSpline
210
0.0
220
0.0
230
1.0
 70
     8
 71
     3
 72
    16
 73
    12
 74
     0
 42
0.0000000001
 43
0.0000000001
 40
0.0
 40
0.0
 40
0.0
 40
0.0
 40
0.25
 40
0.25
 40
0.25
 40
0.25
 40
0.5
 40
0.5
 40
0.5
 40
0.5
 40
1.0
 40
1.0
 40
1.0
 40
1.0
 10
-9.7535
 20
10.3965
 30
0.0
 10
-9.5803
 20
10.396
 30
0.0
 10
-9.4305
 20
10.2616
 30
0.0
 10
-9.4124
 20
10.0892
 30
0.0
 10
-9.4124
 20
10.0892
 30
0.0
 10
-9.402
 20
9.9886
 30
0.0
 10
-9.4344
 20
9.8741
 30
0.0
 10
-9.3464
 20
9.8014
 30
0.0
 10
-9.3464
 20
9.8014
 30
0.0
 10
-9.3158
 20
9.7761
 30
0.0
 10
-9.2767
 20
9.7621
 30
0.0
 10
-9.2373
 20
9.7621
 30
0.0
  0
SPLINE
  5
FD
330
1F
100
AcDbEntity
  8
Vrstva 1
370
    18
100
AcDbSpline
210
0.0
220
0.0
230
1.0
 70
    24
 71
     3
 72
    16
 73
    12
 74
     0
 42
0.0000000001
 43
0.0000000001
 40
0.0
 40
0.0
 40
0.0
 40
0.0
 40
0.25
 40
0.25
 40
0.25
 40
0.25
 40
0.5
 40
0.5
 40
0.5
 40
0.5
 40
1.0
 40
1.0
 40
1.0
 40
1.0
 10
-9.2373
 20
9.7621
 30
0.0
 10
-9.2373
 20
9.7621
 30
0.0
 10
-8.5516
 20
9.7621
 30
0.0
 10
-8.5516
 20
9.7621
 30
0.0
 10
-8.5516
 20
9.7621
 30
0.0
 10
-8.5516
 20
9.7621
 30
0.0
 10
-7.3893
 20
9.7621
 30
0.0
 10
-7.3893
 20
9.7621
 30
0.0
 10
-7.3893
 20
9.7621
 30
0.0
 10
-7.3893
 20
9.7621
 30
0.0
 10
-6.7035
 20
9.7621
 30
0.0
 10
-6.7035
 20
9.7621
 30
0.0
  0
SPLINE
  5
FE
330
1F
100
AcDbEntity
  8
Vrstva 1
370
    18
100
AcDbSpline
210
0.0
220
0.0
230
1.0
 70
     8
 71
     3
 72
    12
 73
     8
 74
     0
 42
0.0000000001
 43
0.0000000001
 40
0.0
 40
0.0
 40
0.0
 40
0.0
 40
0.3333333333333333
 40
0.3333333333333333
 40
0.3333333333333333
 40
0.3333333333333333
 40
1.0
 40
1.0
 40
1.0
 40
1.0
 10
-6.7035
 20
9.7621
 30
0.0
 10
-6.6686
 20
9.7621
 30
0.0
 10
-6.634
 20
9.7513
 30
0.0
 10
-6.6055
 20
9.7312
 30
0.0
 10
-6.6055
 20
9.7312
 30
0.0
 10
-6.5599
 20
9.6993
 30
0.0
 10
-6.5323
 20
9.6461
 30
0.0
 10
-6.5323
 20
9.5909
 30
0.0
  0
SPLINE
  5
FF
330
1F
100
AcDbEntity
  8
Vrstva 1
370
    18
100
AcDbSpline
210
0.0
220
0.0
230
1.0
 70
     8
 71
     3
 72
    20
 73
    16
 74
     0
 42
0.0000000001
 43
0.0000000001
 40
0.0
 40
0.0
 40
0.0
 40
0.0
 40
0.2
 40
0.2
 40
0.2
 40
0.2
 40
0.4
 40
0.4
 40
0.4
 40
0.4
 40
0.6
 40
0.6
 40
0.6
 40
0.6
 40
1.0
 40
1.0
 40
1.0
 40
1.0
 10
-6.5323
 20
9.5909
 30
0.0
 10
-6.5323
 20
9.5909
 30
0.0
 10
-6.5323
 20
8.9049
 30
0.0
 10
-6.5323
 20
8.9049
 30
0.0
 10
-6.5323
 20
8.9049
 30
0.0
 10
-6.5323
 20
8.9049
 30
0.0
 10
-6.5323
 20
-1.8264
 30
0.0
 10
-6.5323
 20
-1.8264
 30
0.0
 10
-6.5323
 20
-1.8264
 30
0.0
 10
-6.5323
 20
-1.8264
 30
0.0
 10
-6.5323
 20
-2.5122
 30
0.0
 10
-6.5323
 20
-2.5122
 30
0.0
 10
-6.5323
 20
-2.5122
 30
0.0
 10
-6.5323
 20
-2.5122
 30
0.0
 10
-6.5348
 20
-2.542
 30
0.0
 10
-6.5348
 20
-2.542
 30
0.0
  0
SPLINE
  5
100
330
1F
100
AcDbEntity
  8
Vrstva 1
370
    18
100
AcDbSpline
210
0.0
220
0.0
230
1.0
 70
     8
 71
     3
 72
     8
 73
     4
 74
     0
 42
0.0000000001
 43
0.0000000001
 40
0.0
 40
0.0
 40
0.0
 40
0.0
 40
1.0
 40
1.0
 40
1.0
 40
1.0
 10
-6.5348
 20
-2.542
 30
0.0
 10
-6.5494
 20
-2.6255
 30
0.0
 10
-6.6212
 20
-2.6801
 30
0.0
 10
-6.7035
 20
-2.6837
 30
0.0
  0
SPLINE
  5
101
330
1F
100
AcDbEntity
  8
Vrstva 1
370
    18
100
AcDbSpline
210
0.0
220
0.0
230
1.0
 70
    24
 71
     3
 72
     8
 73
     4
 74
     0
 42
0.0000000001
 43
0.0000000001
 40
0.0
 40
0.0
 40
0.0
 40
0.0
 40
1.0
 40
1.0
 40
1.0
 40
1.0
 10
-6.7035
 20
-2.6837
 30
0.0
 10
-6.7035
 20
-2.6837
 30
0.0
 10
-9.2373
 20
-2.6837
 30
0.0
 10
-9.2373
 20
-2.6837
 30
0.0
  0
SPLINE
  5
102
330
1F
100
AcDbEntity
  8
Vrstva 1
370
    18
100
AcDbSpline
210
0.0
220
0.0
230
1.0
 70
     8
 71
     3
 72
    12
 73
     8
 74
     0
 42
0.0000000001
 43
0.0000000001
 40
0.0
 40
0.0
 40
0.0
 40
0.0
 40
0.3333333333333333
 40
0.3333333333333333
 40
0.3333333333333333
 40
0.3333333333333333
 40
1.0
 40
1.0
 40
1.0
 40
1.0
 10
-9.2373
 20
-2.6837
 30
0.0
 10
-9.4434
 20
-2.6924
 30
0.0
 10
-9.39
 20
-2.9006
 30
0.0
 10
-9.4169
 20
-3.0399
 30
0.0
 10
-9.4169
 20
-3.0399
 30
0.0
 10
-9.4485
 20
-3.2044
 30
0.0
 10
-9.5907
 20
-3.3109
 30
0.0
 10
-9.7535
 20
-3.318
 30
0.0
  0
SPLINE
  5
103
330
1F
100
AcDbEntity
  8
Vrstva 1
370
    18
100
AcDbSpline
210
0.0
220
0.0
230
1.0
 70
    24
 71
     3
 72
     8
 73
     4
 74
     0
 42
0.0000000001
 43
0.0000000001
 40
0.0
 40
0.0
 40
0.0
 40
0.0
 40
1.0
 40
1.0
 40
1.0
 40
1.0
 10
-9.7535
 20
-3.318
 30
0.0
 10
-9.7535
 20
-3.318
 30
0.0
 10
-24.6772
 20
-3.318
 30
0.0
 10
-24.6772
 20
-3.318
 30
0.0
  0
SPLINE
  5
104
330
1F
100
AcDbEntity
  8
Vrstva 1
370
    18
100
AcDbSpline
210
0.0
220
0.0
230
1.0
 70
     8
 71
     3
 72
     8
 73
     4
 74
     0
 42
0.0000000001
 43
0.0000000001
 40
0.0
 40
0.0
 40
0.0
 40
0.0
 40
1.0
 40
1.0
 40
1.0
 40
1.0
 10
-24.6772
 20
-3.318
 30
0.0
 10
-24.7669
 20
-3.3218
 30
0.0
 10
-24.8346
 20
-3.3828
 30
0.0
 10
-24.8476
 20
-3.4715
 30
0.0
  0
SPLINE
  5
105
330
1F
100
AcDbEntity
  8
Vrstva 1
370
    18
100
AcDbSpline
210
0.0
220
0.0
230
1.0
 70
     8
 71
     3
 72
    16
 73
    12
 74
     0
 42
0.0000000001
 43
0.0000000001
 40
0.0
 40
0.0
 40
0.0
 40
0.0
 40
0.25
 40
0.25
 40
0.25
 40
0.25
 40
0.5
 40
0.5
 40
0.5
 40
0.5
 40
1.0
 40
1.0
 40
1.0
 40
1.0
 10
-24.8485
 20
-3.4863
 30
0.0
 10
-24.8485
 20
-3.4863
 30
0.0
 10
-24.8604
 20
-4.1781
 30
0.0
 10
-24.8604
 20
-4.1781
 30
0.0
 10
-24.8604
 20
-4.1781
 30
0.0
 10
-24.8604
 20
-4.1781
 30
0.0
 10
-24.8725
 20
-4.8638
 30
0.0
 10
-24.8725
 20
-4.8638
 30
0.0
 10
-24.8725
 20
-4.8638
 30
0.0
 10
-24.8725
 20
-4.8638
 30
0.0
 10
-24.8755
 20
-4.8932
 30
0.0
 10
-24.8755
 20
-4.8932
 30
0.0
  0
SPLINE
  5
106
330
1F
100
AcDbEntity
  8
Vrstva 1
370
    18
100
AcDbSpline
210
0.0
220
0.0
230
1.0
 70
     8
 71
     3
 72
     8
 73
     4
 74
     0
 42
0.0000000001
 43
0.0000000001
 40
0.0
 40
0.0
 40
0.0
 40
0.0
 40
1.0
 40
1.0
 40
1.0
 40
1.0
 10
-24.8755
 20
-4.8932
 30
0.0
 10
-24.8916
 20
-4.9754
 30
0.0
 10
-24.9624
 20
-5.0288
 30
0.0
 10
-25.044
 20
-5.0323
 30
0.0
  0
SPLINE
  5
107
330
1F
100
AcDbEntity
  8
Vrstva 1
370
    18
100
AcDbSpline
210
0.0
220
0.0
230
1.0
 70
     8
 71
     3
 72
    20
 73
    16
 74
     0
 42
0.0000000001
 43
0.0000000001
 40
0.0
 40
0.0
 40
0.0
 40
0.0
 40
0.2
 40
0.2
 40
0.2
 40
0.2
 40
0.4
 40
0.4
 40
0.4
 40
0.4
 40
0.6
 40
0.6
 40
0.6
 40
0.6
 40
1.0
 40
1.0
 40
1.0
 40
1.0
 10
-25.044
 20
-5.0323
 30
0.0
 10
-25.044
 20
-5.0323
 30
0.0
 10
-25.7298
 20
-5.0323
 30
0.0
 10
-25.7298
 20
-5.0323
 30
0.0
 10
-25.7298
 20
-5.0323
 30
0.0
 10
-25.7298
 20
-5.0323
 30
0.0
 10
-40.647
 20
-5.0323
 30
0.0
 10
-40.647
 20
-5.0323
 30
0.0
 10
-40.647
 20
-5.0323
 30
0.0
 10
-40.647
 20
-5.0323
 30
0.0
 10
-41.333
 20
-5.0323
 30
0.0
 10
-41.333
 20
-5.0323
 30
0.0
 10
-41.333
 20
-5.0323
 30
0.0
 10
-41.333
 20
-5.0323
 30
0.0
 10
-42.0186
 20
-4.6364
 30
0.0
 10
-42.0186
 20
-4.6364
 30
0.0
  0
SPLINE
  5
108
330
1F
100
AcDbEntity
  8
Vrstva 1
370
    18
100
AcDbSpline
210
0.0
220
0.0
230
1.0
 70
     8
 71
     3
 72
    24
 73
    20
 74
     0
 42
0.0000000001
 43
0.0000000001
 40
0.0
 40
0.0
 40
0.0
 40
0.0
 40
0.1666666666666667
 40
0.1666666666666667
 40
0.1666666666666667
 40
0.1666666666666667
 40
0.3333333333333333
 40
0.3333333333333333
 40
0.3333333333333333
 40
0.3333333333333333
 40
0.5
 40
0.5
 40
0.5
 40
0.5
 40
0.6666666666666666
 40
0.6666666666666666
 40
0.6666666666666666
 40
0.6666666666666666
 40
1.0
 40
1.0
 40
1.0
 40
1.0
 10
-42.0186
 20
11.7148
 30
0.0
 10
-42.0186
 20
11.7148
 30
0.0
 10
-41.333
 20
12.1109
 30
0.0
 10
-41.333
 20
12.1109
 30
0.0
 10
-41.333
 20
12.1109
 30
0.0
 10
-41.333
 20
12.1109
 30
0.0
 10
-40.647
 20
12.1109
 30
0.0
 10
-40.647
 20
12.1109
 30
0.0
 10
-40.647
 20
12.1109
 30
0.0
 10
-40.647
 20
12.1109
 30
0.0
 10
-25.7298
 20
12.1109
 30
0.0
 10
-25.7298
 20
12.1109
 30
0.0
 10
-25.7298
 20
12.1109
 30
0.0
 10
-25.7298
 20
12.1109
 30
0.0
 10
-25.044
 20
12.1109
 30
0.0
 10
-25.044
 20
12.1109
 30
0.0
 10
-25.044
 20
12.1109
 30
0.0
 10
-25.044
 20
12.1109
 30
0.0
 10
-25.0145
 20
12.1083
 30
0.0
 10
-25.0145
 20
12.1083
 30
0.0
  0
SPLINE
  5
109
330
1F
100
AcDbEntity
  8
Vrstva 1
370
    18
100
AcDbSpline
210
0.0
220
0.0
230
1.0
 70
     8
 71
     3
 72
     8
 73
     4
 74
     0
 42
0.0000000001
 43
0.0000000001
 40
0.0
 40
0.0
 40
0.0
 40
0.0
 40
1.0
 40
1.0
 40
1.0
 40
1.0
 10
-25.0145
 20
12.1083
 30
0.0
 10
-24.9345
 20
12.0942
 30
0.0
 10
-24.8741
 20
12.0236
 30
0.0
 10
-24.8725
 20
11.9424
 30
0.0
  0
SPLINE
  5
10A
330
1F
100
AcDbEntity
  8
Vrstva 1
370
    18
100
AcDbSpline
210
0.0
220
0.0
230
1.0
 70
     8
 71
     3
 72
    12
 73
     8
 74
     0
 42
0.0000000001
 43
0.0000000001
 40
0.0
 40
0.0
 40
0.0
 40
0.0
 40
0.3333333333333333
 40
0.3333333333333333
 40
0.3333333333333333
 40
0.3333333333333333
 40
1.0
 40
1.0
 40
1.0
 40
1.0
 10
-24.8725
 20
11.9424
 30
0.0
 10
-24.8725
 20
11.9424
 30
0.0
 10
-24.8604
 20
11.2504
 30
0.0
 10
-24.8604
 20
11.2504
 30
0.0
 10
-24.8604
 20
11.2504
 30
0.0
 10
-24.8604
 20
11.2504
 30
0.0
 10
-24.8485
 20
10.5648
 30
0.0
 10
-24.8485
 20
10.5648
 30
0.0
  0
ENDSEC
  0
SECTION
  2
OBJECTS
  0
DICTIONARY
  5
C
330
0
100
AcDbDictionary
281
     1
  3
ACAD_GROUP
350
D
  3
ACAD_LAYOUT
350
1A
  3
ACAD_MATERIAL
350
3B
  3
ACAD_MLEADERSTYLE
350
10D
  3
ACAD_MLINESTYLE
350
17
  3
ACAD_PLOTSETTINGS
350
19
  3
ACAD_PLOTSTYLENAME
350
E
  3
ACAD_VISUALSTYLE
350
2A
  3
AcDbVariableDictionary
350
10B
  0
DICTIONARY
  5
D
102
{ACAD_REACTORS
330
C
102
}
330
C
100
AcDbDictionary
281
     1
  0
DICTIONARY
  5
1A
102
{ACAD_REACTORS
330
C
102
}
330
C
100
AcDbDictionary
281
     1
  3
Layout1
350
1E
  3
Layout2
350
26
  3
Model
350
22
  0
DICTIONARY
  5
3B
102
{ACAD_REACTORS
330
C
102
}
330
C
100
AcDbDictionary
281
     1
  3
ByBlock
350
3D
  3
ByLayer
350
3C
  3
Global
350
3E
  0
DICTIONARY
  5
10D
102
{ACAD_REACTORS
330
C
102
}
330
C
100
AcDbDictionary
281
     1
  0
DICTIONARY
  5
17
102
{ACAD_REACTORS
330
C
102
}
330
C
100
AcDbDictionary
281
     1
  3
Standard
350
18
  0
DICTIONARY
  5
19
102
{ACAD_REACTORS
330
C
102
}
330
C
100
AcDbDictionary
281
     1
  0
ACDBDICTIONARYWDFLT
  5
E
102
{ACAD_REACTORS
330
C
102
}
330
C
100
AcDbDictionary
281
     1
  3
Normal
350
F
100
AcDbDictionaryWithDefault
340
F
  0
DICTIONARY
  5
2A
102
{ACAD_REACTORS
330
C
102
}
330
C
100
AcDbDictionary
281
     1
  3
2dWireframe
350
2F
  3
3D Hidden
350
31
  3
3dWireframe
350
30
  3
Basic
350
32
  3
Brighten
350
36
  3
ColorChange
350
3A
  3
Conceptual
350
34
  3
Dim
350
35
  3
Facepattern
350
39
  3
Flat
350
2B
  3
FlatWithEdges
350
2C
  3
Gouraud
350
2D
  3
GouraudWithEdges
350
2E
  3
Linepattern
350
38
  3
Realistic
350
33
  3
Thicken
350
37
  0
DICTIONARY
  5
10B
102
{ACAD_REACTORS
330
C
102
}
330
C
100
AcDbDictionary
281
     1
  3
DIMASSOC
350
10E
  3
HIDETEXT
350
10F
  0
LAYOUT
  5
1E
102
{ACAD_REACTORS
330
1A
102
}
330
1A
100
AcDbPlotSettings
  1

  2
none_device
  4

  6

 40
0.0
 41
0.0
 42
0.0
 43
0.0
 44
0.0
 45
0.0
 46
0.0
 47
0.0
 48
0.0
 49
0.0
140
0.0
141
0.0
142
1.0
143
1.0
 70
   688
 72
     0
 73
     0
 74
     5
  7

 75
    16
147
1.0
148
0.0
149
0.0
100
AcDbLayout
  1
Layout1
 70
     1
 71
     1
 10
0.0
 20
0.0
 11
12.0
 21
9.0
 12
0.0
 22
0.0
 32
0.0
 14
1.000000000000000E+20
 24
1.000000000000000E+20
 34
1.000000000000000E+20
 15
-1.000000000000000E+20
 25
-1.000000000000000E+20
 35
-1.000000000000000E+20
146
0.0
 13
0.0
 23
0.0
 33
0.0
 16
1.0
 26
0.0
 36
0.0
 17
0.0
 27
1.0
 37
0.0
 76
     0
330
1B
  0
LAYOUT
  5
26
102
{ACAD_REACTORS
330
1A
102
}
330
1A
100
AcDbPlotSettings
  1

  2
none_device
  4

  6

 40
0.0
 41
0.0
 42
0.0
 43
0.0
 44
0.0
 45
0.0
 46
0.0
 47
0.0
 48
0.0
 49
0.0
140
0.0
141
0.0
142
1.0
143
1.0
 70
   688
 72
     0
 73
     0
 74
     5
  7

 75
    16
147
1.0
148
0.0
149
0.0
100
AcDbLayout
  1
Layout2
 70
     1
 71
     2
 10
0.0
 20
0.0
 11
0.0
 21
0.0
 12
0.0
 22
0.0
 32
0.0
 14
0.0
 24
0.0
 34
0.0
 15
0.0
 25
0.0
 35
0.0
146
0.0
 13
0.0
 23
0.0
 33
0.0
 16
1.0
 26
0.0
 36
0.0
 17
0.0
 27
1.0
 37
0.0
 76
     0
330
23
  0
LAYOUT
  5
22
102
{ACAD_REACTORS
330
1A
102
}
330
1A
100
AcDbPlotSettings
  1

  2
none_device
  4

  6

 40
0.0
 41
0.0
 42
0.0
 43
0.0
 44
0.0
 45
0.0
 46
0.0
 47
0.0
 48
0.0
 49
0.0
140
0.0
141
0.0
142
1.0
143
1.0
 70
  1712
 72
     0
 73
     0
 74
     0
  7

 75
     0
147
1.0
148
0.0
149
0.0
100
AcDbLayout
  1
Model
 70
     1
 71
     0
 10
0.0
 20
0.0
 11
12.0
 21
9.0
 12
0.0
 22
0.0
 32
0.0
 14
-42.2422
 24
-14.4693
 34
0.0
 15
42.0664
 25
14.4693
 35
0.0
146
0.0
 13
0.0
 23
0.0
 33
0.0
 16
1.0
 26
0.0
 36
0.0
 17
0.0
 27
1.0
 37
0.0
 76
     0
330
1F
331
29
  0
MATERIAL
  5
3D
102
{ACAD_REACTORS
330
3B
102
}
102
{ACAD_XDICTIONARY
360
132
102
}
330
3B
100
AcDbMaterial
  1
ByBlock
  0
MATERIAL
  5
3C
102
{ACAD_REACTORS
330
3B
102
}
102
{ACAD_XDICTIONARY
360
130
102
}
330
3B
100
AcDbMaterial
  1
ByLayer
  0
MATERIAL
  5
3E
102
{ACAD_REACTORS
330
3B
102
}
102
{ACAD_XDICTIONARY
360
134
102
}
330
3B
100
AcDbMaterial
  1
Global
  0
MLINESTYLE
  5
18
102
{ACAD_REACTORS
330
17
102
}
330
17
100
AcDbMlineStyle
  2
Standard
 70
     0
  3

 62
   256
 51
90.0
 52
90.0
 71
     2
 49
0.5
 62
   256
  6
BYLAYER
 49
-0.5
 62
   256
  6
BYLAYER
  0
ACDBPLACEHOLDER
  5
F
102
{ACAD_REACTORS
330
E
102
}
330
E
  0
VISUALSTYLE
  5
2F
102
{ACAD_REACTORS
330
2A
102
}
102
{ACAD_XDICTIONARY
360
118
102
}
330
2A
100
AcDbVisualStyle
  2
2dWireframe
 70
     4
 71
     0
 72
     2
 73
     0
 90
        0
 40
-0.6
 41
-30.0
 62
     5
 63
     7
 74
     1
 91
        4
 64
     7
 65
   257
 75
     1
175
     1
 42
1.0
 92
        0
 66
   257
 43
1.0
 76
     1
 77
     6
 78
     2
 67
     7
 79
     5
170
     0
171
     0
290
     0
174
     0
 93
        1
 44
0.0
173
     0
291
     0
 45
0.0
1001
ACAD
1000
AcDbSavedByObjectVersion
1070
     0
  0
VISUALSTYLE
  5
31
102
{ACAD_REACTORS
330
2A
102
}
102
{ACAD_XDICTIONARY
360
11C
102
}
330
2A
100
AcDbVisualStyle
  2
3D Hidden
 70
     6
 71
     1
 72
     2
 73
     2
 90
        0
 40
-0.6
 41
-30.0
 62
     5
 63
     7
 74
     2
 91
        2
 64
     7
 65
   257
 75
     2
175
     1
 42
40.0
 92
        0
 66
   257
 43
1.0
 76
     1
 77
     6
 78
     2
 67
     7
 79
     3
170
     0
171
     0
290
     0
174
     0
 93
        1
 44
0.0
173
     0
291
     0
 45
0.0
1001
ACAD
1000
AcDbSavedByObjectVersion
1070
     0
  0
VISUALSTYLE
  5
30
102
{ACAD_REACTORS
330
2A
102
}
102
{ACAD_XDICTIONARY
360
11A
102
}
330
2A
100
AcDbVisualStyle
  2
3dWireframe
 70
     5
 71
     0
 72
     2
 73
     0
 90
        0
 40
-0.6
 41
-30.0
 62
     5
 63
     7
 74
     1
 91
        4
 64
     7
 65
   257
 75
     1
175
     1
 42
1.0
 92
        0
 66
   257
 43
1.0
 76
     1
 77
     6
 78
     2
 67
     7
 79
     5
170
     0
171
     0
290
     0
174
     0
 93
        1
 44
0.0
173
     0
291
     0
 45
0.0
1001
ACAD
1000
AcDbSavedByObjectVersion
1070
     0
  0
VISUALSTYLE
  5
32
102
{ACAD_REACTORS
330
2A
102
}
102
{ACAD_XDICTIONARY
360
11E
102
}
330
2A
100
AcDbVisualStyle
  2
Basic
 70
     7
 71
     1
 72
     0
 73
     1
 90
        0
 40
-0.6
 41
-30.0
 62
     5
 63
     7
 74
     0
 91
        4
 64
     7
 65
   257
 75
     1
175
     1
 42
1.0
 92
        8
 66
     7
 43
1.0
 76
     1
 77
     6
 78
     2
 67
     7
 79
     5
170
     0
171
     0
290
     0
174
     0
 93
        1
 44
0.0
173
     0
291
     1
 45
0.0
1001
ACAD
1000
AcDbSavedByObjectVersion
1070
     0
  0
VISUALSTYLE
  5
36
102
{ACAD_REACTORS
330
2A
102
}
102
{ACAD_XDICTIONARY
360
126
102
}
330
2A
100
AcDbVisualStyle
  2
Brighten
 70
    12
 71
     2
 72
     2
 73
     0
 90
        0
 40
-0.6
 41
-30.0
 62
     5
 63
     7
 74
     1
 91
        4
 64
     7
 65
   257
 75
     1
175
     1
 42
1.0
 92
        8
 66
     7
 43
1.0
 76
     1
 77
     6
 78
     2
 67
     7
 79
     5
170
     0
171
     0
290
     0
174
     0
 93
        1
 44
50.0
173
     0
291
     1
 45
0.0
1001
ACAD
1000
AcDbSavedByObjectVersion
1070
     0
  0
VISUALSTYLE
  5
3A
102
{ACAD_REACTORS
330
2A
102
}
102
{ACAD_XDICTIONARY
360
12E
102
}
330
2A
100
AcDbVisualStyle
  2
ColorChange
 70
    16
 71
     2
 72
     2
 73
     3
 90
        0
 40
-0.6
 41
-30.0
 62
     5
 63
     8
 74
     1
 91
        4
 64
     7
 65
   257
 75
     1
175
     1
 42
1.0
 92
        8
 66
     8
 43
1.0
 76
     1
 77
     6
 78
     2
 67
     7
 79
     5
170
     0
171
     0
290
     0
174
     0
 93
        1
 44
0.0
173
     0
291
     1
 45
0.0
1001
ACAD
1000
AcDbSavedByObjectVersion
1070
     0
  0
VISUALSTYLE
  5
34
102
{ACAD_REACTORS
330
2A
102
}
102
{ACAD_XDICTIONARY
360
122
102
}
330
2A
100
AcDbVisualStyle
  2
Conceptual
 70
     9
 71
     3
 72
     2
 73
     0
 90
        0
 40
-0.6
 41
-30.0
 62
     5
 63
     7
 74
     2
 91
        2
 64
     7
 65
   257
 75
     1
175
     1
 42
40.0
 92
        8
 66
     7
 43
1.0
 76
     1
 77
     6
 78
     2
 67
     7
 79
     3
170
     0
171
     0
290
     0
174
     0
 93
        1
 44
0.0
173
     0
291
     0
 45
0.0
1001
ACAD
1000
AcDbSavedByObjectVersion
1070
     0
  0
VISUALSTYLE
  5
35
102
{ACAD_REACTORS
330
2A
102
}
102
{ACAD_XDICTIONARY
360
124
102
}
330
2A
100
AcDbVisualStyle
  2
Dim
 70
    11
 71
     2
 72
     2
 73
     0
 90
        0
 40
-0.6
 41
-30.0
 62
     5
 63
     7
 74
     1
 91
        4
 64
     7
 65
   257
 75
     1
175
     1
 42
1.0
 92
        8
 66
     7
 43
1.0
 76
     1
 77
     6
 78
     2
 67
     7
 79
     5
170
     0
171
     0
290
     0
174
     0
 93
        1
 44
-50.0
173
     0
291
     1
 45
0.0
1001
ACAD
1000
AcDbSavedByObjectVersion
1070
     0
  0
VISUALSTYLE
  5
39
102
{ACAD_REACTORS
330
2A
102
}
102
{ACAD_XDICTIONARY
360
12C
102
}
330
2A
100
AcDbVisualStyle
  2
Facepattern
 70
    15
 71
     2
 72
     2
 73
     0
 90
        0
 40
-0.6
 41
-30.0
 62
     5
 63
     7
 74
     1
 91
        4
 64
     7
 65
   257
 75
     1
175
     1
 42
1.0
 92
        8
 66
     7
 43
1.0
 76
     1
 77
     6
 78
     2
 67
     7
 79
     5
170
     0
171
     0
290
     0
174
     0
 93
        1
 44
0.0
173
     0
291
     1
 45
0.0
1001
ACAD
1000
AcDbSavedByObjectVersion
1070
     0
  0
VISUALSTYLE
  5
2B
102
{ACAD_REACTORS
330
2A
102
}
102
{ACAD_XDICTIONARY
360
110
102
}
330
2A
100
AcDbVisualStyle
  2
Flat
 70
     0
 71
     2
 72
     1
 73
     1
 90
        2
 40
-0.6
 41
30.0
 62
     5
 63
     7
 74
     0
 91
        4
 64
     7
 65
   257
 75
     1
175
     1
 42
1.0
 92
        8
 66
     7
 43
1.0
 76
     1
 77
     6
 78
     2
 67
     7
 79
     5
170
     0
171
     0
290
     0
174
     0
 93
       13
 44
0.0
173
     0
291
     1
 45
0.0
1001
ACAD
1000
AcDbSavedByObjectVersion
1070
     0
  0
VISUALSTYLE
  5
2C
102
{ACAD_REACTORS
330
2A
102
}
102
{ACAD_XDICTIONARY
360
112
102
}
330
2A
100
AcDbVisualStyle
  2
FlatWithEdges
 70
     1
 71
     2
 72
     1
 73
     1
 90
        2
 40
-0.6
 41
30.0
 62
     5
 63
     7
 74
     1
 91
        4
 64
     7
 65
   257
 75
     1
175
     1
 42
1.0
 92
        0
 66
   257
 43
1.0
 76
     1
 77
     6
 78
     2
 67
     7
 79
     5
170
     0
171
     0
290
     0
174
     0
 93
       13
 44
0.0
173
     0
291
     1
 45
0.0
1001
ACAD
1000
AcDbSavedByObjectVersion
1070
     0
  0
VISUALSTYLE
  5
2D
102
{ACAD_REACTORS
330
2A
102
}
102
{ACAD_XDICTIONARY
360
114
102
}
330
2A
100
AcDbVisualStyle
  2
Gouraud
 70
     2
 71
     2
 72
     2
 73
     1
 90
        2
 40
-0.6
 41
30.0
 62
     5
 63
     7
 74
     0
 91
        4
 64
     7
 65
   257
 75
     1
175
     1
 42
1.0
 92
        0
 66
     7
 43
1.0
 76
     1
 77
     6
 78
     2
 67
     7
 79
     5
170
     0
171
     0
290
     0
174
     0
 93
       13
 44
0.0
173
     0
291
     1
 45
0.0
1001
ACAD
1000
AcDbSavedByObjectVersion
1070
     0
  0
VISUALSTYLE
  5
2E
102
{ACAD_REACTORS
330
2A
102
}
102
{ACAD_XDICTIONARY
360
116
102
}
330
2A
100
AcDbVisualStyle
  2
GouraudWithEdges
 70
     3
 71
     2
 72
     2
 73
     1
 90
        2
 40
-0.6
 41
30.0
 62
     5
 63
     7
 74
     1
 91
        4
 64
     7
 65
   257
 75
     1
175
     1
 42
1.0
 92
        0
 66
   257
 43
1.0
 76
     1
 77
     6
 78
     2
 67
     7
 79
     5
170
     0
171
     0
290
     0
174
     0
 93
       13
 44
0.0
173
     0
291
     1
 45
0.0
1001
ACAD
1000
AcDbSavedByObjectVersion
1070
     0
  0
VISUALSTYLE
  5
38
102
{ACAD_REACTORS
330
2A
102
}
102
{ACAD_XDICTIONARY
360
12A
102
}
330
2A
100
AcDbVisualStyle
  2
Linepattern
 70
    14
 71
     2
 72
     2
 73
     0
 90
        0
 40
-0.6
 41
-30.0
 62
     5
 63
     7
 74
     1
 91
        4
 64
     7
 65
   257
 75
     7
175
     7
 42
1.0
 92
        8
 66
     7
 43
1.0
 76
     1
 77
     6
 78
     2
 67
     7
 79
     5
170
     0
171
     0
290
     0
174
     0
 93
        1
 44
0.0
173
     0
291
     1
 45
0.0
1001
ACAD
1000
AcDbSavedByObjectVersion
1070
     0
  0
VISUALSTYLE
  5
33
102
{ACAD_REACTORS
330
2A
102
}
102
{ACAD_XDICTIONARY
360
120
102
}
330
2A
100
AcDbVisualStyle
  2
Realistic
 70
     8
 71
     2
 72
     2
 73
     0
 90
        0
 40
-0.6
 41
-30.0
 62
     5
 63
     7
 74
     1
 91
        0
 64
     7
 65
   257
 75
     1
175
     1
 42
1.0
 92
        8
 66
     8
 43
1.0
 76
     1
 77
     6
 78
     2
 67
     7
 79
     5
170
     0
171
     0
290
     0
174
     0
 93
       13
 44
0.0
173
     0
291
     0
 45
0.0
1001
ACAD
1000
AcDbSavedByObjectVersion
1070
     0
  0
VISUALSTYLE
  5
37
102
{ACAD_REACTORS
330
2A
102
}
102
{ACAD_XDICTIONARY
360
128
102
}
330
2A
100
AcDbVisualStyle
  2
Thicken
 70
    13
 71
     2
 72
     2
 73
     0
 90
        0
 40
-0.6
 41
-30.0
 62
     5
 63
     7
 74
     1
 91
        4
 64
     7
 65
   257
 75
     1
175
     1
 42
1.0
 92
       12
 66
     7
 43
1.0
 76
     1
 77
     6
 78
     2
 67
     7
 79
     5
170
     0
171
     0
290
     0
174
     0
 93
        1
 44
0.0
173
     0
291
     1
 45
0.0
1001
ACAD
1000
AcDbSavedByObjectVersion
1070
     0
  0
DICTIONARYVAR
  5
10E
102
{ACAD_REACTORS
330
10B
102
}
330
10B
100
DictionaryVariables
280
     0
  1
2
  0
DICTIONARYVAR
  5
10F
102
{ACAD_REACTORS
330
10B
102
}
330
10B
100
DictionaryVariables
280
     0
  1
1
  0
DICTIONARY
  5
132
330
3D
100
AcDbDictionary
280
     1
281
     1
  3
ACAD_XREC_ROUNDTRIP
360
133
  0
DICTIONARY
  5
130
330
3C
100
AcDbDictionary
280
     1
281
     1
  3
ACAD_XREC_ROUNDTRIP
360
131
  0
DICTIONARY
  5
134
330
3E
100
AcDbDictionary
280
     1
281
     1
  3
ACAD_XREC_ROUNDTRIP
360
135
  0
DICTIONARY
  5
118
330
2F
100
AcDbDictionary
280
     1
281
     1
  3
ACAD_XREC_ROUNDTRIP
360
119
  0
DICTIONARY
  5
11C
330
31
100
AcDbDictionary
280
     1
281
     1
  3
ACAD_XREC_ROUNDTRIP
360
11D
  0
DICTIONARY
  5
11A
330
30
100
AcDbDictionary
280
     1
281
     1
  3
ACAD_XREC_ROUNDTRIP
360
11B
  0
DICTIONARY
  5
11E
330
32
100
AcDbDictionary
280
     1
281
     1
  3
ACAD_XREC_ROUNDTRIP
360
11F
  0
DICTIONARY
  5
126
330
36
100
AcDbDictionary
280
     1
281
     1
  3
ACAD_XREC_ROUNDTRIP
360
127
  0
DICTIONARY
  5
12E
330
3A
100
AcDbDictionary
280
     1
281
     1
  3
ACAD_XREC_ROUNDTRIP
360
12F
  0
DICTIONARY
  5
122
330
34
100
AcDbDictionary
280
     1
281
     1
  3
ACAD_XREC_ROUNDTRIP
360
123
  0
DICTIONARY
  5
124
330
35
100
AcDbDictionary
280
     1
281
     1
  3
ACAD_XREC_ROUNDTRIP
360
125
  0
DICTIONARY
  5
12C
330
39
100
AcDbDictionary
280
     1
281
     1
  3
ACAD_XREC_ROUNDTRIP
360
12D
  0
DICTIONARY
  5
110
330
2B
100
AcDbDictionary
280
     1
281
     1
  3
ACAD_XREC_ROUNDTRIP
360
111
  0
DICTIONARY
  5
112
330
2C
100
AcDbDictionary
280
     1
281
     1
  3
ACAD_XREC_ROUNDTRIP
360
113
  0
DICTIONARY
  5
114
330
2D
100
AcDbDictionary
280
     1
281
     1
  3
ACAD_XREC_ROUNDTRIP
360
115
  0
DICTIONARY
  5
116
330
2E
100
AcDbDictionary
280
     1
281
     1
  3
ACAD_XREC_ROUNDTRIP
360
117
  0
DICTIONARY
  5
12A
330
38
100
AcDbDictionary
280
     1
281
     1
  3
ACAD_XREC_ROUNDTRIP
360
12B
  0
DICTIONARY
  5
120
330
33
100
AcDbDictionary
280
     1
281
     1
  3
ACAD_XREC_ROUNDTRIP
360
121
  0
DICTIONARY
  5
128
330
37
100
AcDbDictionary
280
     1
281
     1
  3
ACAD_XREC_ROUNDTRIP
360
129
  0
XRECORD
  5
133
102
{ACAD_REACTORS
330
132
102
}
330
132
100
AcDbXrecord
280
     1
102
MATERIAL
148
0.0
149
0.0
149
0.0
 93
        0
 94
      127
282
     0
 72
     1
 77
     1
171
     1
175
     1
179
     1
273
     0
  0
XRECORD
  5
131
102
{ACAD_REACTORS
330
130
102
}
330
130
100
AcDbXrecord
280
     1
102
MATERIAL
148
0.0
149
0.0
149
0.0
 93
        0
 94
      127
282
     0
 72
     1
 77
     1
171
     1
175
     1
179
     1
273
     0
  0
XRECORD
  5
135
102
{ACAD_REACTORS
330
134
102
}
330
134
100
AcDbXrecord
280
     1
102
MATERIAL
148
0.0
149
0.0
149
0.0
 93
        0
 94
      127
282
     0
 72
     1
 77
     1
171
     1
175
     1
179
     1
273
     0
  0
XRECORD
  5
119
102
{ACAD_REACTORS
330
118
102
}
330
118
100
AcDbXrecord
280
     1
102
RTVSPropertyOp0
 70
     1
102
RTVSPropertyOp1
 70
     1
102
RTVSPropertyOp2
 70
     1
102
RTVSPropertyOp3
 70
     1
102
RTVSPropertyOp4
 70
     1
102
RTVSPropertyOp5
 70
     1
102
RTVSPropertyOp6
 70
     1
102
RTVSPropertyOp7
 70
     1
102
RTVSPropertyOp8
 70
     1
102
RTVSPropertyOp9
 70
     1
102
RTVSPropertyOp10
 70
     1
102
RTVSPropertyOp11
 70
     1
102
RTVSPropertyOp12
 70
     1
102
RTVSPropertyOp13
 70
     1
102
RTVSPropertyOp14
 70
     1
102
RTVSPropertyOp15
 70
     1
102
RTVSPropertyOp16
 70
     1
102
RTVSPropertyOp17
 70
     1
102
RTVSPropertyOp18
 70
     1
102
RTVSPropertyOp19
 70
     1
102
RTVSPropertyOp20
 70
     1
102
RTVSPropertyOp21
 70
     1
102
RTVSPropertyOp22
 70
     1
102
RTVSPropertyOp23
 70
     1
102
RTVSPropertyOp24
 70
     1
102
RTVSPropertyOp25
 70
     1
102
RTVSPropertyOp26
 70
     1
102
RTVSPropertyOp27
 70
     1
  0
XRECORD
  5
11D
102
{ACAD_REACTORS
330
11C
102
}
330
11C
100
AcDbXrecord
280
     1
102
RTVSPropertyOp0
 70
     1
102
RTVSPropertyOp1
 70
     1
102
RTVSPropertyOp2
 70
     1
102
RTVSPropertyOp3
 70
     1
102
RTVSPropertyOp4
 70
     1
102
RTVSPropertyOp5
 70
     1
102
RTVSPropertyOp6
 70
     1
102
RTVSPropertyOp7
 70
     1
102
RTVSPropertyOp8
 70
     1
102
RTVSPropertyOp9
 70
     1
102
RTVSPropertyOp10
 70
     1
102
RTVSPropertyOp11
 70
     1
102
RTVSPropertyOp12
 70
     1
102
RTVSPropertyOp13
 70
     1
102
RTVSPropertyOp14
 70
     1
102
RTVSPropertyOp15
 70
     1
102
RTVSPropertyOp16
 70
     1
102
RTVSPropertyOp17
 70
     1
102
RTVSPropertyOp18
 70
     1
102
RTVSPropertyOp19
 70
     1
102
RTVSPropertyOp20
 70
     1
102
RTVSPropertyOp21
 70
     1
102
RTVSPropertyOp22
 70
     1
102
RTVSPropertyOp23
 70
     1
102
RTVSPropertyOp24
 70
     1
102
RTVSPropertyOp25
 70
     1
102
RTVSPropertyOp26
 70
     1
102
RTVSPropertyOp27
 70
     1
  0
XRECORD
  5
11B
102
{ACAD_REACTORS
330
11A
102
}
330
11A
100
AcDbXrecord
280
     1
102
RTVSPropertyOp0
 70
     1
102
RTVSPropertyOp1
 70
     1
102
RTVSPropertyOp2
 70
     1
102
RTVSPropertyOp3
 70
     1
102
RTVSPropertyOp4
 70
     1
102
RTVSPropertyOp5
 70
     1
102
RTVSPropertyOp6
 70
     1
102
RTVSPropertyOp7
 70
     1
102
RTVSPropertyOp8
 70
     1
102
RTVSPropertyOp9
 70
     1
102
RTVSPropertyOp10
 70
     1
102
RTVSPropertyOp11
 70
     1
102
RTVSPropertyOp12
 70
     1
102
RTVSPropertyOp13
 70
     1
102
RTVSPropertyOp14
 70
     1
102
RTVSPropertyOp15
 70
     1
102
RTVSPropertyOp16
 70
     1
102
RTVSPropertyOp17
 70
     1
102
RTVSPropertyOp18
 70
     1
102
RTVSPropertyOp19
 70
     1
102
RTVSPropertyOp20
 70
     1
102
RTVSPropertyOp21
 70
     1
102
RTVSPropertyOp22
 70
     1
102
RTVSPropertyOp23
 70
     1
102
RTVSPropertyOp24
 70
     1
102
RTVSPropertyOp25
 70
     1
102
RTVSPropertyOp26
 70
     1
102
RTVSPropertyOp27
 70
     1
  0
XRECORD
  5
11F
102
{ACAD_REACTORS
330
11E
102
}
330
11E
100
AcDbXrecord
280
     1
102
RTVSPropertyOp0
 70
     1
102
RTVSPropertyOp1
 70
     1
102
RTVSPropertyOp2
 70
     1
102
RTVSPropertyOp3
 70
     1
102
RTVSPropertyOp4
 70
     1
102
RTVSPropertyOp5
 70
     1
102
RTVSPropertyOp6
 70
     1
102
RTVSPropertyOp7
 70
     1
102
RTVSPropertyOp8
 70
     1
102
RTVSPropertyOp9
 70
     1
102
RTVSPropertyOp10
 70
     1
102
RTVSPropertyOp11
 70
     1
102
RTVSPropertyOp12
 70
     1
102
RTVSPropertyOp13
 70
     1
102
RTVSPropertyOp14
 70
     1
102
RTVSPropertyOp15
 70
     1
102
RTVSPropertyOp16
 70
     1
102
RTVSPropertyOp17
 70
     1
102
RTVSPropertyOp18
 70
     1
102
RTVSPropertyOp19
 70
     1
102
RTVSPropertyOp20
 70
     1
102
RTVSPropertyOp21
 70
     1
102
RTVSPropertyOp22
 70
     1
102
RTVSPropertyOp23
 70
     1
102
RTVSPropertyOp24
 70
     1
102
RTVSPropertyOp25
 70
     1
102
RTVSPropertyOp26
 70
     1
102
RTVSPropertyOp27
 70
     1
  0
XRECORD
  5
127
102
{ACAD_REACTORS
330
126
102
}
330
126
100
AcDbXrecord
280
     1
102
RTVSPropertyOp0
 70
     1
102
RTVSPropertyOp1
 70
     1
102
RTVSPropertyOp2
 70
     1
102
RTVSPropertyOp3
 70
     1
102
RTVSPropertyOp4
 70
     1
102
RTVSPropertyOp5
 70
     1
102
RTVSPropertyOp6
 70
     1
102
RTVSPropertyOp7
 70
     1
102
RTVSPropertyOp8
 70
     1
102
RTVSPropertyOp9
 70
     1
102
RTVSPropertyOp10
 70
     1
102
RTVSPropertyOp11
 70
     1
102
RTVSPropertyOp12
 70
     1
102
RTVSPropertyOp13
 70
     1
102
RTVSPropertyOp14
 70
     1
102
RTVSPropertyOp15
 70
     1
102
RTVSPropertyOp16
 70
     1
102
RTVSPropertyOp17
 70
     1
102
RTVSPropertyOp18
 70
     1
102
RTVSPropertyOp19
 70
     1
102
RTVSPropertyOp20
 70
     1
102
RTVSPropertyOp21
 70
     1
102
RTVSPropertyOp22
 70
     1
102
RTVSPropertyOp23
 70
     1
102
RTVSPropertyOp24
 70
     1
102
RTVSPropertyOp25
 70
     1
102
RTVSPropertyOp26
 70
     1
102
RTVSPropertyOp27
 70
     1
  0
XRECORD
  5
12F
102
{ACAD_REACTORS
330
12E
102
}
330
12E
100
AcDbXrecord
280
     1
102
RTVSPropertyOp0
 70
     1
102
RTVSPropertyOp1
 70
     1
102
RTVSPropertyOp2
 70
     1
102
RTVSPropertyOp3
 70
     1
102
RTVSPropertyOp4
 70
     1
102
RTVSPropertyOp5
 70
     1
102
RTVSPropertyOp6
 70
     1
102
RTVSPropertyOp7
 70
     1
102
RTVSPropertyOp8
 70
     1
102
RTVSPropertyOp9
 70
     1
102
RTVSPropertyOp10
 70
     1
102
RTVSPropertyOp11
 70
     1
102
RTVSPropertyOp12
 70
     1
102
RTVSPropertyOp13
 70
     1
102
RTVSPropertyOp14
 70
     1
102
RTVSPropertyOp15
 70
     1
102
RTVSPropertyOp16
 70
     1
102
RTVSPropertyOp17
 70
     1
102
RTVSPropertyOp18
 70
     1
102
RTVSPropertyOp19
 70
     1
102
RTVSPropertyOp20
 70
     1
102
RTVSPropertyOp21
 70
     1
102
RTVSPropertyOp22
 70
     1
102
RTVSPropertyOp23
 70
     1
102
RTVSPropertyOp24
 70
     1
102
RTVSPropertyOp25
 70
     1
102
RTVSPropertyOp26
 70
     1
102
RTVSPropertyOp27
 70
     1
  0
XRECORD
  5
123
102
{ACAD_REACTORS
330
122
102
}
330
122
100
AcDbXrecord
280
     1
102
RTVSPropertyOp0
 70
     1
102
RTVSPropertyOp1
 70
     1
102
RTVSPropertyOp2
 70
     1
102
RTVSPropertyOp3
 70
     1
102
RTVSPropertyOp4
 70
     1
102
RTVSPropertyOp5
 70
     1
102
RTVSPropertyOp6
 70
     1
102
RTVSPropertyOp7
 70
     1
102
RTVSPropertyOp8
 70
     1
102
RTVSPropertyOp9
 70
     1
102
RTVSPropertyOp10
 70
     1
102
RTVSPropertyOp11
 70
     1
102
RTVSPropertyOp12
 70
     1
102
RTVSPropertyOp13
 70
     1
102
RTVSPropertyOp14
 70
     1
102
RTVSPropertyOp15
 70
     1
102
RTVSPropertyOp16
 70
     1
102
RTVSPropertyOp17
 70
     1
102
RTVSPropertyOp18
 70
     1
102
RTVSPropertyOp19
 70
     1
102
RTVSPropertyOp20
 70
     1
102
RTVSPropertyOp21
 70
     1
102
RTVSPropertyOp22
 70
     1
102
RTVSPropertyOp23
 70
     1
102
RTVSPropertyOp24
 70
     1
102
RTVSPropertyOp25
 70
     1
102
RTVSPropertyOp26
 70
     1
102
RTVSPropertyOp27
 70
     1
  0
XRECORD
  5
125
102
{ACAD_REACTORS
330
124
102
}
330
124
100
AcDbXrecord
280
     1
102
RTVSPropertyOp0
 70
     1
102
RTVSPropertyOp1
 70
     1
102
RTVSPropertyOp2
 70
     1
102
RTVSPropertyOp3
 70
     1
102
RTVSPropertyOp4
 70
     1
102
RTVSPropertyOp5
 70
     1
102
RTVSPropertyOp6
 70
     1
102
RTVSPropertyOp7
 70
     1
102
RTVSPropertyOp8
 70
     1
102
RTVSPropertyOp9
 70
     1
102
RTVSPropertyOp10
 70
     1
102
RTVSPropertyOp11
 70
     1
102
RTVSPropertyOp12
 70
     1
102
RTVSPropertyOp13
 70
     1
102
RTVSPropertyOp14
 70
     1
102
RTVSPropertyOp15
 70
     1
102
RTVSPropertyOp16
 70
     1
102
RTVSPropertyOp17
 70
     1
102
RTVSPropertyOp18
 70
     1
102
RTVSPropertyOp19
 70
     1
102
RTVSPropertyOp20
 70
     1
102
RTVSPropertyOp21
 70
     1
102
RTVSPropertyOp22
 70
     1
102
RTVSPropertyOp23
 70
     1
102
RTVSPropertyOp24
 70
     1
102
RTVSPropertyOp25
 70
     1
102
RTVSPropertyOp26
 70
     1
102
RTVSPropertyOp27
 70
     1
  0
XRECORD
  5
12D
102
{ACAD_REACTORS
330
12C
102
}
330
12C
100
AcDbXrecord
280
     1
102
RTVSPropertyOp0
 70
     1
102
RTVSPropertyOp1
 70
     1
102
RTVSPropertyOp2
 70
     1
102
RTVSPropertyOp3
 70
     1
102
RTVSPropertyOp4
 70
     1
102
RTVSPropertyOp5
 70
     1
102
RTVSPropertyOp6
 70
     1
102
RTVSPropertyOp7
 70
     1
102
RTVSPropertyOp8
 70
     1
102
RTVSPropertyOp9
 70
     1
102
RTVSPropertyOp10
 70
     1
102
RTVSPropertyOp11
 70
     1
102
RTVSPropertyOp12
 70
     1
102
RTVSPropertyOp13
 70
     1
102
RTVSPropertyOp14
 70
     1
102
RTVSPropertyOp15
 70
     1
102
RTVSPropertyOp16
 70
     1
102
RTVSPropertyOp17
 70
     1
102
RTVSPropertyOp18
 70
     1
102
RTVSPropertyOp19
 70
     1
102
RTVSPropertyOp20
 70
     1
102
RTVSPropertyOp21
 70
     1
102
RTVSPropertyOp22
 70
     1
102
RTVSPropertyOp23
 70
     1
102
RTVSPropertyOp24
 70
     1
102
RTVSPropertyOp25
 70
     1
102
RTVSPropertyOp26
 70
     1
102
RTVSPropertyOp27
 70
     1
  0
XRECORD
  5
111
102
{ACAD_REACTORS
330
110
102
}
330
110
100
AcDbXrecord
280
     1
102
RTVSPropertyOp0
 70
     1
102
RTVSPropertyOp1
 70
     1
102
RTVSPropertyOp2
 70
     1
102
RTVSPropertyOp3
 70
     1
102
RTVSPropertyOp4
 70
     1
102
RTVSPropertyOp5
 70
     1
102
RTVSPropertyOp6
 70
     1
102
RTVSPropertyOp7
 70
     1
102
RTVSPropertyOp8
 70
     1
102
RTVSPropertyOp9
 70
     1
102
RTVSPropertyOp10
 70
     1
102
RTVSPropertyOp11
 70
     1
102
RTVSPropertyOp12
 70
     1
102
RTVSPropertyOp13
 70
     1
102
RTVSPropertyOp14
 70
     1
102
RTVSPropertyOp15
 70
     1
102
RTVSPropertyOp16
 70
     1
102
RTVSPropertyOp17
 70
     1
102
RTVSPropertyOp18
 70
     1
102
RTVSPropertyOp19
 70
     1
102
RTVSPropertyOp20
 70
     1
102
RTVSPropertyOp21
 70
     1
102
RTVSPropertyOp22
 70
     1
102
RTVSPropertyOp23
 70
     1
102
RTVSPropertyOp24
 70
     1
102
RTVSPropertyOp25
 70
     1
102
RTVSPropertyOp26
 70
     1
102
RTVSPropertyOp27
 70
     1
  0
XRECORD
  5
113
102
{ACAD_REACTORS
330
112
102
}
330
112
100
AcDbXrecord
280
     1
102
RTVSPropertyOp0
 70
     1
102
RTVSPropertyOp1
 70
     1
102
RTVSPropertyOp2
 70
     1
102
RTVSPropertyOp3
 70
     1
102
RTVSPropertyOp4
 70
     1
102
RTVSPropertyOp5
 70
     1
102
RTVSPropertyOp6
 70
     1
102
RTVSPropertyOp7
 70
     1
102
RTVSPropertyOp8
 70
     1
102
RTVSPropertyOp9
 70
     1
102
RTVSPropertyOp10
 70
     1
102
RTVSPropertyOp11
 70
     1
102
RTVSPropertyOp12
 70
     1
102
RTVSPropertyOp13
 70
     1
102
RTVSPropertyOp14
 70
     1
102
RTVSPropertyOp15
 70
     1
102
RTVSPropertyOp16
 70
     1
102
RTVSPropertyOp17
 70
     1
102
RTVSPropertyOp18
 70
     1
102
RTVSPropertyOp19
 70
     1
102
RTVSPropertyOp20
 70
     1
102
RTVSPropertyOp21
 70
     1
102
RTVSPropertyOp22
 70
     1
102
RTVSPropertyOp23
 70
     1
102
RTVSPropertyOp24
 70
     1
102
RTVSPropertyOp25
 70
     1
102
RTVSPropertyOp26
 70
     1
102
RTVSPropertyOp27
 70
     1
  0
XRECORD
  5
115
102
{ACAD_REACTORS
330
114
102
}
330
114
100
AcDbXrecord
280
     1
102
RTVSPropertyOp0
 70
     1
102
RTVSPropertyOp1
 70
     1
102
RTVSPropertyOp2
 70
     1
102
RTVSPropertyOp3
 70
     1
102
RTVSPropertyOp4
 70
     1
102
RTVSPropertyOp5
 70
     1
102
RTVSPropertyOp6
 70
     1
102
RTVSPropertyOp7
 70
     1
102
RTVSPropertyOp8
 70
     1
102
RTVSPropertyOp9
 70
     1
102
RTVSPropertyOp10
 70
     1
102
RTVSPropertyOp11
 70
     1
102
RTVSPropertyOp12
 70
     1
102
RTVSPropertyOp13
 70
     1
102
RTVSPropertyOp14
 70
     1
102
RTVSPropertyOp15
 70
     1
102
RTVSPropertyOp16
 70
     1
102
RTVSPropertyOp17
 70
     1
102
RTVSPropertyOp18
 70
     1
102
RTVSPropertyOp19
 70
     1
102
RTVSPropertyOp20
 70
     1
102
RTVSPropertyOp21
 70
     1
102
RTVSPropertyOp22
 70
     1
102
RTVSPropertyOp23
 70
     1
102
RTVSPropertyOp24
 70
     1
102
RTVSPropertyOp25
 70
     1
102
RTVSPropertyOp26
 70
     1
102
RTVSPropertyOp27
 70
     1
  0
XRECORD
  5
117
102
{ACAD_REACTORS
330
116
102
}
330
116
100
AcDbXrecord
280
     1
102
RTVSPropertyOp0
 70
     1
102
RTVSPropertyOp1
 70
     1
102
RTVSPropertyOp2
 70
     1
102
RTVSPropertyOp3
 70
     1
102
RTVSPropertyOp4
 70
     1
102
RTVSPropertyOp5
 70
     1
102
RTVSPropertyOp6
 70
     1
102
RTVSPropertyOp7
 70
     1
102
RTVSPropertyOp8
 70
     1
102
RTVSPropertyOp9
 70
     1
102
RTVSPropertyOp10
 70
     1
102
RTVSPropertyOp11
 70
     1
102
RTVSPropertyOp12
 70
     1
102
RTVSPropertyOp13
 70
     1
102
RTVSPropertyOp14
 70
     1
102
RTVSPropertyOp15
 70
     1
102
RTVSPropertyOp16
 70
     1
102
RTVSPropertyOp17
 70
     1
102
RTVSPropertyOp18
 70
     1
102
RTVSPropertyOp19
 70
     1
102
RTVSPropertyOp20
 70
     1
102
RTVSPropertyOp21
 70
     1
102
RTVSPropertyOp22
 70
     1
102
RTVSPropertyOp23
 70
     1
102
RTVSPropertyOp24
 70
     1
102
RTVSPropertyOp25
 70
     1
102
RTVSPropertyOp26
 70
     1
102
RTVSPropertyOp27
 70
     1
  0
XRECORD
  5
12B
102
{ACAD_REACTORS
330
12A
102
}
330
12A
100
AcDbXrecord
280
     1
102
RTVSPropertyOp0
 70
     1
102
RTVSPropertyOp1
 70
     1
102
RTVSPropertyOp2
 70
     1
102
RTVSPropertyOp3
 70
     1
102
RTVSPropertyOp4
 70
     1
102
RTVSPropertyOp5
 70
     1
102
RTVSPropertyOp6
 70
     1
102
RTVSPropertyOp7
 70
     1
102
RTVSPropertyOp8
 70
     1
102
RTVSPropertyOp9
 70
     1
102
RTVSPropertyOp10
 70
     1
102
RTVSPropertyOp11
 70
     1
102
RTVSPropertyOp12
 70
     1
102
RTVSPropertyOp13
 70
     1
102
RTVSPropertyOp14
 70
     1
102
RTVSPropertyOp15
 70
     1
102
RTVSPropertyOp16
 70
     1
102
RTVSPropertyOp17
 70
     1
102
RTVSPropertyOp18
 70
     1
102
RTVSPropertyOp19
 70
     1
102
RTVSPropertyOp20
 70
     1
102
RTVSPropertyOp21
 70
     1
102
RTVSPropertyOp22
 70
     1
102
RTVSPropertyOp23
 70
     1
102
RTVSPropertyOp24
 70
     1
102
RTVSPropertyOp25
 70
     1
102
RTVSPropertyOp26
 70
     1
102
RTVSPropertyOp27
 70
     1
  0
XRECORD
  5
121
102
{ACAD_REACTORS
330
120
102
}
330
120
100
AcDbXrecord
280
     1
102
RTVSPropertyOp0
 70
     1
102
RTVSPropertyOp1
 70
     1
102
RTVSPropertyOp2
 70
     1
102
RTVSPropertyOp3
 70
     1
102
RTVSPropertyOp4
 70
     1
102
RTVSPropertyOp5
 70
     1
102
RTVSPropertyOp6
 70
     1
102
RTVSPropertyOp7
 70
     1
102
RTVSPropertyOp8
 70
     1
102
RTVSPropertyOp9
 70
     1
102
RTVSPropertyOp10
 70
     1
102
RTVSPropertyOp11
 70
     1
102
RTVSPropertyOp12
 70
     1
102
RTVSPropertyOp13
 70
     1
102
RTVSPropertyOp14
 70
     1
102
RTVSPropertyOp15
 70
     1
102
RTVSPropertyOp16
 70
     1
102
RTVSPropertyOp17
 70
     1
102
RTVSPropertyOp18
 70
     1
102
RTVSPropertyOp19
 70
     1
102
RTVSPropertyOp20
 70
     1
102
RTVSPropertyOp21
 70
     1
102
RTVSPropertyOp22
 70
     1
102
RTVSPropertyOp23
 70
     1
102
RTVSPropertyOp24
 70
     1
102
RTVSPropertyOp25
 70
     1
102
RTVSPropertyOp26
 70
     1
102
RTVSPropertyOp27
 70
     1
  0
XRECORD
  5
129
102
{ACAD_REACTORS
330
128
102
}
330
128
100
AcDbXrecord
280
     1
102
RTVSPropertyOp0
 70
     1
102
RTVSPropertyOp1
 70
     1
102
RTVSPropertyOp2
 70
     1
102
RTVSPropertyOp3
 70
     1
102
RTVSPropertyOp4
 70
     1
102
RTVSPropertyOp5
 70
     1
102
RTVSPropertyOp6
 70
     1
102
RTVSPropertyOp7
 70
     1
102
RTVSPropertyOp8
 70
     1
102
RTVSPropertyOp9
 70
     1
102
RTVSPropertyOp10
 70
     1
102
RTVSPropertyOp11
 70
     1
102
RTVSPropertyOp12
 70
     1
102
RTVSPropertyOp13
 70
     1
102
RTVSPropertyOp14
 70
     1
102
RTVSPropertyOp15
 70
     1
102
RTVSPropertyOp16
 70
     1
102
RTVSPropertyOp17
 70
     1
102
RTVSPropertyOp18
 70
     1
102
RTVSPropertyOp19
 70
     1
102
RTVSPropertyOp20
 70
     1
102
RTVSPropertyOp21
 70
     1
102
RTVSPropertyOp22
 70
     1
102
RTVSPropertyOp23
 70
     1
102
RTVSPropertyOp24
 70
     1
102
RTVSPropertyOp25
 70
     1
102
RTVSPropertyOp26
 70
     1
102
RTVSPropertyOp27
 70
     1
  0
ENDSEC
  0
EOF
