  0
SECTION
  2
HEADER
  9
$ACADVER
  1
AC1014
  9
$ACADMAINTVER
 70
     9
  9
$DWGCODEPAGE
  3
ANSI_1250
  9
$INSBASE
 10
0.0
 20
0.0
 30
0.0
  9
$EXTMIN
 10
-33.4191
 20
-34.978
 30
0.0
  9
$EXTMAX
 10
33.4193
 20
34.9784
 30
0.0
  9
$LIMMIN
 10
0.0
 20
0.0
  9
$LIMMAX
 10
12.0
 20
9.0
  9
$ORTHOMODE
 70
     0
  9
$REGENMODE
 70
     1
  9
$FILLMODE
 70
     1
  9
$QTEXTMODE
 70
     0
  9
$MIRRTEXT
 70
     1
  9
$DRAGMODE
 70
     2
  9
$LTSCALE
 40
1.0
  9
$OSMODE
 70
    37
  9
$ATTMODE
 70
     1
  9
$TEXTSIZE
 40
0.2
  9
$TRACEWID
 40
0.05
  9
$TEXTSTYLE
  7
STANDARD
  9
$CLAYER
  8
0
  9
$CELTYPE
  6
BYLAYER
  9
$CECOLOR
 62
   256
  9
$CELTSCALE
 40
1.0
  9
$DELOBJ
 70
     1
  9
$DISPSILH
 70
     0
  9
$DIMSCALE
 40
1.0
  9
$DIMASZ
 40
0.18
  9
$DIMEXO
 40
0.0625
  9
$DIMDLI
 40
0.38
  9
$DIMRND
 40
0.0
  9
$DIMDLE
 40
0.0
  9
$DIMEXE
 40
0.18
  9
$DIMTP
 40
0.0
  9
$DIMTM
 40
0.0
  9
$DIMTXT
 40
0.18
  9
$DIMCEN
 40
0.09
  9
$DIMTSZ
 40
0.0
  9
$DIMTOL
 70
     0
  9
$DIMLIM
 70
     0
  9
$DIMTIH
 70
     1
  9
$DIMTOH
 70
     1
  9
$DIMSE1
 70
     0
  9
$DIMSE2
 70
     0
  9
$DIMTAD
 70
     0
  9
$DIMZIN
 70
     0
  9
$DIMBLK
  1

  9
$DIMASO
 70
     1
  9
$DIMSHO
 70
     1
  9
$DIMPOST
  1

  9
$DIMAPOST
  1

  9
$DIMALT
 70
     0
  9
$DIMALTD
 70
     2
  9
$DIMALTF
 40
25.4
  9
$DIMLFAC
 40
1.0
  9
$DIMTOFL
 70
     0
  9
$DIMTVP
 40
0.0
  9
$DIMTIX
 70
     0
  9
$DIMSOXD
 70
     0
  9
$DIMSAH
 70
     0
  9
$DIMBLK1
  1

  9
$DIMBLK2
  1

  9
$DIMSTYLE
  2
STANDARD
  9
$DIMCLRD
 70
     0
  9
$DIMCLRE
 70
     0
  9
$DIMCLRT
 70
     0
  9
$DIMTFAC
 40
1.0
  9
$DIMGAP
 40
0.09
  9
$DIMJUST
 70
     0
  9
$DIMSD1
 70
     0
  9
$DIMSD2
 70
     0
  9
$DIMTOLJ
 70
     1
  9
$DIMTZIN
 70
     0
  9
$DIMALTZ
 70
     0
  9
$DIMALTTZ
 70
     0
  9
$DIMFIT
 70
     3
  9
$DIMUPT
 70
     0
  9
$DIMUNIT
 70
     2
  9
$DIMDEC
 70
     4
  9
$DIMTDEC
 70
     4
  9
$DIMALTU
 70
     2
  9
$DIMALTTD
 70
     2
  9
$DIMTXSTY
  7
STANDARD
  9
$DIMAUNIT
 70
     0
  9
$LUNITS
 70
     2
  9
$LUPREC
 70
     4
  9
$SKETCHINC
 40
0.1
  9
$FILLETRAD
 40
0.5
  9
$AUNITS
 70
     0
  9
$AUPREC
 70
     0
  9
$MENU
  1
.
  9
$ELEVATION
 40
0.0
  9
$PELEVATION
 40
0.0
  9
$THICKNESS
 40
0.0
  9
$LIMCHECK
 70
     0
  9
$CHAMFERA
 40
0.5
  9
$CHAMFERB
 40
0.5
  9
$CHAMFERC
 40
1.0
  9
$CHAMFERD
 40
0.0
  9
$SKPOLY
 70
     0
  9
$TDCREATE
 40
2456225.462109352
  9
$TDUPDATE
 40
2456225.462109364
  9
$TDINDWG
 40
0.0000000116
  9
$TDUSRTIMER
 40
0.0000000116
  9
$USRTIMER
 70
     1
  9
$ANGBASE
 50
0.0
  9
$ANGDIR
 70
     0
  9
$PDMODE
 70
     0
  9
$PDSIZE
 40
0.0
  9
$PLINEWID
 40
0.0
  9
$COORDS
 70
     1
  9
$SPLFRAME
 70
     0
  9
$SPLINETYPE
 70
     6
  9
$SPLINESEGS
 70
     8
  9
$ATTDIA
 70
     0
  9
$ATTREQ
 70
     1
  9
$HANDLING
 70
     1
  9
$HANDSEED
  5
C7
  9
$SURFTAB1
 70
     6
  9
$SURFTAB2
 70
     6
  9
$SURFTYPE
 70
     6
  9
$SURFU
 70
     6
  9
$SURFV
 70
     6
  9
$UCSNAME
  2

  9
$UCSORG
 10
0.0
 20
0.0
 30
0.0
  9
$UCSXDIR
 10
1.0
 20
0.0
 30
0.0
  9
$UCSYDIR
 10
0.0
 20
1.0
 30
0.0
  9
$PUCSNAME
  2

  9
$PUCSORG
 10
0.0
 20
0.0
 30
0.0
  9
$PUCSXDIR
 10
1.0
 20
0.0
 30
0.0
  9
$PUCSYDIR
 10
0.0
 20
1.0
 30
0.0
  9
$USERI1
 70
     0
  9
$USERI2
 70
     0
  9
$USERI3
 70
     0
  9
$USERI4
 70
     0
  9
$USERI5
 70
     0
  9
$USERR1
 40
0.0
  9
$USERR2
 40
0.0
  9
$USERR3
 40
0.0
  9
$USERR4
 40
0.0
  9
$USERR5
 40
0.0
  9
$WORLDVIEW
 70
     1
  9
$SHADEDGE
 70
     3
  9
$SHADEDIF
 70
    70
  9
$TILEMODE
 70
     1
  9
$MAXACTVP
 70
    64
  9
$PINSBASE
 10
0.0
 20
0.0
 30
0.0
  9
$PLIMCHECK
 70
     0
  9
$PEXTMIN
 10
1.000000000000000E+20
 20
1.000000000000000E+20
 30
1.000000000000000E+20
  9
$PEXTMAX
 10
-1.000000000000000E+20
 20
-1.000000000000000E+20
 30
-1.000000000000000E+20
  9
$PLIMMIN
 10
0.0
 20
0.0
  9
$PLIMMAX
 10
12.0
 20
9.0
  9
$UNITMODE
 70
     0
  9
$VISRETAIN
 70
     1
  9
$PLINEGEN
 70
     0
  9
$PSLTSCALE
 70
     1
  9
$TREEDEPTH
 70
  3020
  9
$PICKSTYLE
 70
     1
  9
$CMLSTYLE
  2
STANDARD
  9
$CMLJUST
 70
     0
  9
$CMLSCALE
 40
1.0
  9
$PROXYGRAPHICS
 70
     1
  9
$MEASUREMENT
 70
     0
  0
ENDSEC
  0
SECTION
  2
CLASSES
  0
CLASS
  1
ACDBDICTIONARYWDFLT
  2
AcDbDictionaryWithDefault
  3
ObjectDBX Classes
 90
        0
280
     0
281
     0
  0
CLASS
  1
VISUALSTYLE
  2
AcDbVisualStyle
  3
ObjectDBX Classes
 90
     4095
280
     0
281
     0
  0
CLASS
  1
MATERIAL
  2
AcDbMaterial
  3
ObjectDBX Classes
 90
     1153
280
     0
281
     0
  0
CLASS
  1
DICTIONARYVAR
  2
AcDbDictionaryVar
  3
ObjectDBX Classes
 90
        0
280
     0
281
     0
  0
CLASS
  1
XRECORD
  2
AcDbXrecord
  3
AutoCAD 2000
 90
        0
280
     0
281
     0
  0
CLASS
  1
LWPOLYLINE
  2
AcDbPolyline
  3
AutoCAD 2000
 90
        0
280
     0
281
     1
  0
CLASS
  1
HATCH
  2
AcDbHatch
  3
AutoCAD 2000
 90
        0
280
     0
281
     1
  0
CLASS
  1
ACDBPLACEHOLDER
  2
AcDbPlaceHolder
  3
ObjectDBX Classes
 90
        0
280
     0
281
     0
  0
CLASS
  1
LAYOUT
  2
AcDbLayout
  3
ObjectDBX Classes
 90
        0
280
     0
281
     0
  0
ENDSEC
  0
SECTION
  2
TABLES
  0
TABLE
  2
VPORT
  5
8
330
0
100
AcDbSymbolTable
 70
     1
  0
VPORT
  5
29
330
8
100
AcDbSymbolTableRecord
100
AcDbViewportTableRecord
  2
*ACTIVE
 70
     0
 10
0.0
 20
0.0
 11
1.0
 21
1.0
 12
10.42990654205607
 22
4.5
 13
0.0
 23
0.0
 14
0.5
 24
0.5
 15
0.5
 25
0.5
 16
0.0
 26
0.0
 36
1.0
 17
0.0
 27
0.0
 37
0.0
 40
9.0
 41
1.972972972850329
 42
50.0
 43
0.0
 44
0.0
 50
0.0
 51
0.0
 71
     0
 72
   100
 73
     1
 74
     3
 75
     0
 76
     0
 77
     0
 78
     0
  0
ENDTAB
  0
TABLE
  2
LTYPE
  5
5
330
0
100
AcDbSymbolTable
 70
     6
  0
LTYPE
  5
14
330
5
100
AcDbSymbolTableRecord
100
AcDbLinetypeTableRecord
  2
BYBLOCK
 70
     0
  3

 72
    65
 73
     0
 40
0.0
  0
LTYPE
  5
15
330
5
100
AcDbSymbolTableRecord
100
AcDbLinetypeTableRecord
  2
BYLAYER
 70
     0
  3

 72
    65
 73
     0
 40
0.0
  0
LTYPE
  5
16
330
5
100
AcDbSymbolTableRecord
100
AcDbLinetypeTableRecord
  2
CONTINUOUS
 70
     0
  3
Solid line
 72
    65
 73
     0
 40
0.0
  0
LTYPE
  5
81
330
5
100
AcDbSymbolTableRecord
100
AcDbLinetypeTableRecord
  2
NEW_LINE1
 70
     0
  3

 72
    65
 73
     4
 40
1.2
 49
0.5
 74
     4
 75
     0
340
0
 46
1.0
 50
0.0
 44
0.0
 45
0.0
 49
-0.3
 74
     4
 75
     0
340
0
 46
1.0
 50
0.0
 44
0.0
 45
0.0
 49
0.1
 74
     4
 75
     0
340
0
 46
1.0
 50
0.0
 44
0.0
 45
0.0
 49
-0.3
 74
     4
 75
     0
340
0
 46
1.0
 50
0.0
 44
0.0
 45
0.0
  0
LTYPE
  5
83
330
5
100
AcDbSymbolTableRecord
100
AcDbLinetypeTableRecord
  2
NEW_LINE2
 70
     0
  3

 72
    65
 73
     4
 40
1.2
 49
0.5
 74
     4
 75
     0
340
0
 46
1.0
 50
0.0
 44
0.0
 45
0.0
 49
-0.3
 74
     4
 75
     0
340
0
 46
1.0
 50
0.0
 44
0.0
 45
0.0
 49
0.1
 74
     4
 75
     0
340
0
 46
1.0
 50
0.0
 44
0.0
 45
0.0
 49
-0.3
 74
     4
 75
     0
340
0
 46
1.0
 50
0.0
 44
0.0
 45
0.0
  0
LTYPE
  5
85
330
5
100
AcDbSymbolTableRecord
100
AcDbLinetypeTableRecord
  2
NEW_LINE3
 70
     0
  3

 72
    65
 73
     4
 40
1.2
 49
0.5
 74
     4
 75
     0
340
0
 46
1.0
 50
0.0
 44
0.0
 45
0.0
 49
-0.3
 74
     4
 75
     0
340
0
 46
1.0
 50
0.0
 44
0.0
 45
0.0
 49
0.1
 74
     4
 75
     0
340
0
 46
1.0
 50
0.0
 44
0.0
 45
0.0
 49
-0.3
 74
     4
 75
     0
340
0
 46
1.0
 50
0.0
 44
0.0
 45
0.0
  0
LTYPE
  5
8D
330
5
100
AcDbSymbolTableRecord
100
AcDbLinetypeTableRecord
  2
NEW_LINE4
 70
     0
  3

 72
    65
 73
     4
 40
1.2
 49
0.5
 74
     4
 75
     0
340
0
 46
1.0
 50
0.0
 44
0.0
 45
0.0
 49
-0.3
 74
     4
 75
     0
340
0
 46
1.0
 50
0.0
 44
0.0
 45
0.0
 49
0.1
 74
     4
 75
     0
340
0
 46
1.0
 50
0.0
 44
0.0
 45
0.0
 49
-0.3
 74
     4
 75
     0
340
0
 46
1.0
 50
0.0
 44
0.0
 45
0.0
  0
LTYPE
  5
8F
330
5
100
AcDbSymbolTableRecord
100
AcDbLinetypeTableRecord
  2
NEW_LINE5
 70
     0
  3

 72
    65
 73
     4
 40
1.2
 49
0.5
 74
     4
 75
     0
340
0
 46
1.0
 50
0.0
 44
0.0
 45
0.0
 49
-0.3
 74
     4
 75
     0
340
0
 46
1.0
 50
0.0
 44
0.0
 45
0.0
 49
0.1
 74
     4
 75
     0
340
0
 46
1.0
 50
0.0
 44
0.0
 45
0.0
 49
-0.3
 74
     4
 75
     0
340
0
 46
1.0
 50
0.0
 44
0.0
 45
0.0
  0
ENDTAB
  0
TABLE
  2
LAYER
  5
2
330
0
100
AcDbSymbolTable
 70
     2
  0
LAYER
  5
10
330
2
100
AcDbSymbolTableRecord
100
AcDbLayerTableRecord
  2
0
 70
     0
 62
     7
  6
CONTINUOUS
  0
LAYER
  5
40
330
2
100
AcDbSymbolTableRecord
100
AcDbLayerTableRecord
  2
VRSTVA_1
 70
     0
 62
     7
  6
CONTINUOUS
  0
ENDTAB
  0
TABLE
  2
STYLE
  5
3
330
0
100
AcDbSymbolTable
 70
     1
  0
STYLE
  5
11
330
3
100
AcDbSymbolTableRecord
100
AcDbTextStyleTableRecord
  2
STANDARD
 70
     0
 40
0.0
 41
1.0
 50
0.0
 71
     0
 42
0.2
  3
txt
  4

  0
ENDTAB
  0
TABLE
  2
VIEW
  5
6
330
0
100
AcDbSymbolTable
 70
     0
  0
ENDTAB
  0
TABLE
  2
UCS
  5
7
330
0
100
AcDbSymbolTable
 70
     0
  0
ENDTAB
  0
TABLE
  2
APPID
  5
9
330
0
100
AcDbSymbolTable
 70
     2
  0
APPID
  5
12
330
9
100
AcDbSymbolTableRecord
100
AcDbRegAppTableRecord
  2
ACAD
 70
     0
  0
APPID
  5
3F
330
9
100
AcDbSymbolTableRecord
100
AcDbRegAppTableRecord
  2
ODA
 70
     0
  0
ENDTAB
  0
TABLE
  2
DIMSTYLE
  5
A
330
0
100
AcDbSymbolTable
 70
     1
  0
DIMSTYLE
105
27
330
A
100
AcDbSymbolTableRecord
100
AcDbDimStyleTableRecord
  2
STANDARD
 70
     0
  3

  4

  5

  6

  7

 40
1.0
 41
0.18
 42
0.0625
 43
0.38
 44
0.18
 45
0.0
 46
0.0
 47
0.0
 48
0.0
140
0.18
141
0.09
142
0.0
143
25.4
144
1.0
145
0.0
146
1.0
147
0.09
 71
     0
 72
     0
 73
     1
 74
     1
 75
     0
 76
     0
 77
     0
 78
     0
170
     0
171
     2
172
     0
173
     0
174
     0
175
     0
176
     0
177
     0
178
     0
270
     2
271
     4
272
     4
273
     2
274
     2
340
11
275
     0
280
     0
281
     0
282
     0
283
     1
284
     0
285
     0
286
     0
287
     3
288
     0
  0
ENDTAB
  0
TABLE
  2
BLOCK_RECORD
  5
1
330
0
100
AcDbSymbolTable
 70
     1
  0
BLOCK_RECORD
  5
1F
330
1
100
AcDbSymbolTableRecord
100
AcDbBlockTableRecord
  2
*MODEL_SPACE
  0
BLOCK_RECORD
  5
1B
330
1
100
AcDbSymbolTableRecord
100
AcDbBlockTableRecord
  2
*PAPER_SPACE
  0
ENDTAB
  0
ENDSEC
  0
SECTION
  2
BLOCKS
  0
BLOCK
  5
20
330
1F
100
AcDbEntity
  8
0
100
AcDbBlockBegin
  2
*MODEL_SPACE
 70
     0
 10
0.0
 20
0.0
 30
0.0
  3
*MODEL_SPACE
  1

  0
ENDBLK
  5
21
330
1F
100
AcDbEntity
  8
0
100
AcDbBlockEnd
  0
BLOCK
  5
1C
330
1B
100
AcDbEntity
 67
     1
  8
0
100
AcDbBlockBegin
  2
*PAPER_SPACE
 70
     0
 10
0.0
 20
0.0
 30
0.0
  3
*PAPER_SPACE
  1

  0
ENDBLK
  5
1D
330
1B
100
AcDbEntity
 67
     1
  8
0
100
AcDbBlockEnd
  0
ENDSEC
  0
SECTION
  2
ENTITIES
  0
SPLINE
  5
41
330
1F
100
AcDbEntity
  8
VRSTVA_1
 62
   250
100
AcDbSpline
210
0.0
220
0.0
230
1.0
 70
    11
 71
     3
 72
    40
 73
    36
 74
     0
 42
0.0000000001
 43
0.0000000001
 40
0.0
 40
0.0
 40
0.0
 40
0.0
 40
0.1
 40
0.1
 40
0.1
 40
0.1
 40
0.2
 40
0.2
 40
0.2
 40
0.2
 40
0.3
 40
0.3
 40
0.3
 40
0.3
 40
0.4
 40
0.4
 40
0.4
 40
0.4
 40
0.5
 40
0.5
 40
0.5
 40
0.5
 40
0.6
 40
0.6
 40
0.6
 40
0.6
 40
0.7
 40
0.7
 40
0.7
 40
0.7
 40
0.8
 40
0.8
 40
0.8
 40
0.8
 40
1.0
 40
1.0
 40
1.0
 40
1.0
 10
-6.5792
 20
32.9497
 30
0.0
 10
-6.5792
 20
32.9497
 30
0.0
 10
-6.8271
 20
32.9497
 30
0.0
 10
-6.8271
 20
32.9497
 30
0.0
 10
-6.8271
 20
32.9497
 30
0.0
 10
-6.8271
 20
32.9497
 30
0.0
 10
-6.8271
 20
34.5301
 30
0.0
 10
-6.8271
 20
34.5301
 30
0.0
 10
-6.8271
 20
34.5301
 30
0.0
 10
-6.8869
 20
34.4732
 30
0.0
 10
-6.9649
 20
34.4163
 30
0.0
 10
-7.0618
 20
34.3594
 30
0.0
 10
-7.0618
 20
34.3594
 30
0.0
 10
-7.1592
 20
34.3025
 30
0.0
 10
-7.2462
 20
34.2597
 30
0.0
 10
-7.3234
 20
34.2314
 30
0.0
 10
-7.3234
 20
34.2314
 30
0.0
 10
-7.3234
 20
34.2314
 30
0.0
 10
-7.3234
 20
34.4709
 30
0.0
 10
-7.3234
 20
34.4709
 30
0.0
 10
-7.3234
 20
34.4709
 30
0.0
 10
-7.1846
 20
34.5362
 30
0.0
 10
-7.0632
 20
34.6153
 30
0.0
 10
-6.9593
 20
34.7079
 30
0.0
 10
-6.9593
 20
34.7079
 30
0.0
 10
-6.8558
 20
34.8011
 30
0.0
 10
-6.782
 20
34.8909
 30
0.0
 10
-6.7387
 20
34.9784
 30
0.0
 10
-6.7387
 20
34.9784
 30
0.0
 10
-6.7387
 20
34.9784
 30
0.0
 10
-6.5792
 20
34.9784
 30
0.0
 10
-6.5792
 20
34.9784
 30
0.0
 10
-6.5792
 20
34.9784
 30
0.0
 10
-6.5792
 20
34.9784
 30
0.0
 10
-6.5792
 20
32.9497
 30
0.0
 10
-6.5792
 20
32.9497
 30
0.0
  0
SPLINE
  5
42
330
1F
100
AcDbEntity
  8
VRSTVA_1
 62
   250
100
AcDbSpline
210
0.0
220
0.0
230
1.0
 70
    11
 71
     3
 72
    48
 73
    44
 74
     0
 42
0.0000000001
 43
0.0000000001
 40
0.0
 40
0.0
 40
0.0
 40
0.0
 40
0.0833333333333333
 40
0.0833333333333333
 40
0.0833333333333333
 40
0.0833333333333333
 40
0.1666666666666667
 40
0.1666666666666667
 40
0.1666666666666667
 40
0.1666666666666667
 40
0.25
 40
0.25
 40
0.25
 40
0.25
 40
0.3333333333333333
 40
0.3333333333333333
 40
0.3333333333333333
 40
0.3333333333333333
 40
0.4166666666666667
 40
0.4166666666666667
 40
0.4166666666666667
 40
0.4166666666666667
 40
0.5
 40
0.5
 40
0.5
 40
0.5
 40
0.5833333333333334
 40
0.5833333333333334
 40
0.5833333333333334
 40
0.5833333333333334
 40
0.6666666666666666
 40
0.6666666666666666
 40
0.6666666666666666
 40
0.6666666666666666
 40
0.75
 40
0.75
 40
0.75
 40
0.75
 40
0.8333333333333334
 40
0.8333333333333334
 40
0.8333333333333334
 40
0.8333333333333334
 40
1.0
 40
1.0
 40
1.0
 40
1.0
 10
-5.1489
 20
32.9497
 30
0.0
 10
-5.1489
 20
32.9497
 30
0.0
 10
-5.1489
 20
33.4332
 30
0.0
 10
-5.1489
 20
33.4332
 30
0.0
 10
-5.1489
 20
33.4332
 30
0.0
 10
-5.1489
 20
33.4332
 30
0.0
 10
-6.0252
 20
33.4332
 30
0.0
 10
-6.0252
 20
33.4332
 30
0.0
 10
-6.0252
 20
33.4332
 30
0.0
 10
-6.0252
 20
33.4332
 30
0.0
 10
-6.0252
 20
33.6609
 30
0.0
 10
-6.0252
 20
33.6609
 30
0.0
 10
-6.0252
 20
33.6609
 30
0.0
 10
-6.0252
 20
33.6609
 30
0.0
 10
-5.1032
 20
34.9699
 30
0.0
 10
-5.1032
 20
34.9699
 30
0.0
 10
-5.1032
 20
34.9699
 30
0.0
 10
-5.1032
 20
34.9699
 30
0.0
 10
-4.9005
 20
34.9699
 30
0.0
 10
-4.9005
 20
34.9699
 30
0.0
 10
-4.9005
 20
34.9699
 30
0.0
 10
-4.9005
 20
34.9699
 30
0.0
 10
-4.9005
 20
33.6609
 30
0.0
 10
-4.9005
 20
33.6609
 30
0.0
 10
-4.9005
 20
33.6609
 30
0.0
 10
-4.9005
 20
33.6609
 30
0.0
 10
-4.6277
 20
33.6609
 30
0.0
 10
-4.6277
 20
33.6609
 30
0.0
 10
-4.6277
 20
33.6609
 30
0.0
 10
-4.6277
 20
33.6609
 30
0.0
 10
-4.6277
 20
33.4332
 30
0.0
 10
-4.6277
 20
33.4332
 30
0.0
 10
-4.6277
 20
33.4332
 30
0.0
 10
-4.6277
 20
33.4332
 30
0.0
 10
-4.9005
 20
33.4332
 30
0.0
 10
-4.9005
 20
33.4332
 30
0.0
 10
-4.9005
 20
33.4332
 30
0.0
 10
-4.9005
 20
33.4332
 30
0.0
 10
-4.9005
 20
32.9497
 30
0.0
 10
-4.9005
 20
32.9497
 30
0.0
 10
-4.9005
 20
32.9497
 30
0.0
 10
-4.9005
 20
32.9497
 30
0.0
 10
-5.1489
 20
32.9497
 30
0.0
 10
-5.1489
 20
32.9497
 30
0.0
  0
SPLINE
  5
43
330
1F
100
AcDbEntity
  8
VRSTVA_1
 62
   250
100
AcDbSpline
210
0.0
220
0.0
230
1.0
 70
    11
 71
     3
 72
    16
 73
    12
 74
     0
 42
0.0000000001
 43
0.0000000001
 40
0.0
 40
0.0
 40
0.0
 40
0.0
 40
0.25
 40
0.25
 40
0.25
 40
0.25
 40
0.5
 40
0.5
 40
0.5
 40
0.5
 40
1.0
 40
1.0
 40
1.0
 40
1.0
 10
-5.1489
 20
33.6609
 30
0.0
 10
-5.1489
 20
33.6609
 30
0.0
 10
-5.1489
 20
34.5715
 30
0.0
 10
-5.1489
 20
34.5715
 30
0.0
 10
-5.1489
 20
34.5715
 30
0.0
 10
-5.1489
 20
34.5715
 30
0.0
 10
-5.781
 20
33.6609
 30
0.0
 10
-5.781
 20
33.6609
 30
0.0
 10
-5.781
 20
33.6609
 30
0.0
 10
-5.781
 20
33.6609
 30
0.0
 10
-5.1489
 20
33.6609
 30
0.0
 10
-5.1489
 20
33.6609
 30
0.0
  0
SPLINE
  5
44
330
1F
100
AcDbEntity
  8
VRSTVA_1
 62
   250
100
AcDbSpline
210
0.0
220
0.0
230
1.0
 70
    11
 71
     3
 72
    80
 73
    76
 74
     0
 42
0.0000000001
 43
0.0000000001
 40
0.0
 40
0.0
 40
0.0
 40
0.0
 40
0.05
 40
0.05
 40
0.05
 40
0.05
 40
0.1
 40
0.1
 40
0.1
 40
0.1
 40
0.15
 40
0.15
 40
0.15
 40
0.15
 40
0.2
 40
0.2
 40
0.2
 40
0.2
 40
0.25
 40
0.25
 40
0.25
 40
0.25
 40
0.3
 40
0.3
 40
0.3
 40
0.3
 40
0.35
 40
0.35
 40
0.35
 40
0.35
 40
0.4
 40
0.4
 40
0.4
 40
0.4
 40
0.45
 40
0.45
 40
0.45
 40
0.45
 40
0.5
 40
0.5
 40
0.5
 40
0.5
 40
0.55
 40
0.55
 40
0.55
 40
0.55
 40
0.6
 40
0.6
 40
0.6
 40
0.6
 40
0.65
 40
0.65
 40
0.65
 40
0.65
 40
0.7
 40
0.7
 40
0.7
 40
0.7
 40
0.75
 40
0.75
 40
0.75
 40
0.75
 40
0.8
 40
0.8
 40
0.8
 40
0.8
 40
0.85
 40
0.85
 40
0.85
 40
0.85
 40
0.9
 40
0.9
 40
0.9
 40
0.9
 40
1.0
 40
1.0
 40
1.0
 40
1.0
 10
-3.0873
 20
34.4751
 30
0.0
 10
-3.0873
 20
34.4751
 30
0.0
 10
-3.3337
 20
34.4558
 30
0.0
 10
-3.3337
 20
34.4558
 30
0.0
 10
-3.3337
 20
34.4558
 30
0.0
 10
-3.3558
 20
34.5532
 30
0.0
 10
-3.3869
 20
34.6242
 30
0.0
 10
-3.4273
 20
34.6679
 30
0.0
 10
-3.4273
 20
34.6679
 30
0.0
 10
-3.4946
 20
34.739
 30
0.0
 10
-3.5774
 20
34.7743
 30
0.0
 10
-3.6757
 20
34.7743
 30
0.0
 10
-3.6757
 20
34.7743
 30
0.0
 10
-3.7547
 20
34.7743
 30
0.0
 10
-3.8238
 20
34.7521
 30
0.0
 10
-3.8836
 20
34.7079
 30
0.0
 10
-3.8836
 20
34.7079
 30
0.0
 10
-3.9617
 20
34.651
 30
0.0
 10
-4.0233
 20
34.5678
 30
0.0
 10
-4.0684
 20
34.4586
 30
0.0
 10
-4.0684
 20
34.4586
 30
0.0
 10
-4.1131
 20
34.3495
 30
0.0
 10
-4.1366
 20
34.1938
 30
0.0
 10
-4.1385
 20
33.9916
 30
0.0
 10
-4.1385
 20
33.9916
 30
0.0
 10
-4.0788
 20
34.0823
 30
0.0
 10
-4.0059
 20
34.1501
 30
0.0
 10
-3.9193
 20
34.1943
 30
0.0
 10
-3.9193
 20
34.1943
 30
0.0
 10
-3.8333
 20
34.238
 30
0.0
 10
-3.7425
 20
34.2601
 30
0.0
 10
-3.6479
 20
34.2601
 30
0.0
 10
-3.6479
 20
34.2601
 30
0.0
 10
-3.4824
 20
34.2601
 30
0.0
 10
-3.3417
 20
34.1995
 30
0.0
 10
-3.2255
 20
34.0776
 30
0.0
 10
-3.2255
 20
34.0776
 30
0.0
 10
-3.1094
 20
33.9558
 30
0.0
 10
-3.051
 20
33.7987
 30
0.0
 10
-3.051
 20
33.6059
 30
0.0
 10
-3.051
 20
33.6059
 30
0.0
 10
-3.051
 20
33.4789
 30
0.0
 10
-3.0788
 20
33.3613
 30
0.0
 10
-3.1334
 20
33.2521
 30
0.0
 10
-3.1334
 20
33.2521
 30
0.0
 10
-3.1879
 20
33.1435
 30
0.0
 10
-3.2632
 20
33.0598
 30
0.0
 10
-3.3587
 20
33.0019
 30
0.0
 10
-3.3587
 20
33.0019
 30
0.0
 10
-3.4541
 20
32.9441
 30
0.0
 10
-3.5623
 20
32.9154
 30
0.0
 10
-3.6837
 20
32.9154
 30
0.0
 10
-3.6837
 20
32.9154
 30
0.0
 10
-3.8906
 20
32.9154
 30
0.0
 10
-4.059
 20
32.9911
 30
0.0
 10
-4.1893
 20
33.1435
 30
0.0
 10
-4.1893
 20
33.1435
 30
0.0
 10
-4.3201
 20
33.2954
 30
0.0
 10
-4.385
 20
33.5461
 30
0.0
 10
-4.385
 20
33.8951
 30
0.0
 10
-4.385
 20
33.8951
 30
0.0
 10
-4.385
 20
34.2855
 30
0.0
 10
-4.313
 20
34.5692
 30
0.0
 10
-4.1686
 20
34.7465
 30
0.0
 10
-4.1686
 20
34.7465
 30
0.0
 10
-4.043
 20
34.9008
 30
0.0
 10
-3.8737
 20
34.9784
 30
0.0
 10
-3.6602
 20
34.9784
 30
0.0
 10
-3.6602
 20
34.9784
 30
0.0
 10
-3.5016
 20
34.9784
 30
0.0
 10
-3.3714
 20
34.9337
 30
0.0
 10
-3.2698
 20
34.8443
 30
0.0
 10
-3.2698
 20
34.8443
 30
0.0
 10
-3.1682
 20
34.7554
 30
0.0
 10
-3.1075
 20
34.6322
 30
0.0
 10
-3.0873
 20
34.4751
 30
0.0
  0
SPLINE
  5
45
330
1F
100
AcDbEntity
  8
VRSTVA_1
 62
   250
100
AcDbSpline
210
0.0
220
0.0
230
1.0
 70
    11
 71
     3
 72
    40
 73
    36
 74
     0
 42
0.0000000001
 43
0.0000000001
 40
0.0
 40
0.0
 40
0.0
 40
0.0
 40
0.1
 40
0.1
 40
0.1
 40
0.1
 40
0.2
 40
0.2
 40
0.2
 40
0.2
 40
0.3
 40
0.3
 40
0.3
 40
0.3
 40
0.4
 40
0.4
 40
0.4
 40
0.4
 40
0.5
 40
0.5
 40
0.5
 40
0.5
 40
0.6
 40
0.6
 40
0.6
 40
0.6
 40
0.7
 40
0.7
 40
0.7
 40
0.7
 40
0.8
 40
0.8
 40
0.8
 40
0.8
 40
1.0
 40
1.0
 40
1.0
 40
1.0
 10
-4.1
 20
33.6045
 30
0.0
 10
-4.1
 20
33.5188
 30
0.0
 10
-4.0816
 20
33.437
 30
0.0
 10
-4.0454
 20
33.3589
 30
0.0
 10
-4.0454
 20
33.3589
 30
0.0
 10
-4.0092
 20
33.2808
 30
0.0
 10
-3.9584
 20
33.2216
 30
0.0
 10
-3.8935
 20
33.1807
 30
0.0
 10
-3.8935
 20
33.1807
 30
0.0
 10
-3.8281
 20
33.1397
 30
0.0
 10
-3.7594
 20
33.119
 30
0.0
 10
-3.6879
 20
33.119
 30
0.0
 10
-3.6879
 20
33.119
 30
0.0
 10
-3.583
 20
33.119
 30
0.0
 10
-3.4932
 20
33.1614
 30
0.0
 10
-3.4179
 20
33.246
 30
0.0
 10
-3.4179
 20
33.246
 30
0.0
 10
-3.3427
 20
33.3307
 30
0.0
 10
-3.305
 20
33.4455
 30
0.0
 10
-3.305
 20
33.5903
 30
0.0
 10
-3.305
 20
33.5903
 30
0.0
 10
-3.305
 20
33.73
 30
0.0
 10
-3.3422
 20
33.8401
 30
0.0
 10
-3.4165
 20
33.9205
 30
0.0
 10
-3.4165
 20
33.9205
 30
0.0
 10
-3.4908
 20
34.001
 30
0.0
 10
-3.5844
 20
34.041
 30
0.0
 10
-3.6973
 20
34.041
 30
0.0
 10
-3.6973
 20
34.041
 30
0.0
 10
-3.8097
 20
34.041
 30
0.0
 10
-3.9048
 20
34.001
 30
0.0
 10
-3.9828
 20
33.9205
 30
0.0
 10
-3.9828
 20
33.9205
 30
0.0
 10
-4.0609
 20
33.8401
 30
0.0
 10
-4.1
 20
33.7347
 30
0.0
 10
-4.1
 20
33.6045
 30
0.0
  0
SPLINE
  5
46
330
1F
100
AcDbEntity
  8
VRSTVA_1
 62
   250
100
AcDbSpline
210
0.0
220
0.0
230
1.0
 70
    11
 71
     3
 72
    52
 73
    48
 74
     0
 42
0.0000000001
 43
0.0000000001
 40
0.0
 40
0.0
 40
0.0
 40
0.0
 40
0.0769230769230769
 40
0.0769230769230769
 40
0.0769230769230769
 40
0.0769230769230769
 40
0.1538461538461539
 40
0.1538461538461539
 40
0.1538461538461539
 40
0.1538461538461539
 40
0.2307692307692308
 40
0.2307692307692308
 40
0.2307692307692308
 40
0.2307692307692308
 40
0.3076923076923077
 40
0.3076923076923077
 40
0.3076923076923077
 40
0.3076923076923077
 40
0.3846153846153846
 40
0.3846153846153846
 40
0.3846153846153846
 40
0.3846153846153846
 40
0.4615384615384616
 40
0.4615384615384616
 40
0.4615384615384616
 40
0.4615384615384616
 40
0.5384615384615384
 40
0.5384615384615384
 40
0.5384615384615384
 40
0.5384615384615384
 40
0.6153846153846154
 40
0.6153846153846154
 40
0.6153846153846154
 40
0.6153846153846154
 40
0.6923076923076923
 40
0.6923076923076923
 40
0.6923076923076923
 40
0.6923076923076923
 40
0.7692307692307693
 40
0.7692307692307693
 40
0.7692307692307693
 40
0.7692307692307693
 40
0.8461538461538461
 40
0.8461538461538461
 40
0.8461538461538461
 40
0.8461538461538461
 40
1.0
 40
1.0
 40
1.0
 40
1.0
 10
-1.4805
 20
33.3081
 30
0.0
 10
-1.4805
 20
33.3081
 30
0.0
 10
-1.4805
 20
33.8632
 30
0.0
 10
-1.4805
 20
33.8632
 30
0.0
 10
-1.4805
 20
33.8632
 30
0.0
 10
-1.4805
 20
33.8632
 30
0.0
 10
-2.0299
 20
33.8632
 30
0.0
 10
-2.0299
 20
33.8632
 30
0.0
 10
-2.0299
 20
33.8632
 30
0.0
 10
-2.0299
 20
33.8632
 30
0.0
 10
-2.0299
 20
34.0936
 30
0.0
 10
-2.0299
 20
34.0936
 30
0.0
 10
-2.0299
 20
34.0936
 30
0.0
 10
-2.0299
 20
34.0936
 30
0.0
 10
-1.4805
 20
34.0936
 30
0.0
 10
-1.4805
 20
34.0936
 30
0.0
 10
-1.4805
 20
34.0936
 30
0.0
 10
-1.4805
 20
34.0936
 30
0.0
 10
-1.4805
 20
34.6435
 30
0.0
 10
-1.4805
 20
34.6435
 30
0.0
 10
-1.4805
 20
34.6435
 30
0.0
 10
-1.4805
 20
34.6435
 30
0.0
 10
-1.2458
 20
34.6435
 30
0.0
 10
-1.2458
 20
34.6435
 30
0.0
 10
-1.2458
 20
34.6435
 30
0.0
 10
-1.2458
 20
34.6435
 30
0.0
 10
-1.2458
 20
34.0936
 30
0.0
 10
-1.2458
 20
34.0936
 30
0.0
 10
-1.2458
 20
34.0936
 30
0.0
 10
-1.2458
 20
34.0936
 30
0.0
 10
-0.6964
 20
34.0936
 30
0.0
 10
-0.6964
 20
34.0936
 30
0.0
 10
-0.6964
 20
34.0936
 30
0.0
 10
-0.6964
 20
34.0936
 30
0.0
 10
-0.6964
 20
33.8632
 30
0.0
 10
-0.6964
 20
33.8632
 30
0.0
 10
-0.6964
 20
33.8632
 30
0.0
 10
-0.6964
 20
33.8632
 30
0.0
 10
-1.2458
 20
33.8632
 30
0.0
 10
-1.2458
 20
33.8632
 30
0.0
 10
-1.2458
 20
33.8632
 30
0.0
 10
-1.2458
 20
33.8632
 30
0.0
 10
-1.2458
 20
33.3081
 30
0.0
 10
-1.2458
 20
33.3081
 30
0.0
 10
-1.2458
 20
33.3081
 30
0.0
 10
-1.2458
 20
33.3081
 30
0.0
 10
-1.4805
 20
33.3081
 30
0.0
 10
-1.4805
 20
33.3081
 30
0.0
  0
SPLINE
  5
47
330
1F
100
AcDbEntity
  8
VRSTVA_1
 62
   250
100
AcDbSpline
210
0.0
220
0.0
230
1.0
 70
    11
 71
     3
 72
    20
 73
    16
 74
     0
 42
0.0000000001
 43
0.0000000001
 40
0.0
 40
0.0
 40
0.0
 40
0.0
 40
0.2
 40
0.2
 40
0.2
 40
0.2
 40
0.4
 40
0.4
 40
0.4
 40
0.4
 40
0.6
 40
0.6
 40
0.6
 40
0.6
 40
1.0
 40
1.0
 40
1.0
 40
1.0
 10
-0.6964
 20
32.9497
 30
0.0
 10
-0.6964
 20
32.9497
 30
0.0
 10
-2.0299
 20
32.9497
 30
0.0
 10
-2.0299
 20
32.9497
 30
0.0
 10
-2.0299
 20
32.9497
 30
0.0
 10
-2.0299
 20
32.9497
 30
0.0
 10
-2.0299
 20
33.1811
 30
0.0
 10
-2.0299
 20
33.1811
 30
0.0
 10
-2.0299
 20
33.1811
 30
0.0
 10
-2.0299
 20
33.1811
 30
0.0
 10
-0.6964
 20
33.1811
 30
0.0
 10
-0.6964
 20
33.1811
 30
0.0
 10
-0.6964
 20
33.1811
 30
0.0
 10
-0.6964
 20
33.1811
 30
0.0
 10
-0.6964
 20
32.9497
 30
0.0
 10
-0.6964
 20
32.9497
 30
0.0
  0
SPLINE
  5
48
330
1F
100
AcDbEntity
  8
VRSTVA_1
 62
   250
100
AcDbSpline
210
0.0
220
0.0
230
1.0
 70
    11
 71
     3
 72
    92
 73
    88
 74
     0
 42
0.0000000001
 43
0.0000000001
 40
0.0
 40
0.0
 40
0.0
 40
0.0
 40
0.0434782608695652
 40
0.0434782608695652
 40
0.0434782608695652
 40
0.0434782608695652
 40
0.0869565217391304
 40
0.0869565217391304
 40
0.0869565217391304
 40
0.0869565217391304
 40
0.1304347826086956
 40
0.1304347826086956
 40
0.1304347826086956
 40
0.1304347826086956
 40
0.1739130434782609
 40
0.1739130434782609
 40
0.1739130434782609
 40
0.1739130434782609
 40
0.2173913043478261
 40
0.2173913043478261
 40
0.2173913043478261
 40
0.2173913043478261
 40
0.2608695652173913
 40
0.2608695652173913
 40
0.2608695652173913
 40
0.2608695652173913
 40
0.3043478260869565
 40
0.3043478260869565
 40
0.3043478260869565
 40
0.3043478260869565
 40
0.3478260869565217
 40
0.3478260869565217
 40
0.3478260869565217
 40
0.3478260869565217
 40
0.391304347826087
 40
0.391304347826087
 40
0.391304347826087
 40
0.391304347826087
 40
0.4347826086956522
 40
0.4347826086956522
 40
0.4347826086956522
 40
0.4347826086956522
 40
0.4782608695652174
 40
0.4782608695652174
 40
0.4782608695652174
 40
0.4782608695652174
 40
0.5217391304347826
 40
0.5217391304347826
 40
0.5217391304347826
 40
0.5217391304347826
 40
0.5652173913043478
 40
0.5652173913043478
 40
0.5652173913043478
 40
0.5652173913043478
 40
0.6086956521739131
 40
0.6086956521739131
 40
0.6086956521739131
 40
0.6086956521739131
 40
0.6521739130434783
 40
0.6521739130434783
 40
0.6521739130434783
 40
0.6521739130434783
 40
0.6956521739130435
 40
0.6956521739130435
 40
0.6956521739130435
 40
0.6956521739130435
 40
0.7391304347826086
 40
0.7391304347826086
 40
0.7391304347826086
 40
0.7391304347826086
 40
0.782608695652174
 40
0.782608695652174
 40
0.782608695652174
 40
0.782608695652174
 40
0.8260869565217391
 40
0.8260869565217391
 40
0.8260869565217391
 40
0.8260869565217391
 40
0.8695652173913043
 40
0.8695652173913043
 40
0.8695652173913043
 40
0.8695652173913043
 40
0.9130434782608695
 40
0.9130434782608695
 40
0.9130434782608695
 40
0.9130434782608695
 40
1.0
 40
1.0
 40
1.0
 40
1.0
 10
0.8323
 20
33.1882
 30
0.0
 10
0.8323
 20
33.1882
 30
0.0
 10
0.8323
 20
32.9497
 30
0.0
 10
0.8323
 20
32.9497
 30
0.0
 10
0.8323
 20
32.9497
 30
0.0
 10
0.8323
 20
32.9497
 30
0.0
 10
-0.5031
 20
32.9497
 30
0.0
 10
-0.5031
 20
32.9497
 30
0.0
 10
-0.5031
 20
32.9497
 30
0.0
 10
-0.505
 20
33.0094
 30
0.0
 10
-0.4956
 20
33.0668
 30
0.0
 10
-0.4744
 20
33.1219
 30
0.0
 10
-0.4744
 20
33.1219
 30
0.0
 10
-0.4405
 20
33.2131
 30
0.0
 10
-0.386
 20
33.3025
 30
0.0
 10
-0.3112
 20
33.3909
 30
0.0
 10
-0.3112
 20
33.3909
 30
0.0
 10
-0.2359
 20
33.4789
 30
0.0
 10
-0.1277
 20
33.5809
 30
0.0
 10
0.0134
 20
33.6966
 30
0.0
 10
0.0134
 20
33.6966
 30
0.0
 10
0.233
 20
33.8768
 30
0.0
 10
0.3817
 20
34.0193
 30
0.0
 10
0.4588
 20
34.1247
 30
0.0
 10
0.4588
 20
34.1247
 30
0.0
 10
0.5359
 20
34.2296
 30
0.0
 10
0.5745
 20
34.3293
 30
0.0
 10
0.5745
 20
34.4229
 30
0.0
 10
0.5745
 20
34.4229
 30
0.0
 10
0.5745
 20
34.5212
 30
0.0
 10
0.5392
 20
34.604
 30
0.0
 10
0.4692
 20
34.6717
 30
0.0
 10
0.4692
 20
34.6717
 30
0.0
 10
0.3986
 20
34.739
 30
0.0
 10
0.3069
 20
34.7728
 30
0.0
 10
0.194
 20
34.7728
 30
0.0
 10
0.194
 20
34.7728
 30
0.0
 10
0.0745
 20
34.7728
 30
0.0
 10
-0.021
 20
34.7371
 30
0.0
 10
-0.0925
 20
34.6651
 30
0.0
 10
-0.0925
 20
34.6651
 30
0.0
 10
-0.1644
 20
34.5936
 30
0.0
 10
-0.2006
 20
34.4944
 30
0.0
 10
-0.2016
 20
34.3679
 30
0.0
 10
-0.2016
 20
34.3679
 30
0.0
 10
-0.2016
 20
34.3679
 30
0.0
 10
-0.4565
 20
34.3937
 30
0.0
 10
-0.4565
 20
34.3937
 30
0.0
 10
-0.4565
 20
34.3937
 30
0.0
 10
-0.4391
 20
34.5842
 30
0.0
 10
-0.3733
 20
34.7291
 30
0.0
 10
-0.2594
 20
34.8288
 30
0.0
 10
-0.2594
 20
34.8288
 30
0.0
 10
-0.1456
 20
34.9285
 30
0.0
 10
0.0077
 20
34.9784
 30
0.0
 10
0.1996
 20
34.9784
 30
0.0
 10
0.1996
 20
34.9784
 30
0.0
 10
0.3934
 20
34.9784
 30
0.0
 10
0.5468
 20
34.9243
 30
0.0
 10
0.6597
 20
34.8171
 30
0.0
 10
0.6597
 20
34.8171
 30
0.0
 10
0.773
 20
34.7093
 30
0.0
 10
0.8295
 20
34.5762
 30
0.0
 10
0.8295
 20
34.4172
 30
0.0
 10
0.8295
 20
34.4172
 30
0.0
 10
0.8295
 20
34.3363
 30
0.0
 10
0.813
 20
34.2568
 30
0.0
 10
0.7796
 20
34.1788
 30
0.0
 10
0.7796
 20
34.1788
 30
0.0
 10
0.7467
 20
34.1007
 30
0.0
 10
0.6916
 20
34.0184
 30
0.0
 10
0.615
 20
33.9323
 30
0.0
 10
0.615
 20
33.9323
 30
0.0
 10
0.5383
 20
33.8457
 30
0.0
 10
0.4108
 20
33.7272
 30
0.0
 10
0.2326
 20
33.5767
 30
0.0
 10
0.2326
 20
33.5767
 30
0.0
 10
0.0839
 20
33.4516
 30
0.0
 10
-0.0116
 20
33.3669
 30
0.0
 10
-0.0539
 20
33.3222
 30
0.0
 10
-0.0539
 20
33.3222
 30
0.0
 10
-0.0962
 20
33.278
 30
0.0
 10
-0.131
 20
33.2333
 30
0.0
 10
-0.1588
 20
33.1882
 30
0.0
 10
-0.1588
 20
33.1882
 30
0.0
 10
-0.1588
 20
33.1882
 30
0.0
 10
0.8323
 20
33.1882
 30
0.0
 10
0.8323
 20
33.1882
 30
0.0
  0
SPLINE
  5
49
330
1F
100
AcDbEntity
  8
VRSTVA_1
 62
   250
100
AcDbSpline
210
0.0
220
0.0
230
1.0
 70
    11
 71
     3
 72
    52
 73
    48
 74
     0
 42
0.0000000001
 43
0.0000000001
 40
0.0
 40
0.0
 40
0.0
 40
0.0
 40
0.0769230769230769
 40
0.0769230769230769
 40
0.0769230769230769
 40
0.0769230769230769
 40
0.1538461538461539
 40
0.1538461538461539
 40
0.1538461538461539
 40
0.1538461538461539
 40
0.2307692307692308
 40
0.2307692307692308
 40
0.2307692307692308
 40
0.2307692307692308
 40
0.3076923076923077
 40
0.3076923076923077
 40
0.3076923076923077
 40
0.3076923076923077
 40
0.3846153846153846
 40
0.3846153846153846
 40
0.3846153846153846
 40
0.3846153846153846
 40
0.4615384615384616
 40
0.4615384615384616
 40
0.4615384615384616
 40
0.4615384615384616
 40
0.5384615384615384
 40
0.5384615384615384
 40
0.5384615384615384
 40
0.5384615384615384
 40
0.6153846153846154
 40
0.6153846153846154
 40
0.6153846153846154
 40
0.6153846153846154
 40
0.6923076923076923
 40
0.6923076923076923
 40
0.6923076923076923
 40
0.6923076923076923
 40
0.7692307692307693
 40
0.7692307692307693
 40
0.7692307692307693
 40
0.7692307692307693
 40
0.8461538461538461
 40
0.8461538461538461
 40
0.8461538461538461
 40
0.8461538461538461
 40
1.0
 40
1.0
 40
1.0
 40
1.0
 10
1.098
 20
33.9459
 30
0.0
 10
1.098
 20
34.1849
 30
0.0
 10
1.1225
 20
34.3773
 30
0.0
 10
1.1719
 20
34.5226
 30
0.0
 10
1.1719
 20
34.5226
 30
0.0
 10
1.2208
 20
34.6684
 30
0.0
 10
1.2942
 20
34.7808
 30
0.0
 10
1.3911
 20
34.8599
 30
0.0
 10
1.3911
 20
34.8599
 30
0.0
 10
1.488
 20
34.9389
 30
0.0
 10
1.6098
 20
34.9784
 30
0.0
 10
1.7565
 20
34.9784
 30
0.0
 10
1.7565
 20
34.9784
 30
0.0
 10
1.8652
 20
34.9784
 30
0.0
 10
1.9602
 20
34.9563
 30
0.0
 10
2.042
 20
34.9125
 30
0.0
 10
2.042
 20
34.9125
 30
0.0
 10
2.1239
 20
34.8693
 30
0.0
 10
2.1912
 20
34.8062
 30
0.0
 10
2.2448
 20
34.7239
 30
0.0
 10
2.2448
 20
34.7239
 30
0.0
 10
2.2979
 20
34.6416
 30
0.0
 10
2.3398
 20
34.5414
 30
0.0
 10
2.3699
 20
34.4234
 30
0.0
 10
2.3699
 20
34.4234
 30
0.0
 10
2.4005
 20
34.3053
 30
0.0
 10
2.4155
 20
34.1463
 30
0.0
 10
2.4155
 20
33.9459
 30
0.0
 10
2.4155
 20
33.9459
 30
0.0
 10
2.4155
 20
33.7089
 30
0.0
 10
2.3911
 20
33.5179
 30
0.0
 10
2.3426
 20
33.3721
 30
0.0
 10
2.3426
 20
33.3721
 30
0.0
 10
2.2937
 20
33.2263
 30
0.0
 10
2.2208
 20
33.1139
 30
0.0
 10
2.1239
 20
33.0344
 30
0.0
 10
2.1239
 20
33.0344
 30
0.0
 10
2.027
 20
32.9549
 30
0.0
 10
1.9047
 20
32.9154
 30
0.0
 10
1.7565
 20
32.9154
 30
0.0
 10
1.7565
 20
32.9154
 30
0.0
 10
1.5618
 20
32.9154
 30
0.0
 10
1.4089
 20
32.985
 30
0.0
 10
1.2979
 20
33.1247
 30
0.0
 10
1.2979
 20
33.1247
 30
0.0
 10
1.1648
 20
33.2926
 30
0.0
 10
1.098
 20
33.5668
 30
0.0
 10
1.098
 20
33.9459
 30
0.0
  0
SPLINE
  5
4A
330
1F
100
AcDbEntity
  8
VRSTVA_1
 62
   250
100
AcDbSpline
210
0.0
220
0.0
230
1.0
 70
    11
 71
     3
 72
    36
 73
    32
 74
     0
 42
0.0000000001
 43
0.0000000001
 40
0.0
 40
0.0
 40
0.0
 40
0.0
 40
0.1111111111111111
 40
0.1111111111111111
 40
0.1111111111111111
 40
0.1111111111111111
 40
0.2222222222222222
 40
0.2222222222222222
 40
0.2222222222222222
 40
0.2222222222222222
 40
0.3333333333333333
 40
0.3333333333333333
 40
0.3333333333333333
 40
0.3333333333333333
 40
0.4444444444444444
 40
0.4444444444444444
 40
0.4444444444444444
 40
0.4444444444444444
 40
0.5555555555555556
 40
0.5555555555555556
 40
0.5555555555555556
 40
0.5555555555555556
 40
0.6666666666666666
 40
0.6666666666666666
 40
0.6666666666666666
 40
0.6666666666666666
 40
0.7777777777777778
 40
0.7777777777777778
 40
0.7777777777777778
 40
0.7777777777777778
 40
1.0
 40
1.0
 40
1.0
 40
1.0
 10
1.353
 20
33.9459
 30
0.0
 10
1.353
 20
33.6143
 30
0.0
 10
1.392
 20
33.3937
 30
0.0
 10
1.4696
 20
33.2837
 30
0.0
 10
1.4696
 20
33.2837
 30
0.0
 10
1.5472
 20
33.1741
 30
0.0
 10
1.6427
 20
33.119
 30
0.0
 10
1.7565
 20
33.119
 30
0.0
 10
1.7565
 20
33.119
 30
0.0
 10
1.8708
 20
33.119
 30
0.0
 10
1.9663
 20
33.1745
 30
0.0
 10
2.0439
 20
33.2846
 30
0.0
 10
2.0439
 20
33.2846
 30
0.0
 10
2.1215
 20
33.3947
 30
0.0
 10
2.1606
 20
33.6153
 30
0.0
 10
2.1606
 20
33.9459
 30
0.0
 10
2.1606
 20
33.9459
 30
0.0
 10
2.1606
 20
34.2785
 30
0.0
 10
2.1215
 20
34.4996
 30
0.0
 10
2.0439
 20
34.6087
 30
0.0
 10
2.0439
 20
34.6087
 30
0.0
 10
1.9663
 20
34.7183
 30
0.0
 10
1.8699
 20
34.7728
 30
0.0
 10
1.7542
 20
34.7728
 30
0.0
 10
1.7542
 20
34.7728
 30
0.0
 10
1.6399
 20
34.7728
 30
0.0
 10
1.5491
 20
34.7244
 30
0.0
 10
1.4809
 20
34.628
 30
0.0
 10
1.4809
 20
34.628
 30
0.0
 10
1.3958
 20
34.5052
 30
0.0
 10
1.353
 20
34.2775
 30
0.0
 10
1.353
 20
33.9459
 30
0.0
  0
SPLINE
  5
4B
330
1F
100
AcDbEntity
  8
VRSTVA_1
 62
   250
100
AcDbSpline
210
0.0
220
0.0
230
1.0
 70
    11
 71
     3
 72
    20
 73
    16
 74
     0
 42
0.0000000001
 43
0.0000000001
 40
0.0
 40
0.0
 40
0.0
 40
0.0
 40
0.2
 40
0.2
 40
0.2
 40
0.2
 40
0.4
 40
0.4
 40
0.4
 40
0.4
 40
0.6
 40
0.6
 40
0.6
 40
0.6
 40
1.0
 40
1.0
 40
1.0
 40
1.0
 10
-11.6121
 20
32.3267
 30
0.0
 10
-11.6121
 20
32.3267
 30
0.0
 10
-8.8129
 20
31.918
 30
0.0
 10
-8.8129
 20
31.918
 30
0.0
 10
-8.8129
 20
31.918
 30
0.0
 10
-8.8129
 20
31.918
 30
0.0
 10
-8.8129
 20
32.8202
 30
0.0
 10
-8.8129
 20
32.8202
 30
0.0
 10
-8.8129
 20
32.8202
 30
0.0
 10
-8.8129
 20
32.8202
 30
0.0
 10
-11.6121
 20
32.328
 30
0.0
 10
-11.6121
 20
32.328
 30
0.0
 10
-11.6121
 20
32.328
 30
0.0
 10
-11.6121
 20
32.328
 30
0.0
 10
-11.6121
 20
32.3267
 30
0.0
 10
-11.6121
 20
32.3267
 30
0.0
  0
SPLINE
  5
4C
330
1F
100
AcDbEntity
  8
VRSTVA_1
 62
   250
100
AcDbSpline
210
0.0
220
0.0
230
1.0
 70
    11
 71
     3
 72
    20
 73
    16
 74
     0
 42
0.0000000001
 43
0.0000000001
 40
0.0
 40
0.0
 40
0.0
 40
0.0
 40
0.2
 40
0.2
 40
0.2
 40
0.2
 40
0.4
 40
0.4
 40
0.4
 40
0.4
 40
0.6
 40
0.6
 40
0.6
 40
0.6
 40
1.0
 40
1.0
 40
1.0
 40
1.0
 10
7.5766
 20
32.3573
 30
0.0
 10
7.5766
 20
32.3573
 30
0.0
 10
4.7774
 20
32.766
 30
0.0
 10
4.7774
 20
32.766
 30
0.0
 10
4.7774
 20
32.766
 30
0.0
 10
4.7774
 20
32.766
 30
0.0
 10
4.7774
 20
31.8638
 30
0.0
 10
4.7774
 20
31.8638
 30
0.0
 10
4.7774
 20
31.8638
 30
0.0
 10
4.7774
 20
31.8638
 30
0.0
 10
7.5766
 20
32.3561
 30
0.0
 10
7.5766
 20
32.3561
 30
0.0
 10
7.5766
 20
32.3561
 30
0.0
 10
7.5766
 20
32.3561
 30
0.0
 10
7.5766
 20
32.3573
 30
0.0
 10
7.5766
 20
32.3573
 30
0.0
  0
SPLINE
  5
4D
330
1F
100
AcDbEntity
  8
VRSTVA_1
 62
   250
100
AcDbSpline
210
0.0
220
0.0
230
1.0
 70
    24
 71
     3
 72
     8
 73
     4
 74
     0
 42
0.0000000001
 43
0.0000000001
 40
0.0
 40
0.0
 40
0.0
 40
0.0
 40
1.0
 40
1.0
 40
1.0
 40
1.0
 10
6.0118
 20
32.3349
 30
0.0
 10
6.0118
 20
32.3349
 30
0.0
 10
-11.5913
 20
32.3349
 30
0.0
 10
-11.5913
 20
32.3349
 30
0.0
  0
SPLINE
  5
4E
330
1F
100
AcDbEntity
  8
VRSTVA_1
 62
   250
100
AcDbSpline
210
0.0
220
0.0
230
1.0
 70
    24
 71
     3
 72
     8
 73
     4
 74
     0
 42
0.0000000001
 43
0.0000000001
 40
0.0
 40
0.0
 40
0.0
 40
0.0
 40
1.0
 40
1.0
 40
1.0
 40
1.0
 10
-11.74
 20
30.7281
 30
0.0
 10
-11.74
 20
30.7281
 30
0.0
 10
-11.74
 20
32.747
 30
0.0
 10
-11.74
 20
32.747
 30
0.0
  0
SPLINE
  5
4F
330
1F
100
AcDbEntity
  8
VRSTVA_1
 62
   250
100
AcDbSpline
210
0.0
220
0.0
230
1.0
 70
    24
 71
     3
 72
     8
 73
     4
 74
     0
 42
0.0000000001
 43
0.0000000001
 40
0.0
 40
0.0
 40
0.0
 40
0.0
 40
1.0
 40
1.0
 40
1.0
 40
1.0
 10
7.6327
 20
30.5867
 30
0.0
 10
7.6327
 20
30.5867
 30
0.0
 10
7.6327
 20
32.8739
 30
0.0
 10
7.6327
 20
32.8739
 30
0.0
  0
SPLINE
  5
50
330
1F
100
AcDbEntity
  8
VRSTVA_1
 62
   250
100
AcDbSpline
210
0.0
220
0.0
230
1.0
 70
    11
 71
     3
 72
    92
 73
    88
 74
     0
 42
0.0000000001
 43
0.0000000001
 40
0.0
 40
0.0
 40
0.0
 40
0.0
 40
0.0434782608695652
 40
0.0434782608695652
 40
0.0434782608695652
 40
0.0434782608695652
 40
0.0869565217391304
 40
0.0869565217391304
 40
0.0869565217391304
 40
0.0869565217391304
 40
0.1304347826086956
 40
0.1304347826086956
 40
0.1304347826086956
 40
0.1304347826086956
 40
0.1739130434782609
 40
0.1739130434782609
 40
0.1739130434782609
 40
0.1739130434782609
 40
0.2173913043478261
 40
0.2173913043478261
 40
0.2173913043478261
 40
0.2173913043478261
 40
0.2608695652173913
 40
0.2608695652173913
 40
0.2608695652173913
 40
0.2608695652173913
 40
0.3043478260869565
 40
0.3043478260869565
 40
0.3043478260869565
 40
0.3043478260869565
 40
0.3478260869565217
 40
0.3478260869565217
 40
0.3478260869565217
 40
0.3478260869565217
 40
0.391304347826087
 40
0.391304347826087
 40
0.391304347826087
 40
0.391304347826087
 40
0.4347826086956522
 40
0.4347826086956522
 40
0.4347826086956522
 40
0.4347826086956522
 40
0.4782608695652174
 40
0.4782608695652174
 40
0.4782608695652174
 40
0.4782608695652174
 40
0.5217391304347826
 40
0.5217391304347826
 40
0.5217391304347826
 40
0.5217391304347826
 40
0.5652173913043478
 40
0.5652173913043478
 40
0.5652173913043478
 40
0.5652173913043478
 40
0.6086956521739131
 40
0.6086956521739131
 40
0.6086956521739131
 40
0.6086956521739131
 40
0.6521739130434783
 40
0.6521739130434783
 40
0.6521739130434783
 40
0.6521739130434783
 40
0.6956521739130435
 40
0.6956521739130435
 40
0.6956521739130435
 40
0.6956521739130435
 40
0.7391304347826086
 40
0.7391304347826086
 40
0.7391304347826086
 40
0.7391304347826086
 40
0.782608695652174
 40
0.782608695652174
 40
0.782608695652174
 40
0.782608695652174
 40
0.8260869565217391
 40
0.8260869565217391
 40
0.8260869565217391
 40
0.8260869565217391
 40
0.8695652173913043
 40
0.8695652173913043
 40
0.8695652173913043
 40
0.8695652173913043
 40
0.9130434782608695
 40
0.9130434782608695
 40
0.9130434782608695
 40
0.9130434782608695
 40
1.0
 40
1.0
 40
1.0
 40
1.0
 10
-2.6549
 20
2.1902
 30
0.0
 10
-2.6549
 20
2.1902
 30
0.0
 10
-2.6549
 20
1.9517
 30
0.0
 10
-2.6549
 20
1.9517
 30
0.0
 10
-2.6549
 20
1.9517
 30
0.0
 10
-2.6549
 20
1.9517
 30
0.0
 10
-3.9903
 20
1.9517
 30
0.0
 10
-3.9903
 20
1.9517
 30
0.0
 10
-3.9903
 20
1.9517
 30
0.0
 10
-3.9922
 20
2.0114
 30
0.0
 10
-3.9828
 20
2.0688
 30
0.0
 10
-3.9616
 20
2.1239
 30
0.0
 10
-3.9616
 20
2.1239
 30
0.0
 10
-3.9277
 20
2.2151
 30
0.0
 10
-3.8732
 20
2.3045
 30
0.0
 10
-3.7984
 20
2.3929
 30
0.0
 10
-3.7984
 20
2.3929
 30
0.0
 10
-3.7231
 20
2.4809
 30
0.0
 10
-3.6149
 20
2.5829
 30
0.0
 10
-3.4738
 20
2.6986
 30
0.0
 10
-3.4738
 20
2.6986
 30
0.0
 10
-3.2542
 20
2.8788
 30
0.0
 10
-3.1055
 20
3.0213
 30
0.0
 10
-3.0284
 20
3.1267
 30
0.0
 10
-3.0284
 20
3.1267
 30
0.0
 10
-2.9513
 20
3.2316
 30
0.0
 10
-2.9127
 20
3.3313
 30
0.0
 10
-2.9127
 20
3.4249
 30
0.0
 10
-2.9127
 20
3.4249
 30
0.0
 10
-2.9127
 20
3.5232
 30
0.0
 10
-2.948
 20
3.606
 30
0.0
 10
-3.018
 20
3.6737
 30
0.0
 10
-3.018
 20
3.6737
 30
0.0
 10
-3.0886
 20
3.741
 30
0.0
 10
-3.1803
 20
3.7748
 30
0.0
 10
-3.2932
 20
3.7748
 30
0.0
 10
-3.2932
 20
3.7748
 30
0.0
 10
-3.4127
 20
3.7748
 30
0.0
 10
-3.5082
 20
3.7391
 30
0.0
 10
-3.5797
 20
3.6671
 30
0.0
 10
-3.5797
 20
3.6671
 30
0.0
 10
-3.6516
 20
3.5956
 30
0.0
 10
-3.6878
 20
3.4964
 30
0.0
 10
-3.6888
 20
3.3699
 30
0.0
 10
-3.6888
 20
3.3699
 30
0.0
 10
-3.6888
 20
3.3699
 30
0.0
 10
-3.9437
 20
3.3957
 30
0.0
 10
-3.9437
 20
3.3957
 30
0.0
 10
-3.9437
 20
3.3957
 30
0.0
 10
-3.9263
 20
3.5862
 30
0.0
 10
-3.8605
 20
3.7311
 30
0.0
 10
-3.7466
 20
3.8308
 30
0.0
 10
-3.7466
 20
3.8308
 30
0.0
 10
-3.6328
 20
3.9305
 30
0.0
 10
-3.4795
 20
3.9804
 30
0.0
 10
-3.2876
 20
3.9804
 30
0.0
 10
-3.2876
 20
3.9804
 30
0.0
 10
-3.0938
 20
3.9804
 30
0.0
 10
-2.9404
 20
3.9263
 30
0.0
 10
-2.8275
 20
3.8191
 30
0.0
 10
-2.8275
 20
3.8191
 30
0.0
 10
-2.7142
 20
3.7113
 30
0.0
 10
-2.6577
 20
3.5782
 30
0.0
 10
-2.6577
 20
3.4192
 30
0.0
 10
-2.6577
 20
3.4192
 30
0.0
 10
-2.6577
 20
3.3383
 30
0.0
 10
-2.6742
 20
3.2588
 30
0.0
 10
-2.7076
 20
3.1808
 30
0.0
 10
-2.7076
 20
3.1808
 30
0.0
 10
-2.7405
 20
3.1027
 30
0.0
 10
-2.7956
 20
3.0204
 30
0.0
 10
-2.8722
 20
2.9343
 30
0.0
 10
-2.8722
 20
2.9343
 30
0.0
 10
-2.9489
 20
2.8477
 30
0.0
 10
-3.0764
 20
2.7292
 30
0.0
 10
-3.2546
 20
2.5787
 30
0.0
 10
-3.2546
 20
2.5787
 30
0.0
 10
-3.4033
 20
2.4536
 30
0.0
 10
-3.4988
 20
2.3689
 30
0.0
 10
-3.5411
 20
2.3242
 30
0.0
 10
-3.5411
 20
2.3242
 30
0.0
 10
-3.5834
 20
2.28
 30
0.0
 10
-3.6182
 20
2.2353
 30
0.0
 10
-3.646
 20
2.1902
 30
0.0
 10
-3.646
 20
2.1902
 30
0.0
 10
-3.646
 20
2.1902
 30
0.0
 10
-2.6549
 20
2.1902
 30
0.0
 10
-2.6549
 20
2.1902
 30
0.0
  0
SPLINE
  5
51
330
1F
100
AcDbEntity
  8
VRSTVA_1
 62
   250
100
AcDbSpline
210
0.0
220
0.0
230
1.0
 70
    11
 71
     3
 72
    40
 73
    36
 74
     0
 42
0.0000000001
 43
0.0000000001
 40
0.0
 40
0.0
 40
0.0
 40
0.0
 40
0.1
 40
0.1
 40
0.1
 40
0.1
 40
0.2
 40
0.2
 40
0.2
 40
0.2
 40
0.3
 40
0.3
 40
0.3
 40
0.3
 40
0.4
 40
0.4
 40
0.4
 40
0.4
 40
0.5
 40
0.5
 40
0.5
 40
0.5
 40
0.6
 40
0.6
 40
0.6
 40
0.6
 40
0.7
 40
0.7
 40
0.7
 40
0.7
 40
0.8
 40
0.8
 40
0.8
 40
0.8
 40
1.0
 40
1.0
 40
1.0
 40
1.0
 10
-1.455
 20
1.9517
 30
0.0
 10
-1.455
 20
1.9517
 30
0.0
 10
-1.7029
 20
1.9517
 30
0.0
 10
-1.7029
 20
1.9517
 30
0.0
 10
-1.7029
 20
1.9517
 30
0.0
 10
-1.7029
 20
1.9517
 30
0.0
 10
-1.7029
 20
3.5321
 30
0.0
 10
-1.7029
 20
3.5321
 30
0.0
 10
-1.7029
 20
3.5321
 30
0.0
 10
-1.7627
 20
3.4752
 30
0.0
 10
-1.8407
 20
3.4183
 30
0.0
 10
-1.9376
 20
3.3614
 30
0.0
 10
-1.9376
 20
3.3614
 30
0.0
 10
-2.035
 20
3.3045
 30
0.0
 10
-2.122
 20
3.2617
 30
0.0
 10
-2.1992
 20
3.2334
 30
0.0
 10
-2.1992
 20
3.2334
 30
0.0
 10
-2.1992
 20
3.2334
 30
0.0
 10
-2.1992
 20
3.4729
 30
0.0
 10
-2.1992
 20
3.4729
 30
0.0
 10
-2.1992
 20
3.4729
 30
0.0
 10
-2.0604
 20
3.5382
 30
0.0
 10
-1.939
 20
3.6173
 30
0.0
 10
-1.8351
 20
3.7099
 30
0.0
 10
-1.8351
 20
3.7099
 30
0.0
 10
-1.7316
 20
3.8031
 30
0.0
 10
-1.6578
 20
3.8929
 30
0.0
 10
-1.6145
 20
3.9804
 30
0.0
 10
-1.6145
 20
3.9804
 30
0.0
 10
-1.6145
 20
3.9804
 30
0.0
 10
-1.455
 20
3.9804
 30
0.0
 10
-1.455
 20
3.9804
 30
0.0
 10
-1.455
 20
3.9804
 30
0.0
 10
-1.455
 20
3.9804
 30
0.0
 10
-1.455
 20
1.9517
 30
0.0
 10
-1.455
 20
1.9517
 30
0.0
  0
SPLINE
  5
52
330
1F
100
AcDbEntity
  8
VRSTVA_1
 62
   250
100
AcDbSpline
210
0.0
220
0.0
230
1.0
 70
    11
 71
     3
 72
    48
 73
    44
 74
     0
 42
0.0000000001
 43
0.0000000001
 40
0.0
 40
0.0
 40
0.0
 40
0.0
 40
0.0833333333333333
 40
0.0833333333333333
 40
0.0833333333333333
 40
0.0833333333333333
 40
0.1666666666666667
 40
0.1666666666666667
 40
0.1666666666666667
 40
0.1666666666666667
 40
0.25
 40
0.25
 40
0.25
 40
0.25
 40
0.3333333333333333
 40
0.3333333333333333
 40
0.3333333333333333
 40
0.3333333333333333
 40
0.4166666666666667
 40
0.4166666666666667
 40
0.4166666666666667
 40
0.4166666666666667
 40
0.5
 40
0.5
 40
0.5
 40
0.5
 40
0.5833333333333334
 40
0.5833333333333334
 40
0.5833333333333334
 40
0.5833333333333334
 40
0.6666666666666666
 40
0.6666666666666666
 40
0.6666666666666666
 40
0.6666666666666666
 40
0.75
 40
0.75
 40
0.75
 40
0.75
 40
0.8333333333333334
 40
0.8333333333333334
 40
0.8333333333333334
 40
0.8333333333333334
 40
1.0
 40
1.0
 40
1.0
 40
1.0
 10
-0.8031
 20
3.7071
 30
0.0
 10
-0.8031
 20
3.7071
 30
0.0
 10
-0.8031
 20
3.9456
 30
0.0
 10
-0.8031
 20
3.9456
 30
0.0
 10
-0.8031
 20
3.9456
 30
0.0
 10
-0.8031
 20
3.9456
 30
0.0
 10
0.5045
 20
3.9456
 30
0.0
 10
0.5045
 20
3.9456
 30
0.0
 10
0.5045
 20
3.9456
 30
0.0
 10
0.5045
 20
3.9456
 30
0.0
 10
0.5045
 20
3.7527
 30
0.0
 10
0.5045
 20
3.7527
 30
0.0
 10
0.5045
 20
3.7527
 30
0.0
 10
0.3761
 20
3.6159
 30
0.0
 10
0.2486
 20
3.4338
 30
0.0
 10
0.1221
 20
3.2071
 30
0.0
 10
0.1221
 20
3.2071
 30
0.0
 10
-0.004
 20
2.9804
 30
0.0
 10
-0.1018
 20
2.7466
 30
0.0
 10
-0.1705
 20
2.5072
 30
0.0
 10
-0.1705
 20
2.5072
 30
0.0
 10
-0.2203
 20
2.3379
 30
0.0
 10
-0.2518
 20
2.153
 30
0.0
 10
-0.2655
 20
1.9517
 30
0.0
 10
-0.2655
 20
1.9517
 30
0.0
 10
-0.2655
 20
1.9517
 30
0.0
 10
-0.5204
 20
1.9517
 30
0.0
 10
-0.5204
 20
1.9517
 30
0.0
 10
-0.5204
 20
1.9517
 30
0.0
 10
-0.5176
 20
2.1107
 30
0.0
 10
-0.4866
 20
2.3026
 30
0.0
 10
-0.4268
 20
2.5279
 30
0.0
 10
-0.4268
 20
2.5279
 30
0.0
 10
-0.3671
 20
2.7527
 30
0.0
 10
-0.2815
 20
2.97
 30
0.0
 10
-0.17
 20
3.1789
 30
0.0
 10
-0.17
 20
3.1789
 30
0.0
 10
-0.0581
 20
3.3877
 30
0.0
 10
0.0605
 20
3.5641
 30
0.0
 10
0.1865
 20
3.7071
 30
0.0
 10
0.1865
 20
3.7071
 30
0.0
 10
0.1865
 20
3.7071
 30
0.0
 10
-0.8031
 20
3.7071
 30
0.0
 10
-0.8031
 20
3.7071
 30
0.0
  0
SPLINE
  5
53
330
1F
100
AcDbEntity
  8
VRSTVA_1
 62
   250
100
AcDbSpline
210
0.0
220
0.0
230
1.0
 70
    11
 71
     3
 72
    20
 73
    16
 74
     0
 42
0.0000000001
 43
0.0000000001
 40
0.0
 40
0.0
 40
0.0
 40
0.0
 40
0.2
 40
0.2
 40
0.2
 40
0.2
 40
0.4
 40
0.4
 40
0.4
 40
0.4
 40
0.6
 40
0.6
 40
0.6
 40
0.6
 40
1.0
 40
1.0
 40
1.0
 40
1.0
 10
-17.2928
 20
1.3866
 30
0.0
 10
-17.2928
 20
1.3866
 30
0.0
 10
-14.4936
 20
0.9779
 30
0.0
 10
-14.4936
 20
0.9779
 30
0.0
 10
-14.4936
 20
0.9779
 30
0.0
 10
-14.4936
 20
0.9779
 30
0.0
 10
-14.4936
 20
1.8801
 30
0.0
 10
-14.4936
 20
1.8801
 30
0.0
 10
-14.4936
 20
1.8801
 30
0.0
 10
-14.4936
 20
1.8801
 30
0.0
 10
-17.2928
 20
1.3879
 30
0.0
 10
-17.2928
 20
1.3879
 30
0.0
 10
-17.2928
 20
1.3879
 30
0.0
 10
-17.2928
 20
1.3879
 30
0.0
 10
-17.2928
 20
1.3866
 30
0.0
 10
-17.2928
 20
1.3866
 30
0.0
  0
SPLINE
  5
54
330
1F
100
AcDbEntity
  8
VRSTVA_1
 62
   250
100
AcDbSpline
210
0.0
220
0.0
230
1.0
 70
    11
 71
     3
 72
    20
 73
    16
 74
     0
 42
0.0000000001
 43
0.0000000001
 40
0.0
 40
0.0
 40
0.0
 40
0.0
 40
0.2
 40
0.2
 40
0.2
 40
0.2
 40
0.4
 40
0.4
 40
0.4
 40
0.4
 40
0.6
 40
0.6
 40
0.6
 40
0.6
 40
1.0
 40
1.0
 40
1.0
 40
1.0
 10
12.9399
 20
1.4117
 30
0.0
 10
12.9399
 20
1.4117
 30
0.0
 10
10.1407
 20
1.8204
 30
0.0
 10
10.1407
 20
1.8204
 30
0.0
 10
10.1407
 20
1.8204
 30
0.0
 10
10.1407
 20
1.8204
 30
0.0
 10
10.1407
 20
0.9182
 30
0.0
 10
10.1407
 20
0.9182
 30
0.0
 10
10.1407
 20
0.9182
 30
0.0
 10
10.1407
 20
0.9182
 30
0.0
 10
12.9399
 20
1.4105
 30
0.0
 10
12.9399
 20
1.4105
 30
0.0
 10
12.9399
 20
1.4105
 30
0.0
 10
12.9399
 20
1.4105
 30
0.0
 10
12.9399
 20
1.4117
 30
0.0
 10
12.9399
 20
1.4117
 30
0.0
  0
SPLINE
  5
55
330
1F
100
AcDbEntity
  8
VRSTVA_1
 62
   250
100
AcDbSpline
210
0.0
220
0.0
230
1.0
 70
    24
 71
     3
 72
     8
 73
     4
 74
     0
 42
0.0000000001
 43
0.0000000001
 40
0.0
 40
0.0
 40
0.0
 40
0.0
 40
1.0
 40
1.0
 40
1.0
 40
1.0
 10
12.6485
 20
1.4023
 30
0.0
 10
12.6485
 20
1.4023
 30
0.0
 10
-17.2859
 20
1.4023
 30
0.0
 10
-17.2859
 20
1.4023
 30
0.0
  0
SPLINE
  5
56
330
1F
100
AcDbEntity
  8
VRSTVA_1
 62
   250
100
AcDbSpline
210
0.0
220
0.0
230
1.0
 70
    11
 71
     3
 72
   124
 73
   120
 74
     0
 42
0.0000000001
 43
0.0000000001
 40
0.0
 40
0.0
 40
0.0
 40
0.0
 40
0.032258064516129
 40
0.032258064516129
 40
0.032258064516129
 40
0.032258064516129
 40
0.0645161290322581
 40
0.0645161290322581
 40
0.0645161290322581
 40
0.0645161290322581
 40
0.0967741935483871
 40
0.0967741935483871
 40
0.0967741935483871
 40
0.0967741935483871
 40
0.1290322580645161
 40
0.1290322580645161
 40
0.1290322580645161
 40
0.1290322580645161
 40
0.1612903225806452
 40
0.1612903225806452
 40
0.1612903225806452
 40
0.1612903225806452
 40
0.1935483870967742
 40
0.1935483870967742
 40
0.1935483870967742
 40
0.1935483870967742
 40
0.2258064516129032
 40
0.2258064516129032
 40
0.2258064516129032
 40
0.2258064516129032
 40
0.2580645161290323
 40
0.2580645161290323
 40
0.2580645161290323
 40
0.2580645161290323
 40
0.2903225806451613
 40
0.2903225806451613
 40
0.2903225806451613
 40
0.2903225806451613
 40
0.3225806451612903
 40
0.3225806451612903
 40
0.3225806451612903
 40
0.3225806451612903
 40
0.3548387096774194
 40
0.3548387096774194
 40
0.3548387096774194
 40
0.3548387096774194
 40
0.3870967741935484
 40
0.3870967741935484
 40
0.3870967741935484
 40
0.3870967741935484
 40
0.4193548387096774
 40
0.4193548387096774
 40
0.4193548387096774
 40
0.4193548387096774
 40
0.4516129032258064
 40
0.4516129032258064
 40
0.4516129032258064
 40
0.4516129032258064
 40
0.4838709677419355
 40
0.4838709677419355
 40
0.4838709677419355
 40
0.4838709677419355
 40
0.5161290322580645
 40
0.5161290322580645
 40
0.5161290322580645
 40
0.5161290322580645
 40
0.5483870967741935
 40
0.5483870967741935
 40
0.5483870967741935
 40
0.5483870967741935
 40
0.5806451612903226
 40
0.5806451612903226
 40
0.5806451612903226
 40
0.5806451612903226
 40
0.6129032258064516
 40
0.6129032258064516
 40
0.6129032258064516
 40
0.6129032258064516
 40
0.6451612903225806
 40
0.6451612903225806
 40
0.6451612903225806
 40
0.6451612903225806
 40
0.6774193548387096
 40
0.6774193548387096
 40
0.6774193548387096
 40
0.6774193548387096
 40
0.7096774193548387
 40
0.7096774193548387
 40
0.7096774193548387
 40
0.7096774193548387
 40
0.7419354838709677
 40
0.7419354838709677
 40
0.7419354838709677
 40
0.7419354838709677
 40
0.7741935483870968
 40
0.7741935483870968
 40
0.7741935483870968
 40
0.7741935483870968
 40
0.8064516129032258
 40
0.8064516129032258
 40
0.8064516129032258
 40
0.8064516129032258
 40
0.8387096774193549
 40
0.8387096774193549
 40
0.8387096774193549
 40
0.8387096774193549
 40
0.8709677419354839
 40
0.8709677419354839
 40
0.8709677419354839
 40
0.8709677419354839
 40
0.9032258064516129
 40
0.9032258064516129
 40
0.9032258064516129
 40
0.9032258064516129
 40
0.9354838709677419
 40
0.9354838709677419
 40
0.9354838709677419
 40
0.9354838709677419
 40
1.0
 40
1.0
 40
1.0
 40
1.0
 10
-4.8463
 20
-33.2157
 30
0.0
 10
-4.8463
 20
-33.2157
 30
0.0
 10
-4.5984
 20
-33.1828
 30
0.0
 10
-4.5984
 20
-33.1828
 30
0.0
 10
-4.5984
 20
-33.1828
 30
0.0
 10
-4.5697
 20
-33.3234
 30
0.0
 10
-4.5212
 20
-33.4245
 30
0.0
 10
-4.453
 20
-33.4866
 30
0.0
 10
-4.453
 20
-33.4866
 30
0.0
 10
-4.3844
 20
-33.5487
 30
0.0
 10
-4.3011
 20
-33.5798
 30
0.0
 10
-4.2028
 20
-33.5798
 30
0.0
 10
-4.2028
 20
-33.5798
 30
0.0
 10
-4.0862
 20
-33.5798
 30
0.0
 10
-3.9874
 20
-33.5393
 30
0.0
 10
-3.9069
 20
-33.4584
 30
0.0
 10
-3.9069
 20
-33.4584
 30
0.0
 10
-3.827
 20
-33.3775
 30
0.0
 10
-3.7865
 20
-33.2773
 30
0.0
 10
-3.7865
 20
-33.1578
 30
0.0
 10
-3.7865
 20
-33.1578
 30
0.0
 10
-3.7865
 20
-33.044
 30
0.0
 10
-3.8237
 20
-32.9499
 30
0.0
 10
-3.898
 20
-32.8761
 30
0.0
 10
-3.898
 20
-32.8761
 30
0.0
 10
-3.9728
 20
-32.8023
 30
0.0
 10
-4.0673
 20
-32.7651
 30
0.0
 10
-4.1821
 20
-32.7651
 30
0.0
 10
-4.1821
 20
-32.7651
 30
0.0
 10
-4.2291
 20
-32.7651
 30
0.0
 10
-4.2875
 20
-32.7745
 30
0.0
 10
-4.3571
 20
-32.7928
 30
0.0
 10
-4.3571
 20
-32.7928
 30
0.0
 10
-4.3571
 20
-32.7928
 30
0.0
 10
-4.3293
 20
-32.5751
 30
0.0
 10
-4.3293
 20
-32.5751
 30
0.0
 10
-4.3293
 20
-32.5751
 30
0.0
 10
-4.3129
 20
-32.5769
 30
0.0
 10
-4.2997
 20
-32.5779
 30
0.0
 10
-4.2894
 20
-32.5779
 30
0.0
 10
-4.2894
 20
-32.5779
 30
0.0
 10
-4.184
 20
-32.5779
 30
0.0
 10
-4.089
 20
-32.5501
 30
0.0
 10
-4.0043
 20
-32.4951
 30
0.0
 10
-4.0043
 20
-32.4951
 30
0.0
 10
-3.9196
 20
-32.4401
 30
0.0
 10
-3.8773
 20
-32.3549
 30
0.0
 10
-3.8773
 20
-32.2402
 30
0.0
 10
-3.8773
 20
-32.2402
 30
0.0
 10
-3.8773
 20
-32.1494
 30
0.0
 10
-3.9084
 20
-32.0737
 30
0.0
 10
-3.97
 20
-32.0144
 30
0.0
 10
-3.97
 20
-32.0144
 30
0.0
 10
-4.0316
 20
-31.9547
 30
0.0
 10
-4.1111
 20
-31.9245
 30
0.0
 10
-4.2085
 20
-31.9245
 30
0.0
 10
-4.2085
 20
-31.9245
 30
0.0
 10
-4.3049
 20
-31.9245
 30
0.0
 10
-4.3853
 20
-31.9551
 30
0.0
 10
-4.4493
 20
-32.0153
 30
0.0
 10
-4.4493
 20
-32.0153
 30
0.0
 10
-4.5137
 20
-32.076
 30
0.0
 10
-4.5551
 20
-32.1673
 30
0.0
 10
-4.5735
 20
-32.2886
 30
0.0
 10
-4.5735
 20
-32.2886
 30
0.0
 10
-4.5735
 20
-32.2886
 30
0.0
 10
-4.8213
 20
-32.2444
 30
0.0
 10
-4.8213
 20
-32.2444
 30
0.0
 10
-4.8213
 20
-32.2444
 30
0.0
 10
-4.7912
 20
-32.0779
 30
0.0
 10
-4.7221
 20
-31.949
 30
0.0
 10
-4.6148
 20
-31.8578
 30
0.0
 10
-4.6148
 20
-31.8578
 30
0.0
 10
-4.5071
 20
-31.7665
 30
0.0
 10
-4.3735
 20
-31.7204
 30
0.0
 10
-4.2136
 20
-31.7204
 30
0.0
 10
-4.2136
 20
-31.7204
 30
0.0
 10
-4.1036
 20
-31.7204
 30
0.0
 10
-4.002
 20
-31.7444
 30
0.0
 10
-3.9093
 20
-31.7914
 30
0.0
 10
-3.9093
 20
-31.7914
 30
0.0
 10
-3.8166
 20
-31.8389
 30
0.0
 10
-3.7456
 20
-31.9034
 30
0.0
 10
-3.6962
 20
-31.9852
 30
0.0
 10
-3.6962
 20
-31.9852
 30
0.0
 10
-3.6473
 20
-32.0671
 30
0.0
 10
-3.6224
 20
-32.1536
 30
0.0
 10
-3.6224
 20
-32.2458
 30
0.0
 10
-3.6224
 20
-32.2458
 30
0.0
 10
-3.6224
 20
-32.3328
 30
0.0
 10
-3.6459
 20
-32.4123
 30
0.0
 10
-3.6929
 20
-32.4843
 30
0.0
 10
-3.6929
 20
-32.4843
 30
0.0
 10
-3.74
 20
-32.5558
 30
0.0
 10
-3.8091
 20
-32.6127
 30
0.0
 10
-3.9008
 20
-32.655
 30
0.0
 10
-3.9008
 20
-32.655
 30
0.0
 10
-3.7814
 20
-32.6823
 30
0.0
 10
-3.6887
 20
-32.7397
 30
0.0
 10
-3.6224
 20
-32.8267
 30
0.0
 10
-3.6224
 20
-32.8267
 30
0.0
 10
-3.5565
 20
-32.9133
 30
0.0
 10
-3.5236
 20
-33.0219
 30
0.0
 10
-3.5236
 20
-33.1522
 30
0.0
 10
-3.5236
 20
-33.1522
 30
0.0
 10
-3.5236
 20
-33.3286
 30
0.0
 10
-3.5876
 20
-33.4782
 30
0.0
 10
-3.7164
 20
-33.6009
 30
0.0
 10
-3.7164
 20
-33.6009
 30
0.0
 10
-3.8449
 20
-33.7237
 30
0.0
 10
-4.0076
 20
-33.7848
 30
0.0
 10
-4.2042
 20
-33.7848
 30
0.0
 10
-4.2042
 20
-33.7848
 30
0.0
 10
-4.3815
 20
-33.7848
 30
0.0
 10
-4.5288
 20
-33.7322
 30
0.0
 10
-4.6459
 20
-33.6263
 30
0.0
 10
-4.6459
 20
-33.6263
 30
0.0
 10
-4.763
 20
-33.521
 30
0.0
 10
-4.8298
 20
-33.3841
 30
0.0
 10
-4.8463
 20
-33.2157
 30
0.0
  0
SPLINE
  5
57
330
1F
100
AcDbEntity
  8
VRSTVA_1
 62
   250
100
AcDbSpline
210
0.0
220
0.0
230
1.0
 70
    11
 71
     3
 72
    92
 73
    88
 74
     0
 42
0.0000000001
 43
0.0000000001
 40
0.0
 40
0.0
 40
0.0
 40
0.0
 40
0.0434782608695652
 40
0.0434782608695652
 40
0.0434782608695652
 40
0.0434782608695652
 40
0.0869565217391304
 40
0.0869565217391304
 40
0.0869565217391304
 40
0.0869565217391304
 40
0.1304347826086956
 40
0.1304347826086956
 40
0.1304347826086956
 40
0.1304347826086956
 40
0.1739130434782609
 40
0.1739130434782609
 40
0.1739130434782609
 40
0.1739130434782609
 40
0.2173913043478261
 40
0.2173913043478261
 40
0.2173913043478261
 40
0.2173913043478261
 40
0.2608695652173913
 40
0.2608695652173913
 40
0.2608695652173913
 40
0.2608695652173913
 40
0.3043478260869565
 40
0.3043478260869565
 40
0.3043478260869565
 40
0.3043478260869565
 40
0.3478260869565217
 40
0.3478260869565217
 40
0.3478260869565217
 40
0.3478260869565217
 40
0.391304347826087
 40
0.391304347826087
 40
0.391304347826087
 40
0.391304347826087
 40
0.4347826086956522
 40
0.4347826086956522
 40
0.4347826086956522
 40
0.4347826086956522
 40
0.4782608695652174
 40
0.4782608695652174
 40
0.4782608695652174
 40
0.4782608695652174
 40
0.5217391304347826
 40
0.5217391304347826
 40
0.5217391304347826
 40
0.5217391304347826
 40
0.5652173913043478
 40
0.5652173913043478
 40
0.5652173913043478
 40
0.5652173913043478
 40
0.6086956521739131
 40
0.6086956521739131
 40
0.6086956521739131
 40
0.6086956521739131
 40
0.6521739130434783
 40
0.6521739130434783
 40
0.6521739130434783
 40
0.6521739130434783
 40
0.6956521739130435
 40
0.6956521739130435
 40
0.6956521739130435
 40
0.6956521739130435
 40
0.7391304347826086
 40
0.7391304347826086
 40
0.7391304347826086
 40
0.7391304347826086
 40
0.782608695652174
 40
0.782608695652174
 40
0.782608695652174
 40
0.782608695652174
 40
0.8260869565217391
 40
0.8260869565217391
 40
0.8260869565217391
 40
0.8260869565217391
 40
0.8695652173913043
 40
0.8695652173913043
 40
0.8695652173913043
 40
0.8695652173913043
 40
0.9130434782608695
 40
0.9130434782608695
 40
0.9130434782608695
 40
0.9130434782608695
 40
1.0
 40
1.0
 40
1.0
 40
1.0
 10
-3.2781
 20
-33.2199
 30
0.0
 10
-3.2781
 20
-33.2199
 30
0.0
 10
-3.0175
 20
-33.1978
 30
0.0
 10
-3.0175
 20
-33.1978
 30
0.0
 10
-3.0175
 20
-33.1978
 30
0.0
 10
-2.9982
 20
-33.3248
 30
0.0
 10
-2.9535
 20
-33.4198
 30
0.0
 10
-2.8834
 20
-33.4838
 30
0.0
 10
-2.8834
 20
-33.4838
 30
0.0
 10
-2.8129
 20
-33.5478
 30
0.0
 10
-2.7282
 20
-33.5798
 30
0.0
 10
-2.629
 20
-33.5798
 30
0.0
 10
-2.629
 20
-33.5798
 30
0.0
 10
-2.5095
 20
-33.5798
 30
0.0
 10
-2.4084
 20
-33.5346
 30
0.0
 10
-2.3261
 20
-33.4448
 30
0.0
 10
-2.3261
 20
-33.4448
 30
0.0
 10
-2.2433
 20
-33.3545
 30
0.0
 10
-2.2019
 20
-33.235
 30
0.0
 10
-2.2019
 20
-33.0864
 30
0.0
 10
-2.2019
 20
-33.0864
 30
0.0
 10
-2.2019
 20
-32.9448
 30
0.0
 10
-2.2414
 20
-32.8333
 30
0.0
 10
-2.3209
 20
-32.7515
 30
0.0
 10
-2.3209
 20
-32.7515
 30
0.0
 10
-2.4004
 20
-32.6696
 30
0.0
 10
-2.5043
 20
-32.6287
 30
0.0
 10
-2.6332
 20
-32.6287
 30
0.0
 10
-2.6332
 20
-32.6287
 30
0.0
 10
-2.7132
 20
-32.6287
 30
0.0
 10
-2.7851
 20
-32.647
 30
0.0
 10
-2.8496
 20
-32.6832
 30
0.0
 10
-2.8496
 20
-32.6832
 30
0.0
 10
-2.914
 20
-32.7195
 30
0.0
 10
-2.9643
 20
-32.7665
 30
0.0
 10
-3.001
 20
-32.8244
 30
0.0
 10
-3.001
 20
-32.8244
 30
0.0
 10
-3.001
 20
-32.8244
 30
0.0
 10
-3.2339
 20
-32.7943
 30
0.0
 10
-3.2339
 20
-32.7943
 30
0.0
 10
-3.2339
 20
-32.7943
 30
0.0
 10
-3.2339
 20
-32.7943
 30
0.0
 10
-3.0382
 20
-31.7566
 30
0.0
 10
-3.0382
 20
-31.7566
 30
0.0
 10
-3.0382
 20
-31.7566
 30
0.0
 10
-3.0382
 20
-31.7566
 30
0.0
 10
-2.0335
 20
-31.7566
 30
0.0
 10
-2.0335
 20
-31.7566
 30
0.0
 10
-2.0335
 20
-31.7566
 30
0.0
 10
-2.0335
 20
-31.7566
 30
0.0
 10
-2.0335
 20
-31.9937
 30
0.0
 10
-2.0335
 20
-31.9937
 30
0.0
 10
-2.0335
 20
-31.9937
 30
0.0
 10
-2.0335
 20
-31.9937
 30
0.0
 10
-2.8397
 20
-31.9937
 30
0.0
 10
-2.8397
 20
-31.9937
 30
0.0
 10
-2.8397
 20
-31.9937
 30
0.0
 10
-2.8397
 20
-31.9937
 30
0.0
 10
-2.9488
 20
-32.5365
 30
0.0
 10
-2.9488
 20
-32.5365
 30
0.0
 10
-2.9488
 20
-32.5365
 30
0.0
 10
-2.8275
 20
-32.4518
 30
0.0
 10
-2.7
 20
-32.4095
 30
0.0
 10
-2.5669
 20
-32.4095
 30
0.0
 10
-2.5669
 20
-32.4095
 30
0.0
 10
-2.3905
 20
-32.4095
 30
0.0
 10
-2.2419
 20
-32.4706
 30
0.0
 10
-2.1205
 20
-32.5929
 30
0.0
 10
-2.1205
 20
-32.5929
 30
0.0
 10
-1.9992
 20
-32.7152
 30
0.0
 10
-1.9385
 20
-32.8723
 30
0.0
 10
-1.9385
 20
-33.0642
 30
0.0
 10
-1.9385
 20
-33.0642
 30
0.0
 10
-1.9385
 20
-33.2472
 30
0.0
 10
-1.9921
 20
-33.4053
 30
0.0
 10
-2.0984
 20
-33.5384
 30
0.0
 10
-2.0984
 20
-33.5384
 30
0.0
 10
-2.2282
 20
-33.7016
 30
0.0
 10
-2.4051
 20
-33.7834
 30
0.0
 10
-2.629
 20
-33.7834
 30
0.0
 10
-2.629
 20
-33.7834
 30
0.0
 10
-2.8129
 20
-33.7834
 30
0.0
 10
-2.9629
 20
-33.7322
 30
0.0
 10
-3.0791
 20
-33.6292
 30
0.0
 10
-3.0791
 20
-33.6292
 30
0.0
 10
-3.1953
 20
-33.5261
 30
0.0
 10
-3.2616
 20
-33.3897
 30
0.0
 10
-3.2781
 20
-33.2199
 30
0.0
  0
SPLINE
  5
58
330
1F
100
AcDbEntity
  8
VRSTVA_1
 62
   250
100
AcDbSpline
210
0.0
220
0.0
230
1.0
 70
    11
 71
     3
 72
    92
 73
    88
 74
     0
 42
0.0000000001
 43
0.0000000001
 40
0.0
 40
0.0
 40
0.0
 40
0.0
 40
0.0434782608695652
 40
0.0434782608695652
 40
0.0434782608695652
 40
0.0434782608695652
 40
0.0869565217391304
 40
0.0869565217391304
 40
0.0869565217391304
 40
0.0869565217391304
 40
0.1304347826086956
 40
0.1304347826086956
 40
0.1304347826086956
 40
0.1304347826086956
 40
0.1739130434782609
 40
0.1739130434782609
 40
0.1739130434782609
 40
0.1739130434782609
 40
0.2173913043478261
 40
0.2173913043478261
 40
0.2173913043478261
 40
0.2173913043478261
 40
0.2608695652173913
 40
0.2608695652173913
 40
0.2608695652173913
 40
0.2608695652173913
 40
0.3043478260869565
 40
0.3043478260869565
 40
0.3043478260869565
 40
0.3043478260869565
 40
0.3478260869565217
 40
0.3478260869565217
 40
0.3478260869565217
 40
0.3478260869565217
 40
0.391304347826087
 40
0.391304347826087
 40
0.391304347826087
 40
0.391304347826087
 40
0.4347826086956522
 40
0.4347826086956522
 40
0.4347826086956522
 40
0.4347826086956522
 40
0.4782608695652174
 40
0.4782608695652174
 40
0.4782608695652174
 40
0.4782608695652174
 40
0.5217391304347826
 40
0.5217391304347826
 40
0.5217391304347826
 40
0.5217391304347826
 40
0.5652173913043478
 40
0.5652173913043478
 40
0.5652173913043478
 40
0.5652173913043478
 40
0.6086956521739131
 40
0.6086956521739131
 40
0.6086956521739131
 40
0.6086956521739131
 40
0.6521739130434783
 40
0.6521739130434783
 40
0.6521739130434783
 40
0.6521739130434783
 40
0.6956521739130435
 40
0.6956521739130435
 40
0.6956521739130435
 40
0.6956521739130435
 40
0.7391304347826086
 40
0.7391304347826086
 40
0.7391304347826086
 40
0.7391304347826086
 40
0.782608695652174
 40
0.782608695652174
 40
0.782608695652174
 40
0.782608695652174
 40
0.8260869565217391
 40
0.8260869565217391
 40
0.8260869565217391
 40
0.8260869565217391
 40
0.8695652173913043
 40
0.8695652173913043
 40
0.8695652173913043
 40
0.8695652173913043
 40
0.9130434782608695
 40
0.9130434782608695
 40
0.9130434782608695
 40
0.9130434782608695
 40
1.0
 40
1.0
 40
1.0
 40
1.0
 10
-1.6713
 20
-33.282
 30
0.0
 10
-1.6713
 20
-33.282
 30
0.0
 10
-1.4328
 20
-33.2599
 30
0.0
 10
-1.4328
 20
-33.2599
 30
0.0
 10
-1.4328
 20
-33.2599
 30
0.0
 10
-1.4126
 20
-33.3719
 30
0.0
 10
-1.374
 20
-33.4532
 30
0.0
 10
-1.3171
 20
-33.504
 30
0.0
 10
-1.3171
 20
-33.504
 30
0.0
 10
-1.2602
 20
-33.5544
 30
0.0
 10
-1.1873
 20
-33.5798
 30
0.0
 10
-1.0979
 20
-33.5798
 30
0.0
 10
-1.0979
 20
-33.5798
 30
0.0
 10
-1.0217
 20
-33.5798
 30
0.0
 10
-0.955
 20
-33.5624
 30
0.0
 10
-0.8976
 20
-33.5271
 30
0.0
 10
-0.8976
 20
-33.5271
 30
0.0
 10
-0.8402
 20
-33.4923
 30
0.0
 10
-0.7931
 20
-33.4457
 30
0.0
 10
-0.7565
 20
-33.3874
 30
0.0
 10
-0.7565
 20
-33.3874
 30
0.0
 10
-0.7193
 20
-33.3291
 30
0.0
 10
-0.6887
 20
-33.25
 30
0.0
 10
-0.6638
 20
-33.1513
 30
0.0
 10
-0.6638
 20
-33.1513
 30
0.0
 10
-0.6393
 20
-33.052
 30
0.0
 10
-0.6266
 20
-32.9509
 30
0.0
 10
-0.6266
 20
-32.8479
 30
0.0
 10
-0.6266
 20
-32.8479
 30
0.0
 10
-0.6266
 20
-32.8371
 30
0.0
 10
-0.6271
 20
-32.8201
 30
0.0
 10
-0.628
 20
-32.7985
 30
0.0
 10
-0.628
 20
-32.7985
 30
0.0
 10
-0.6779
 20
-32.877
 30
0.0
 10
-0.7456
 20
-32.9415
 30
0.0
 10
-0.8312
 20
-32.9904
 30
0.0
 10
-0.8312
 20
-32.9904
 30
0.0
 10
-0.9173
 20
-33.0398
 30
0.0
 10
-1.0105
 20
-33.0642
 30
0.0
 10
-1.1102
 20
-33.0642
 30
0.0
 10
-1.1102
 20
-33.0642
 30
0.0
 10
-1.2776
 20
-33.0642
 30
0.0
 10
-1.4192
 20
-33.0036
 30
0.0
 10
-1.5349
 20
-32.8822
 30
0.0
 10
-1.5349
 20
-32.8822
 30
0.0
 10
-1.6506
 20
-32.7609
 30
0.0
 10
-1.7085
 20
-32.6014
 30
0.0
 10
-1.7085
 20
-32.4029
 30
0.0
 10
-1.7085
 20
-32.4029
 30
0.0
 10
-1.7085
 20
-32.1978
 30
0.0
 10
-1.6483
 20
-32.0332
 30
0.0
 10
-1.5274
 20
-31.9081
 30
0.0
 10
-1.5274
 20
-31.9081
 30
0.0
 10
-1.4065
 20
-31.783
 30
0.0
 10
-1.255
 20
-31.7204
 30
0.0
 10
-1.073
 20
-31.7204
 30
0.0
 10
-1.073
 20
-31.7204
 30
0.0
 10
-0.9418
 20
-31.7204
 30
0.0
 10
-0.8218
 20
-31.7562
 30
0.0
 10
-0.7127
 20
-31.8267
 30
0.0
 10
-0.7127
 20
-31.8267
 30
0.0
 10
-0.6041
 20
-31.8973
 30
0.0
 10
-0.5213
 20
-31.9984
 30
0.0
 10
-0.4648
 20
-32.1292
 30
0.0
 10
-0.4648
 20
-32.1292
 30
0.0
 10
-0.4084
 20
-32.2599
 30
0.0
 10
-0.3802
 20
-32.4495
 30
0.0
 10
-0.3802
 20
-32.6978
 30
0.0
 10
-0.3802
 20
-32.6978
 30
0.0
 10
-0.3802
 20
-32.9556
 30
0.0
 10
-0.4079
 20
-33.1611
 30
0.0
 10
-0.4639
 20
-33.3145
 30
0.0
 10
-0.4639
 20
-33.3145
 30
0.0
 10
-0.5203
 20
-33.4674
 30
0.0
 10
-0.6036
 20
-33.5835
 30
0.0
 10
-0.7141
 20
-33.6635
 30
0.0
 10
-0.7141
 20
-33.6635
 30
0.0
 10
-0.8251
 20
-33.7435
 30
0.0
 10
-0.9545
 20
-33.7834
 30
0.0
 10
-1.1036
 20
-33.7834
 30
0.0
 10
-1.1036
 20
-33.7834
 30
0.0
 10
-1.2616
 20
-33.7834
 30
0.0
 10
-1.3905
 20
-33.7397
 30
0.0
 10
-1.4907
 20
-33.6517
 30
0.0
 10
-1.4907
 20
-33.6517
 30
0.0
 10
-1.5909
 20
-33.5642
 30
0.0
 10
-1.6511
 20
-33.441
 30
0.0
 10
-1.6713
 20
-33.282
 30
0.0
  0
SPLINE
  5
59
330
1F
100
AcDbEntity
  8
VRSTVA_1
 62
   250
100
AcDbSpline
210
0.0
220
0.0
230
1.0
 70
    11
 71
     3
 72
    36
 73
    32
 74
     0
 42
0.0000000001
 43
0.0000000001
 40
0.0
 40
0.0
 40
0.0
 40
0.0
 40
0.1111111111111111
 40
0.1111111111111111
 40
0.1111111111111111
 40
0.1111111111111111
 40
0.2222222222222222
 40
0.2222222222222222
 40
0.2222222222222222
 40
0.2222222222222222
 40
0.3333333333333333
 40
0.3333333333333333
 40
0.3333333333333333
 40
0.3333333333333333
 40
0.4444444444444444
 40
0.4444444444444444
 40
0.4444444444444444
 40
0.4444444444444444
 40
0.5555555555555556
 40
0.5555555555555556
 40
0.5555555555555556
 40
0.5555555555555556
 40
0.6666666666666666
 40
0.6666666666666666
 40
0.6666666666666666
 40
0.6666666666666666
 40
0.7777777777777778
 40
0.7777777777777778
 40
0.7777777777777778
 40
0.7777777777777778
 40
1.0
 40
1.0
 40
1.0
 40
1.0
 10
-0.6558
 20
-32.3902
 30
0.0
 10
-0.6558
 20
-32.2482
 30
0.0
 10
-0.6934
 20
-32.1348
 30
0.0
 10
-0.7692
 20
-32.0515
 30
0.0
 10
-0.7692
 20
-32.0515
 30
0.0
 10
-0.8454
 20
-31.9678
 30
0.0
 10
-0.9361
 20
-31.926
 30
0.0
 10
-1.0429
 20
-31.926
 30
0.0
 10
-1.0429
 20
-31.926
 30
0.0
 10
-1.153
 20
-31.926
 30
0.0
 10
-1.2489
 20
-31.9711
 30
0.0
 10
-1.3308
 20
-32.061
 30
0.0
 10
-1.3308
 20
-32.061
 30
0.0
 10
-1.4126
 20
-32.1513
 30
0.0
 10
-1.4535
 20
-32.2679
 30
0.0
 10
-1.4535
 20
-32.4109
 30
0.0
 10
-1.4535
 20
-32.4109
 30
0.0
 10
-1.4535
 20
-32.5398
 30
0.0
 10
-1.4145
 20
-32.6442
 30
0.0
 10
-1.3369
 20
-32.7246
 30
0.0
 10
-1.3369
 20
-32.7246
 30
0.0
 10
-1.2593
 20
-32.8051
 30
0.0
 10
-1.1638
 20
-32.8451
 30
0.0
 10
-1.05
 20
-32.8451
 30
0.0
 10
-1.05
 20
-32.8451
 30
0.0
 10
-0.9347
 20
-32.8451
 30
0.0
 10
-0.8407
 20
-32.8051
 30
0.0
 10
-0.7668
 20
-32.7246
 30
0.0
 10
-0.7668
 20
-32.7246
 30
0.0
 10
-0.6925
 20
-32.6442
 30
0.0
 10
-0.6558
 20
-32.5327
 30
0.0
 10
-0.6558
 20
-32.3902
 30
0.0
  0
SPLINE
  5
5A
330
1F
100
AcDbEntity
  8
VRSTVA_1
 62
   250
100
AcDbSpline
210
0.0
220
0.0
230
1.0
 70
    11
 71
     3
 72
    20
 73
    16
 74
     0
 42
0.0000000001
 43
0.0000000001
 40
0.0
 40
0.0
 40
0.0
 40
0.0
 40
0.2
 40
0.2
 40
0.2
 40
0.2
 40
0.4
 40
0.4
 40
0.4
 40
0.4
 40
0.6
 40
0.6
 40
0.6
 40
0.6
 40
1.0
 40
1.0
 40
1.0
 40
1.0
 10
-26.3918
 20
-34.3639
 30
0.0
 10
-26.3918
 20
-34.3639
 30
0.0
 10
-23.5926
 20
-34.7726
 30
0.0
 10
-23.5926
 20
-34.7726
 30
0.0
 10
-23.5926
 20
-34.7726
 30
0.0
 10
-23.5926
 20
-34.7726
 30
0.0
 10
-23.5926
 20
-33.8704
 30
0.0
 10
-23.5926
 20
-33.8704
 30
0.0
 10
-23.5926
 20
-33.8704
 30
0.0
 10
-23.5926
 20
-33.8704
 30
0.0
 10
-26.3918
 20
-34.3626
 30
0.0
 10
-26.3918
 20
-34.3626
 30
0.0
 10
-26.3918
 20
-34.3626
 30
0.0
 10
-26.3918
 20
-34.3626
 30
0.0
 10
-26.3918
 20
-34.3639
 30
0.0
 10
-26.3918
 20
-34.3639
 30
0.0
  0
SPLINE
  5
5B
330
1F
100
AcDbEntity
  8
VRSTVA_1
 62
   250
100
AcDbSpline
210
0.0
220
0.0
230
1.0
 70
    11
 71
     3
 72
    20
 73
    16
 74
     0
 42
0.0000000001
 43
0.0000000001
 40
0.0
 40
0.0
 40
0.0
 40
0.0
 40
0.2
 40
0.2
 40
0.2
 40
0.2
 40
0.4
 40
0.4
 40
0.4
 40
0.4
 40
0.6
 40
0.6
 40
0.6
 40
0.6
 40
1.0
 40
1.0
 40
1.0
 40
1.0
 10
22.1546
 20
-34.3678
 30
0.0
 10
22.1546
 20
-34.3678
 30
0.0
 10
19.3554
 20
-33.9591
 30
0.0
 10
19.3554
 20
-33.9591
 30
0.0
 10
19.3554
 20
-33.9591
 30
0.0
 10
19.3554
 20
-33.9591
 30
0.0
 10
19.3554
 20
-34.8613
 30
0.0
 10
19.3554
 20
-34.8613
 30
0.0
 10
19.3554
 20
-34.8613
 30
0.0
 10
19.3554
 20
-34.8613
 30
0.0
 10
22.1546
 20
-34.369
 30
0.0
 10
22.1546
 20
-34.369
 30
0.0
 10
22.1546
 20
-34.369
 30
0.0
 10
22.1546
 20
-34.369
 30
0.0
 10
22.1546
 20
-34.3678
 30
0.0
 10
22.1546
 20
-34.3678
 30
0.0
  0
SPLINE
  5
5C
330
1F
100
AcDbEntity
  8
VRSTVA_1
 62
   250
100
AcDbSpline
210
0.0
220
0.0
230
1.0
 70
    24
 71
     3
 72
     8
 73
     4
 74
     0
 42
0.0000000001
 43
0.0000000001
 40
0.0
 40
0.0
 40
0.0
 40
0.0
 40
1.0
 40
1.0
 40
1.0
 40
1.0
 10
21.1431
 20
-34.3639
 30
0.0
 10
21.1431
 20
-34.3639
 30
0.0
 10
-25.1163
 20
-34.3639
 30
0.0
 10
-25.1163
 20
-34.3639
 30
0.0
  0
SPLINE
  5
5D
330
1F
100
AcDbEntity
  8
VRSTVA_1
 62
   250
100
AcDbSpline
210
0.0
220
0.0
230
1.0
 70
    24
 71
     3
 72
     8
 73
     4
 74
     0
 42
0.0000000001
 43
0.0000000001
 40
0.0
 40
0.0
 40
0.0
 40
0.0
 40
1.0
 40
1.0
 40
1.0
 40
1.0
 10
-26.4751
 20
-34.8144
 30
0.0
 10
-26.4751
 20
-34.8144
 30
0.0
 10
-26.4751
 20
-0.5283
 30
0.0
 10
-26.4751
 20
-0.5283
 30
0.0
  0
SPLINE
  5
5E
330
1F
100
AcDbEntity
  8
VRSTVA_1
 62
   250
100
AcDbSpline
210
0.0
220
0.0
230
1.0
 70
    24
 71
     3
 72
     8
 73
     4
 74
     0
 42
0.0000000001
 43
0.0000000001
 40
0.0
 40
0.0
 40
0.0
 40
0.0
 40
1.0
 40
1.0
 40
1.0
 40
1.0
 10
22.2311
 20
-34.978
 30
0.0
 10
22.2311
 20
-34.978
 30
0.0
 10
22.2311
 20
-0.3294
 30
0.0
 10
22.2311
 20
-0.3294
 30
0.0
  0
SPLINE
  5
5F
330
1F
100
AcDbEntity
  8
VRSTVA_1
 62
   250
100
AcDbSpline
210
0.0
220
0.0
230
1.0
 70
    11
 71
     3
 72
    92
 73
    88
 74
     0
 42
0.0000000001
 43
0.0000000001
 40
0.0
 40
0.0
 40
0.0
 40
0.0
 40
0.0434782608695652
 40
0.0434782608695652
 40
0.0434782608695652
 40
0.0434782608695652
 40
0.0869565217391304
 40
0.0869565217391304
 40
0.0869565217391304
 40
0.0869565217391304
 40
0.1304347826086956
 40
0.1304347826086956
 40
0.1304347826086956
 40
0.1304347826086956
 40
0.1739130434782609
 40
0.1739130434782609
 40
0.1739130434782609
 40
0.1739130434782609
 40
0.2173913043478261
 40
0.2173913043478261
 40
0.2173913043478261
 40
0.2173913043478261
 40
0.2608695652173913
 40
0.2608695652173913
 40
0.2608695652173913
 40
0.2608695652173913
 40
0.3043478260869565
 40
0.3043478260869565
 40
0.3043478260869565
 40
0.3043478260869565
 40
0.3478260869565217
 40
0.3478260869565217
 40
0.3478260869565217
 40
0.3478260869565217
 40
0.391304347826087
 40
0.391304347826087
 40
0.391304347826087
 40
0.391304347826087
 40
0.4347826086956522
 40
0.4347826086956522
 40
0.4347826086956522
 40
0.4347826086956522
 40
0.4782608695652174
 40
0.4782608695652174
 40
0.4782608695652174
 40
0.4782608695652174
 40
0.5217391304347826
 40
0.5217391304347826
 40
0.5217391304347826
 40
0.5217391304347826
 40
0.5652173913043478
 40
0.5652173913043478
 40
0.5652173913043478
 40
0.5652173913043478
 40
0.6086956521739131
 40
0.6086956521739131
 40
0.6086956521739131
 40
0.6086956521739131
 40
0.6521739130434783
 40
0.6521739130434783
 40
0.6521739130434783
 40
0.6521739130434783
 40
0.6956521739130435
 40
0.6956521739130435
 40
0.6956521739130435
 40
0.6956521739130435
 40
0.7391304347826086
 40
0.7391304347826086
 40
0.7391304347826086
 40
0.7391304347826086
 40
0.782608695652174
 40
0.782608695652174
 40
0.782608695652174
 40
0.782608695652174
 40
0.8260869565217391
 40
0.8260869565217391
 40
0.8260869565217391
 40
0.8260869565217391
 40
0.8695652173913043
 40
0.8695652173913043
 40
0.8695652173913043
 40
0.8695652173913043
 40
0.9130434782608695
 40
0.9130434782608695
 40
0.9130434782608695
 40
0.9130434782608695
 40
1.0
 40
1.0
 40
1.0
 40
1.0
 10
26.8572
 20
-0.5135
 30
0.0
 10
26.8572
 20
-0.5135
 30
0.0
 10
27.0957
 20
-0.5135
 30
0.0
 10
27.0957
 20
-0.5135
 30
0.0
 10
27.0957
 20
-0.5135
 30
0.0
 10
27.0957
 20
-0.5135
 30
0.0
 10
27.0957
 20
-1.8489
 30
0.0
 10
27.0957
 20
-1.8489
 30
0.0
 10
27.0957
 20
-1.8489
 30
0.0
 10
27.036
 20
-1.8508
 30
0.0
 10
26.9786
 20
-1.8414
 30
0.0
 10
26.9235
 20
-1.8202
 30
0.0
 10
26.9235
 20
-1.8202
 30
0.0
 10
26.8323
 20
-1.7863
 30
0.0
 10
26.7429
 20
-1.7318
 30
0.0
 10
26.6545
 20
-1.657
 30
0.0
 10
26.6545
 20
-1.657
 30
0.0
 10
26.5665
 20
-1.5817
 30
0.0
 10
26.4645
 20
-1.4735
 30
0.0
 10
26.3488
 20
-1.3324
 30
0.0
 10
26.3488
 20
-1.3324
 30
0.0
 10
26.1686
 20
-1.1128
 30
0.0
 10
26.0261
 20
-0.9641
 30
0.0
 10
25.9207
 20
-0.887
 30
0.0
 10
25.9207
 20
-0.887
 30
0.0
 10
25.8158
 20
-0.8099
 30
0.0
 10
25.7161
 20
-0.7713
 30
0.0
 10
25.6225
 20
-0.7713
 30
0.0
 10
25.6225
 20
-0.7713
 30
0.0
 10
25.5242
 20
-0.7713
 30
0.0
 10
25.4414
 20
-0.8066
 30
0.0
 10
25.3737
 20
-0.8766
 30
0.0
 10
25.3737
 20
-0.8766
 30
0.0
 10
25.3064
 20
-0.9472
 30
0.0
 10
25.2726
 20
-1.0389
 30
0.0
 10
25.2726
 20
-1.1518
 30
0.0
 10
25.2726
 20
-1.1518
 30
0.0
 10
25.2726
 20
-1.2713
 30
0.0
 10
25.3083
 20
-1.3668
 30
0.0
 10
25.3803
 20
-1.4383
 30
0.0
 10
25.3803
 20
-1.4383
 30
0.0
 10
25.4518
 20
-1.5102
 30
0.0
 10
25.551
 20
-1.5464
 30
0.0
 10
25.6775
 20
-1.5474
 30
0.0
 10
25.6775
 20
-1.5474
 30
0.0
 10
25.6775
 20
-1.5474
 30
0.0
 10
25.6517
 20
-1.8023
 30
0.0
 10
25.6517
 20
-1.8023
 30
0.0
 10
25.6517
 20
-1.8023
 30
0.0
 10
25.4612
 20
-1.7849
 30
0.0
 10
25.3163
 20
-1.7191
 30
0.0
 10
25.2166
 20
-1.6052
 30
0.0
 10
25.2166
 20
-1.6052
 30
0.0
 10
25.1169
 20
-1.4914
 30
0.0
 10
25.067
 20
-1.3381
 30
0.0
 10
25.067
 20
-1.1462
 30
0.0
 10
25.067
 20
-1.1462
 30
0.0
 10
25.067
 20
-0.9524
 30
0.0
 10
25.1211
 20
-0.799
 30
0.0
 10
25.2283
 20
-0.6861
 30
0.0
 10
25.2283
 20
-0.6861
 30
0.0
 10
25.3361
 20
-0.5728
 30
0.0
 10
25.4692
 20
-0.5163
 30
0.0
 10
25.6282
 20
-0.5163
 30
0.0
 10
25.6282
 20
-0.5163
 30
0.0
 10
25.7091
 20
-0.5163
 30
0.0
 10
25.7886
 20
-0.5328
 30
0.0
 10
25.8666
 20
-0.5662
 30
0.0
 10
25.8666
 20
-0.5662
 30
0.0
 10
25.9447
 20
-0.5991
 30
0.0
 10
26.027
 20
-0.6542
 30
0.0
 10
26.1131
 20
-0.7308
 30
0.0
 10
26.1131
 20
-0.7308
 30
0.0
 10
26.1997
 20
-0.8075
 30
0.0
 10
26.3182
 20
-0.935
 30
0.0
 10
26.4687
 20
-1.1132
 30
0.0
 10
26.4687
 20
-1.1132
 30
0.0
 10
26.5938
 20
-1.2619
 30
0.0
 10
26.6785
 20
-1.3574
 30
0.0
 10
26.7232
 20
-1.3997
 30
0.0
 10
26.7232
 20
-1.3997
 30
0.0
 10
26.7674
 20
-1.442
 30
0.0
 10
26.8121
 20
-1.4768
 30
0.0
 10
26.8572
 20
-1.5046
 30
0.0
 10
26.8572
 20
-1.5046
 30
0.0
 10
26.8572
 20
-1.5046
 30
0.0
 10
26.8572
 20
-0.5135
 30
0.0
 10
26.8572
 20
-0.5135
 30
0.0
  0
SPLINE
  5
60
330
1F
100
AcDbEntity
  8
VRSTVA_1
 62
   250
100
AcDbSpline
210
0.0
220
0.0
230
1.0
 70
    11
 71
     3
 72
    92
 73
    88
 74
     0
 42
0.0000000001
 43
0.0000000001
 40
0.0
 40
0.0
 40
0.0
 40
0.0
 40
0.0434782608695652
 40
0.0434782608695652
 40
0.0434782608695652
 40
0.0434782608695652
 40
0.0869565217391304
 40
0.0869565217391304
 40
0.0869565217391304
 40
0.0869565217391304
 40
0.1304347826086956
 40
0.1304347826086956
 40
0.1304347826086956
 40
0.1304347826086956
 40
0.1739130434782609
 40
0.1739130434782609
 40
0.1739130434782609
 40
0.1739130434782609
 40
0.2173913043478261
 40
0.2173913043478261
 40
0.2173913043478261
 40
0.2173913043478261
 40
0.2608695652173913
 40
0.2608695652173913
 40
0.2608695652173913
 40
0.2608695652173913
 40
0.3043478260869565
 40
0.3043478260869565
 40
0.3043478260869565
 40
0.3043478260869565
 40
0.3478260869565217
 40
0.3478260869565217
 40
0.3478260869565217
 40
0.3478260869565217
 40
0.391304347826087
 40
0.391304347826087
 40
0.391304347826087
 40
0.391304347826087
 40
0.4347826086956522
 40
0.4347826086956522
 40
0.4347826086956522
 40
0.4347826086956522
 40
0.4782608695652174
 40
0.4782608695652174
 40
0.4782608695652174
 40
0.4782608695652174
 40
0.5217391304347826
 40
0.5217391304347826
 40
0.5217391304347826
 40
0.5217391304347826
 40
0.5652173913043478
 40
0.5652173913043478
 40
0.5652173913043478
 40
0.5652173913043478
 40
0.6086956521739131
 40
0.6086956521739131
 40
0.6086956521739131
 40
0.6086956521739131
 40
0.6521739130434783
 40
0.6521739130434783
 40
0.6521739130434783
 40
0.6521739130434783
 40
0.6956521739130435
 40
0.6956521739130435
 40
0.6956521739130435
 40
0.6956521739130435
 40
0.7391304347826086
 40
0.7391304347826086
 40
0.7391304347826086
 40
0.7391304347826086
 40
0.782608695652174
 40
0.782608695652174
 40
0.782608695652174
 40
0.782608695652174
 40
0.8260869565217391
 40
0.8260869565217391
 40
0.8260869565217391
 40
0.8260869565217391
 40
0.8695652173913043
 40
0.8695652173913043
 40
0.8695652173913043
 40
0.8695652173913043
 40
0.9130434782608695
 40
0.9130434782608695
 40
0.9130434782608695
 40
0.9130434782608695
 40
1.0
 40
1.0
 40
1.0
 40
1.0
 10
26.6286
 20
-0.2106
 30
0.0
 10
26.6286
 20
-0.2106
 30
0.0
 10
26.6065
 20
0.0279
 30
0.0
 10
26.6065
 20
0.0279
 30
0.0
 10
26.6065
 20
0.0279
 30
0.0
 10
26.7185
 20
0.0481
 30
0.0
 10
26.7998
 20
0.0867
 30
0.0
 10
26.8506
 20
0.1436
 30
0.0
 10
26.8506
 20
0.1436
 30
0.0
 10
26.901
 20
0.2005
 30
0.0
 10
26.9264
 20
0.2734
 30
0.0
 10
26.9264
 20
0.3628
 30
0.0
 10
26.9264
 20
0.3628
 30
0.0
 10
26.9264
 20
0.439
 30
0.0
 10
26.909
 20
0.5057
 30
0.0
 10
26.8737
 20
0.5631
 30
0.0
 10
26.8737
 20
0.5631
 30
0.0
 10
26.8389
 20
0.6205
 30
0.0
 10
26.7923
 20
0.6676
 30
0.0
 10
26.734
 20
0.7042
 30
0.0
 10
26.734
 20
0.7042
 30
0.0
 10
26.6757
 20
0.7414
 30
0.0
 10
26.5966
 20
0.772
 30
0.0
 10
26.4979
 20
0.7969
 30
0.0
 10
26.4979
 20
0.7969
 30
0.0
 10
26.3986
 20
0.8214
 30
0.0
 10
26.2975
 20
0.8341
 30
0.0
 10
26.1945
 20
0.8341
 30
0.0
 10
26.1945
 20
0.8341
 30
0.0
 10
26.1837
 20
0.8341
 30
0.0
 10
26.1667
 20
0.8336
 30
0.0
 10
26.1451
 20
0.8327
 30
0.0
 10
26.1451
 20
0.8327
 30
0.0
 10
26.2236
 20
0.7828
 30
0.0
 10
26.2881
 20
0.7151
 30
0.0
 10
26.337
 20
0.6295
 30
0.0
 10
26.337
 20
0.6295
 30
0.0
 10
26.3864
 20
0.5434
 30
0.0
 10
26.4108
 20
0.4502
 30
0.0
 10
26.4108
 20
0.3505
 30
0.0
 10
26.4108
 20
0.3505
 30
0.0
 10
26.4108
 20
0.1831
 30
0.0
 10
26.3502
 20
0.0415
 30
0.0
 10
26.2288
 20
-0.0742
 30
0.0
 10
26.2288
 20
-0.0742
 30
0.0
 10
26.1075
 20
-0.1899
 30
0.0
 10
25.948
 20
-0.2478
 30
0.0
 10
25.7495
 20
-0.2478
 30
0.0
 10
25.7495
 20
-0.2478
 30
0.0
 10
25.5444
 20
-0.2478
 30
0.0
 10
25.3798
 20
-0.1876
 30
0.0
 10
25.2547
 20
-0.0667
 30
0.0
 10
25.2547
 20
-0.0667
 30
0.0
 10
25.1296
 20
0.0542
 30
0.0
 10
25.067
 20
0.2057
 30
0.0
 10
25.067
 20
0.3877
 30
0.0
 10
25.067
 20
0.3877
 30
0.0
 10
25.067
 20
0.5189
 30
0.0
 10
25.1028
 20
0.6389
 30
0.0
 10
25.1733
 20
0.748
 30
0.0
 10
25.1733
 20
0.748
 30
0.0
 10
25.2439
 20
0.8566
 30
0.0
 10
25.345
 20
0.9394
 30
0.0
 10
25.4758
 20
0.9959
 30
0.0
 10
25.4758
 20
0.9959
 30
0.0
 10
25.6065
 20
1.0523
 30
0.0
 10
25.7961
 20
1.0805
 30
0.0
 10
26.0444
 20
1.0805
 30
0.0
 10
26.0444
 20
1.0805
 30
0.0
 10
26.3022
 20
1.0805
 30
0.0
 10
26.5077
 20
1.0528
 30
0.0
 10
26.6611
 20
0.9968
 30
0.0
 10
26.6611
 20
0.9968
 30
0.0
 10
26.814
 20
0.9404
 30
0.0
 10
26.9301
 20
0.8571
 30
0.0
 10
27.0101
 20
0.7466
 30
0.0
 10
27.0101
 20
0.7466
 30
0.0
 10
27.0901
 20
0.6356
 30
0.0
 10
27.13
 20
0.5062
 30
0.0
 10
27.13
 20
0.3571
 30
0.0
 10
27.13
 20
0.3571
 30
0.0
 10
27.13
 20
0.1991
 30
0.0
 10
27.0863
 20
0.0702
 30
0.0
 10
26.9983
 20
-0.03
 30
0.0
 10
26.9983
 20
-0.03
 30
0.0
 10
26.9108
 20
-0.1302
 30
0.0
 10
26.7876
 20
-0.1904
 30
0.0
 10
26.6286
 20
-0.2106
 30
0.0
  0
SPLINE
  5
61
330
1F
100
AcDbEntity
  8
VRSTVA_1
 62
   250
100
AcDbSpline
210
0.0
220
0.0
230
1.0
 70
    11
 71
     3
 72
    36
 73
    32
 74
     0
 42
0.0000000001
 43
0.0000000001
 40
0.0
 40
0.0
 40
0.0
 40
0.0
 40
0.1111111111111111
 40
0.1111111111111111
 40
0.1111111111111111
 40
0.1111111111111111
 40
0.2222222222222222
 40
0.2222222222222222
 40
0.2222222222222222
 40
0.2222222222222222
 40
0.3333333333333333
 40
0.3333333333333333
 40
0.3333333333333333
 40
0.3333333333333333
 40
0.4444444444444444
 40
0.4444444444444444
 40
0.4444444444444444
 40
0.4444444444444444
 40
0.5555555555555556
 40
0.5555555555555556
 40
0.5555555555555556
 40
0.5555555555555556
 40
0.6666666666666666
 40
0.6666666666666666
 40
0.6666666666666666
 40
0.6666666666666666
 40
0.7777777777777778
 40
0.7777777777777778
 40
0.7777777777777778
 40
0.7777777777777778
 40
1.0
 40
1.0
 40
1.0
 40
1.0
 10
25.7368
 20
0.8049
 30
0.0
 10
25.5948
 20
0.8049
 30
0.0
 10
25.4814
 20
0.7673
 30
0.0
 10
25.3981
 20
0.6915
 30
0.0
 10
25.3981
 20
0.6915
 30
0.0
 10
25.3144
 20
0.6153
 30
0.0
 10
25.2726
 20
0.5246
 30
0.0
 10
25.2726
 20
0.4178
 30
0.0
 10
25.2726
 20
0.4178
 30
0.0
 10
25.2726
 20
0.3077
 30
0.0
 10
25.3177
 20
0.2118
 30
0.0
 10
25.4076
 20
0.1299
 30
0.0
 10
25.4076
 20
0.1299
 30
0.0
 10
25.4979
 20
0.0481
 30
0.0
 10
25.6145
 20
0.0072
 30
0.0
 10
25.7575
 20
0.0072
 30
0.0
 10
25.7575
 20
0.0072
 30
0.0
 10
25.8864
 20
0.0072
 30
0.0
 10
25.9908
 20
0.0462
 30
0.0
 10
26.0712
 20
0.1238
 30
0.0
 10
26.0712
 20
0.1238
 30
0.0
 10
26.1517
 20
0.2014
 30
0.0
 10
26.1917
 20
0.2969
 30
0.0
 10
26.1917
 20
0.4107
 30
0.0
 10
26.1917
 20
0.4107
 30
0.0
 10
26.1917
 20
0.526
 30
0.0
 10
26.1517
 20
0.62
 30
0.0
 10
26.0712
 20
0.6939
 30
0.0
 10
26.0712
 20
0.6939
 30
0.0
 10
25.9908
 20
0.7682
 30
0.0
 10
25.8793
 20
0.8049
 30
0.0
 10
25.7368
 20
0.8049
 30
0.0
  0
SPLINE
  5
62
330
1F
100
AcDbEntity
  8
VRSTVA_1
 62
   250
100
AcDbSpline
210
0.0
220
0.0
230
1.0
 70
    11
 71
     3
 72
   124
 73
   120
 74
     0
 42
0.0000000001
 43
0.0000000001
 40
0.0
 40
0.0
 40
0.0
 40
0.0
 40
0.032258064516129
 40
0.032258064516129
 40
0.032258064516129
 40
0.032258064516129
 40
0.0645161290322581
 40
0.0645161290322581
 40
0.0645161290322581
 40
0.0645161290322581
 40
0.0967741935483871
 40
0.0967741935483871
 40
0.0967741935483871
 40
0.0967741935483871
 40
0.1290322580645161
 40
0.1290322580645161
 40
0.1290322580645161
 40
0.1290322580645161
 40
0.1612903225806452
 40
0.1612903225806452
 40
0.1612903225806452
 40
0.1612903225806452
 40
0.1935483870967742
 40
0.1935483870967742
 40
0.1935483870967742
 40
0.1935483870967742
 40
0.2258064516129032
 40
0.2258064516129032
 40
0.2258064516129032
 40
0.2258064516129032
 40
0.2580645161290323
 40
0.2580645161290323
 40
0.2580645161290323
 40
0.2580645161290323
 40
0.2903225806451613
 40
0.2903225806451613
 40
0.2903225806451613
 40
0.2903225806451613
 40
0.3225806451612903
 40
0.3225806451612903
 40
0.3225806451612903
 40
0.3225806451612903
 40
0.3548387096774194
 40
0.3548387096774194
 40
0.3548387096774194
 40
0.3548387096774194
 40
0.3870967741935484
 40
0.3870967741935484
 40
0.3870967741935484
 40
0.3870967741935484
 40
0.4193548387096774
 40
0.4193548387096774
 40
0.4193548387096774
 40
0.4193548387096774
 40
0.4516129032258064
 40
0.4516129032258064
 40
0.4516129032258064
 40
0.4516129032258064
 40
0.4838709677419355
 40
0.4838709677419355
 40
0.4838709677419355
 40
0.4838709677419355
 40
0.5161290322580645
 40
0.5161290322580645
 40
0.5161290322580645
 40
0.5161290322580645
 40
0.5483870967741935
 40
0.5483870967741935
 40
0.5483870967741935
 40
0.5483870967741935
 40
0.5806451612903226
 40
0.5806451612903226
 40
0.5806451612903226
 40
0.5806451612903226
 40
0.6129032258064516
 40
0.6129032258064516
 40
0.6129032258064516
 40
0.6129032258064516
 40
0.6451612903225806
 40
0.6451612903225806
 40
0.6451612903225806
 40
0.6451612903225806
 40
0.6774193548387096
 40
0.6774193548387096
 40
0.6774193548387096
 40
0.6774193548387096
 40
0.7096774193548387
 40
0.7096774193548387
 40
0.7096774193548387
 40
0.7096774193548387
 40
0.7419354838709677
 40
0.7419354838709677
 40
0.7419354838709677
 40
0.7419354838709677
 40
0.7741935483870968
 40
0.7741935483870968
 40
0.7741935483870968
 40
0.7741935483870968
 40
0.8064516129032258
 40
0.8064516129032258
 40
0.8064516129032258
 40
0.8064516129032258
 40
0.8387096774193549
 40
0.8387096774193549
 40
0.8387096774193549
 40
0.8387096774193549
 40
0.8709677419354839
 40
0.8709677419354839
 40
0.8709677419354839
 40
0.8709677419354839
 40
0.9032258064516129
 40
0.9032258064516129
 40
0.9032258064516129
 40
0.9032258064516129
 40
0.9354838709677419
 40
0.9354838709677419
 40
0.9354838709677419
 40
0.9354838709677419
 40
1.0
 40
1.0
 40
1.0
 40
1.0
 10
26.5623
 20
1.3232
 30
0.0
 10
26.5623
 20
1.3232
 30
0.0
 10
26.5294
 20
1.5711
 30
0.0
 10
26.5294
 20
1.5711
 30
0.0
 10
26.5294
 20
1.5711
 30
0.0
 10
26.67
 20
1.5998
 30
0.0
 10
26.7711
 20
1.6483
 30
0.0
 10
26.8332
 20
1.7165
 30
0.0
 10
26.8332
 20
1.7165
 30
0.0
 10
26.8953
 20
1.7851
 30
0.0
 10
26.9264
 20
1.8684
 30
0.0
 10
26.9264
 20
1.9667
 30
0.0
 10
26.9264
 20
1.9667
 30
0.0
 10
26.9264
 20
2.0833
 30
0.0
 10
26.8859
 20
2.1821
 30
0.0
 10
26.805
 20
2.2626
 30
0.0
 10
26.805
 20
2.2626
 30
0.0
 10
26.7241
 20
2.3425
 30
0.0
 10
26.6239
 20
2.383
 30
0.0
 10
26.5044
 20
2.383
 30
0.0
 10
26.5044
 20
2.383
 30
0.0
 10
26.3906
 20
2.383
 30
0.0
 10
26.2965
 20
2.3458
 30
0.0
 10
26.2227
 20
2.2715
 30
0.0
 10
26.2227
 20
2.2715
 30
0.0
 10
26.1489
 20
2.1967
 30
0.0
 10
26.1117
 20
2.1022
 30
0.0
 10
26.1117
 20
1.9874
 30
0.0
 10
26.1117
 20
1.9874
 30
0.0
 10
26.1117
 20
1.9404
 30
0.0
 10
26.1211
 20
1.882
 30
0.0
 10
26.1394
 20
1.8124
 30
0.0
 10
26.1394
 20
1.8124
 30
0.0
 10
26.1394
 20
1.8124
 30
0.0
 10
25.9217
 20
1.8402
 30
0.0
 10
25.9217
 20
1.8402
 30
0.0
 10
25.9217
 20
1.8402
 30
0.0
 10
25.9235
 20
1.8566
 30
0.0
 10
25.9245
 20
1.8698
 30
0.0
 10
25.9245
 20
1.8801
 30
0.0
 10
25.9245
 20
1.8801
 30
0.0
 10
25.9245
 20
1.9855
 30
0.0
 10
25.8967
 20
2.0805
 30
0.0
 10
25.8417
 20
2.1652
 30
0.0
 10
25.8417
 20
2.1652
 30
0.0
 10
25.7867
 20
2.2499
 30
0.0
 10
25.7015
 20
2.2922
 30
0.0
 10
25.5868
 20
2.2922
 30
0.0
 10
25.5868
 20
2.2922
 30
0.0
 10
25.496
 20
2.2922
 30
0.0
 10
25.4203
 20
2.2611
 30
0.0
 10
25.361
 20
2.1995
 30
0.0
 10
25.361
 20
2.1995
 30
0.0
 10
25.3013
 20
2.1379
 30
0.0
 10
25.2711
 20
2.0584
 30
0.0
 10
25.2711
 20
1.961
 30
0.0
 10
25.2711
 20
1.961
 30
0.0
 10
25.2711
 20
1.8646
 30
0.0
 10
25.3017
 20
1.7842
 30
0.0
 10
25.3619
 20
1.7202
 30
0.0
 10
25.3619
 20
1.7202
 30
0.0
 10
25.4226
 20
1.6558
 30
0.0
 10
25.5139
 20
1.6144
 30
0.0
 10
25.6352
 20
1.596
 30
0.0
 10
25.6352
 20
1.596
 30
0.0
 10
25.6352
 20
1.596
 30
0.0
 10
25.591
 20
1.3482
 30
0.0
 10
25.591
 20
1.3482
 30
0.0
 10
25.591
 20
1.3482
 30
0.0
 10
25.4245
 20
1.3783
 30
0.0
 10
25.2956
 20
1.4474
 30
0.0
 10
25.2044
 20
1.5547
 30
0.0
 10
25.2044
 20
1.5547
 30
0.0
 10
25.1131
 20
1.6624
 30
0.0
 10
25.067
 20
1.796
 30
0.0
 10
25.067
 20
1.9559
 30
0.0
 10
25.067
 20
1.9559
 30
0.0
 10
25.067
 20
2.0659
 30
0.0
 10
25.091
 20
2.1675
 30
0.0
 10
25.138
 20
2.2602
 30
0.0
 10
25.138
 20
2.2602
 30
0.0
 10
25.1855
 20
2.3529
 30
0.0
 10
25.25
 20
2.4239
 30
0.0
 10
25.3318
 20
2.4733
 30
0.0
 10
25.3318
 20
2.4733
 30
0.0
 10
25.4137
 20
2.5222
 30
0.0
 10
25.5002
 20
2.5471
 30
0.0
 10
25.5924
 20
2.5471
 30
0.0
 10
25.5924
 20
2.5471
 30
0.0
 10
25.6794
 20
2.5471
 30
0.0
 10
25.7589
 20
2.5236
 30
0.0
 10
25.8309
 20
2.4766
 30
0.0
 10
25.8309
 20
2.4766
 30
0.0
 10
25.9024
 20
2.4295
 30
0.0
 10
25.9593
 20
2.3604
 30
0.0
 10
26.0016
 20
2.2687
 30
0.0
 10
26.0016
 20
2.2687
 30
0.0
 10
26.0289
 20
2.3881
 30
0.0
 10
26.0863
 20
2.4808
 30
0.0
 10
26.1733
 20
2.5471
 30
0.0
 10
26.1733
 20
2.5471
 30
0.0
 10
26.2599
 20
2.613
 30
0.0
 10
26.3685
 20
2.6459
 30
0.0
 10
26.4988
 20
2.6459
 30
0.0
 10
26.4988
 20
2.6459
 30
0.0
 10
26.6752
 20
2.6459
 30
0.0
 10
26.8248
 20
2.5819
 30
0.0
 10
26.9475
 20
2.4531
 30
0.0
 10
26.9475
 20
2.4531
 30
0.0
 10
27.0703
 20
2.3246
 30
0.0
 10
27.1314
 20
2.1619
 30
0.0
 10
27.1314
 20
1.9653
 30
0.0
 10
27.1314
 20
1.9653
 30
0.0
 10
27.1314
 20
1.788
 30
0.0
 10
27.0788
 20
1.6407
 30
0.0
 10
26.9729
 20
1.5236
 30
0.0
 10
26.9729
 20
1.5236
 30
0.0
 10
26.8676
 20
1.4065
 30
0.0
 10
26.7307
 20
1.3397
 30
0.0
 10
26.5623
 20
1.3232
 30
0.0
  0
SPLINE
  5
63
330
1F
100
AcDbEntity
  8
VRSTVA_1
 62
   250
100
AcDbSpline
210
0.0
220
0.0
230
1.0
 70
    11
 71
     3
 72
    20
 73
    16
 74
     0
 42
0.0000000001
 43
0.0000000001
 40
0.0
 40
0.0
 40
0.0
 40
0.0
 40
0.2
 40
0.2
 40
0.2
 40
0.2
 40
0.4
 40
0.4
 40
0.4
 40
0.4
 40
0.6
 40
0.6
 40
0.6
 40
0.6
 40
1.0
 40
1.0
 40
1.0
 40
1.0
 10
27.6337
 20
-18.0968
 30
0.0
 10
27.6337
 20
-18.0968
 30
0.0
 10
28.0424
 20
-15.2976
 30
0.0
 10
28.0424
 20
-15.2976
 30
0.0
 10
28.0424
 20
-15.2976
 30
0.0
 10
28.0424
 20
-15.2976
 30
0.0
 10
27.1402
 20
-15.2976
 30
0.0
 10
27.1402
 20
-15.2976
 30
0.0
 10
27.1402
 20
-15.2976
 30
0.0
 10
27.1402
 20
-15.2976
 30
0.0
 10
27.6324
 20
-18.0968
 30
0.0
 10
27.6324
 20
-18.0968
 30
0.0
 10
27.6324
 20
-18.0968
 30
0.0
 10
27.6324
 20
-18.0968
 30
0.0
 10
27.6337
 20
-18.0968
 30
0.0
 10
27.6337
 20
-18.0968
 30
0.0
  0
SPLINE
  5
64
330
1F
100
AcDbEntity
  8
VRSTVA_1
 62
   250
100
AcDbSpline
210
0.0
220
0.0
230
1.0
 70
    11
 71
     3
 72
    20
 73
    16
 74
     0
 42
0.0000000001
 43
0.0000000001
 40
0.0
 40
0.0
 40
0.0
 40
0.0
 40
0.2
 40
0.2
 40
0.2
 40
0.2
 40
0.4
 40
0.4
 40
0.4
 40
0.4
 40
0.6
 40
0.6
 40
0.6
 40
0.6
 40
1.0
 40
1.0
 40
1.0
 40
1.0
 10
27.5942
 20
19.7544
 30
0.0
 10
27.5942
 20
19.7544
 30
0.0
 10
27.1855
 20
16.9552
 30
0.0
 10
27.1855
 20
16.9552
 30
0.0
 10
27.1855
 20
16.9552
 30
0.0
 10
27.1855
 20
16.9552
 30
0.0
 10
28.0877
 20
16.9552
 30
0.0
 10
28.0877
 20
16.9552
 30
0.0
 10
28.0877
 20
16.9552
 30
0.0
 10
28.0877
 20
16.9552
 30
0.0
 10
27.5954
 20
19.7544
 30
0.0
 10
27.5954
 20
19.7544
 30
0.0
 10
27.5954
 20
19.7544
 30
0.0
 10
27.5954
 20
19.7544
 30
0.0
 10
27.5942
 20
19.7544
 30
0.0
 10
27.5942
 20
19.7544
 30
0.0
  0
SPLINE
  5
65
330
1F
100
AcDbEntity
  8
VRSTVA_1
 62
   250
100
AcDbSpline
210
0.0
220
0.0
230
1.0
 70
    24
 71
     3
 72
     8
 73
     4
 74
     0
 42
0.0000000001
 43
0.0000000001
 40
0.0
 40
0.0
 40
0.0
 40
0.0
 40
1.0
 40
1.0
 40
1.0
 40
1.0
 10
27.6029
 20
19.2463
 30
0.0
 10
27.6029
 20
19.2463
 30
0.0
 10
27.6029
 20
-16.832
 30
0.0
 10
27.6029
 20
-16.832
 30
0.0
  0
SPLINE
  5
66
330
1F
100
AcDbEntity
  8
VRSTVA_1
 62
   250
100
AcDbSpline
210
0.0
220
0.0
230
1.0
 70
    24
 71
     3
 72
     8
 73
     4
 74
     0
 42
0.0000000001
 43
0.0000000001
 40
0.0
 40
0.0
 40
0.0
 40
0.0
 40
1.0
 40
1.0
 40
1.0
 40
1.0
 10
28.3694
 20
-18.1737
 30
0.0
 10
28.3694
 20
-18.1737
 30
0.0
 10
-0.6649
 20
-18.1737
 30
0.0
 10
-0.6649
 20
-18.1737
 30
0.0
  0
SPLINE
  5
67
330
1F
100
AcDbEntity
  8
VRSTVA_1
 62
   250
100
AcDbSpline
210
0.0
220
0.0
230
1.0
 70
    24
 71
     3
 72
     8
 73
     4
 74
     0
 42
0.0000000001
 43
0.0000000001
 40
0.0
 40
0.0
 40
0.0
 40
0.0
 40
1.0
 40
1.0
 40
1.0
 40
1.0
 10
28.0509
 20
19.7893
 30
0.0
 10
28.0509
 20
19.7893
 30
0.0
 10
0.5857
 20
19.7893
 30
0.0
 10
0.5857
 20
19.7893
 30
0.0
  0
SPLINE
  5
68
330
1F
100
AcDbEntity
  8
VRSTVA_1
 62
   250
100
AcDbSpline
210
0.0
220
0.0
230
1.0
 70
    11
 71
     3
 72
    48
 73
    44
 74
     0
 42
0.0000000001
 43
0.0000000001
 40
0.0
 40
0.0
 40
0.0
 40
0.0
 40
0.0833333333333333
 40
0.0833333333333333
 40
0.0833333333333333
 40
0.0833333333333333
 40
0.1666666666666667
 40
0.1666666666666667
 40
0.1666666666666667
 40
0.1666666666666667
 40
0.25
 40
0.25
 40
0.25
 40
0.25
 40
0.3333333333333333
 40
0.3333333333333333
 40
0.3333333333333333
 40
0.3333333333333333
 40
0.4166666666666667
 40
0.4166666666666667
 40
0.4166666666666667
 40
0.4166666666666667
 40
0.5
 40
0.5
 40
0.5
 40
0.5
 40
0.5833333333333334
 40
0.5833333333333334
 40
0.5833333333333334
 40
0.5833333333333334
 40
0.6666666666666666
 40
0.6666666666666666
 40
0.6666666666666666
 40
0.6666666666666666
 40
0.75
 40
0.75
 40
0.75
 40
0.75
 40
0.8333333333333334
 40
0.8333333333333334
 40
0.8333333333333334
 40
0.8333333333333334
 40
1.0
 40
1.0
 40
1.0
 40
1.0
 10
31.9424
 20
-4.6613
 30
0.0
 10
31.9424
 20
-4.6613
 30
0.0
 10
31.4589
 20
-4.6613
 30
0.0
 10
31.4589
 20
-4.6613
 30
0.0
 10
31.4589
 20
-4.6613
 30
0.0
 10
31.4589
 20
-4.6613
 30
0.0
 10
31.4589
 20
-5.5376
 30
0.0
 10
31.4589
 20
-5.5376
 30
0.0
 10
31.4589
 20
-5.5376
 30
0.0
 10
31.4589
 20
-5.5376
 30
0.0
 10
31.2312
 20
-5.5376
 30
0.0
 10
31.2312
 20
-5.5376
 30
0.0
 10
31.2312
 20
-5.5376
 30
0.0
 10
31.2312
 20
-5.5376
 30
0.0
 10
29.9222
 20
-4.6156
 30
0.0
 10
29.9222
 20
-4.6156
 30
0.0
 10
29.9222
 20
-4.6156
 30
0.0
 10
29.9222
 20
-4.6156
 30
0.0
 10
29.9222
 20
-4.4129
 30
0.0
 10
29.9222
 20
-4.4129
 30
0.0
 10
29.9222
 20
-4.4129
 30
0.0
 10
29.9222
 20
-4.4129
 30
0.0
 10
31.2312
 20
-4.4129
 30
0.0
 10
31.2312
 20
-4.4129
 30
0.0
 10
31.2312
 20
-4.4129
 30
0.0
 10
31.2312
 20
-4.4129
 30
0.0
 10
31.2312
 20
-4.1401
 30
0.0
 10
31.2312
 20
-4.1401
 30
0.0
 10
31.2312
 20
-4.1401
 30
0.0
 10
31.2312
 20
-4.1401
 30
0.0
 10
31.4589
 20
-4.1401
 30
0.0
 10
31.4589
 20
-4.1401
 30
0.0
 10
31.4589
 20
-4.1401
 30
0.0
 10
31.4589
 20
-4.1401
 30
0.0
 10
31.4589
 20
-4.4129
 30
0.0
 10
31.4589
 20
-4.4129
 30
0.0
 10
31.4589
 20
-4.4129
 30
0.0
 10
31.4589
 20
-4.4129
 30
0.0
 10
31.9424
 20
-4.4129
 30
0.0
 10
31.9424
 20
-4.4129
 30
0.0
 10
31.9424
 20
-4.4129
 30
0.0
 10
31.9424
 20
-4.4129
 30
0.0
 10
31.9424
 20
-4.6613
 30
0.0
 10
31.9424
 20
-4.6613
 30
0.0
  0
SPLINE
  5
69
330
1F
100
AcDbEntity
  8
VRSTVA_1
 62
   250
100
AcDbSpline
210
0.0
220
0.0
230
1.0
 70
    11
 71
     3
 72
    16
 73
    12
 74
     0
 42
0.0000000001
 43
0.0000000001
 40
0.0
 40
0.0
 40
0.0
 40
0.0
 40
0.25
 40
0.25
 40
0.25
 40
0.25
 40
0.5
 40
0.5
 40
0.5
 40
0.5
 40
1.0
 40
1.0
 40
1.0
 40
1.0
 10
31.2312
 20
-4.6613
 30
0.0
 10
31.2312
 20
-4.6613
 30
0.0
 10
30.3206
 20
-4.6613
 30
0.0
 10
30.3206
 20
-4.6613
 30
0.0
 10
30.3206
 20
-4.6613
 30
0.0
 10
30.3206
 20
-4.6613
 30
0.0
 10
31.2312
 20
-5.2934
 30
0.0
 10
31.2312
 20
-5.2934
 30
0.0
 10
31.2312
 20
-5.2934
 30
0.0
 10
31.2312
 20
-5.2934
 30
0.0
 10
31.2312
 20
-4.6613
 30
0.0
 10
31.2312
 20
-4.6613
 30
0.0
  0
SPLINE
  5
6A
330
1F
100
AcDbEntity
  8
VRSTVA_1
 62
   250
100
AcDbSpline
210
0.0
220
0.0
230
1.0
 70
    11
 71
     3
 72
    92
 73
    88
 74
     0
 42
0.0000000001
 43
0.0000000001
 40
0.0
 40
0.0
 40
0.0
 40
0.0
 40
0.0434782608695652
 40
0.0434782608695652
 40
0.0434782608695652
 40
0.0434782608695652
 40
0.0869565217391304
 40
0.0869565217391304
 40
0.0869565217391304
 40
0.0869565217391304
 40
0.1304347826086956
 40
0.1304347826086956
 40
0.1304347826086956
 40
0.1304347826086956
 40
0.1739130434782609
 40
0.1739130434782609
 40
0.1739130434782609
 40
0.1739130434782609
 40
0.2173913043478261
 40
0.2173913043478261
 40
0.2173913043478261
 40
0.2173913043478261
 40
0.2608695652173913
 40
0.2608695652173913
 40
0.2608695652173913
 40
0.2608695652173913
 40
0.3043478260869565
 40
0.3043478260869565
 40
0.3043478260869565
 40
0.3043478260869565
 40
0.3478260869565217
 40
0.3478260869565217
 40
0.3478260869565217
 40
0.3478260869565217
 40
0.391304347826087
 40
0.391304347826087
 40
0.391304347826087
 40
0.391304347826087
 40
0.4347826086956522
 40
0.4347826086956522
 40
0.4347826086956522
 40
0.4347826086956522
 40
0.4782608695652174
 40
0.4782608695652174
 40
0.4782608695652174
 40
0.4782608695652174
 40
0.5217391304347826
 40
0.5217391304347826
 40
0.5217391304347826
 40
0.5217391304347826
 40
0.5652173913043478
 40
0.5652173913043478
 40
0.5652173913043478
 40
0.5652173913043478
 40
0.6086956521739131
 40
0.6086956521739131
 40
0.6086956521739131
 40
0.6086956521739131
 40
0.6521739130434783
 40
0.6521739130434783
 40
0.6521739130434783
 40
0.6521739130434783
 40
0.6956521739130435
 40
0.6956521739130435
 40
0.6956521739130435
 40
0.6956521739130435
 40
0.7391304347826086
 40
0.7391304347826086
 40
0.7391304347826086
 40
0.7391304347826086
 40
0.782608695652174
 40
0.782608695652174
 40
0.782608695652174
 40
0.782608695652174
 40
0.8260869565217391
 40
0.8260869565217391
 40
0.8260869565217391
 40
0.8260869565217391
 40
0.8695652173913043
 40
0.8695652173913043
 40
0.8695652173913043
 40
0.8695652173913043
 40
0.9130434782608695
 40
0.9130434782608695
 40
0.9130434782608695
 40
0.9130434782608695
 40
1.0
 40
1.0
 40
1.0
 40
1.0
 10
31.4132
 20
-3.8866
 30
0.0
 10
31.4132
 20
-3.8866
 30
0.0
 10
31.3911
 20
-3.626
 30
0.0
 10
31.3911
 20
-3.626
 30
0.0
 10
31.3911
 20
-3.626
 30
0.0
 10
31.5181
 20
-3.6067
 30
0.0
 10
31.6131
 20
-3.562
 30
0.0
 10
31.6771
 20
-3.4919
 30
0.0
 10
31.6771
 20
-3.4919
 30
0.0
 10
31.7411
 20
-3.4214
 30
0.0
 10
31.7731
 20
-3.3367
 30
0.0
 10
31.7731
 20
-3.2375
 30
0.0
 10
31.7731
 20
-3.2375
 30
0.0
 10
31.7731
 20
-3.118
 30
0.0
 10
31.7279
 20
-3.0169
 30
0.0
 10
31.6381
 20
-2.9346
 30
0.0
 10
31.6381
 20
-2.9346
 30
0.0
 10
31.5478
 20
-2.8518
 30
0.0
 10
31.4283
 20
-2.8104
 30
0.0
 10
31.2797
 20
-2.8104
 30
0.0
 10
31.2797
 20
-2.8104
 30
0.0
 10
31.1381
 20
-2.8104
 30
0.0
 10
31.0266
 20
-2.8499
 30
0.0
 10
30.9448
 20
-2.9294
 30
0.0
 10
30.9448
 20
-2.9294
 30
0.0
 10
30.8629
 20
-3.0089
 30
0.0
 10
30.822
 20
-3.1128
 30
0.0
 10
30.822
 20
-3.2417
 30
0.0
 10
30.822
 20
-3.2417
 30
0.0
 10
30.822
 20
-3.3217
 30
0.0
 10
30.8403
 20
-3.3936
 30
0.0
 10
30.8765
 20
-3.4581
 30
0.0
 10
30.8765
 20
-3.4581
 30
0.0
 10
30.9128
 20
-3.5225
 30
0.0
 10
30.9598
 20
-3.5728
 30
0.0
 10
31.0177
 20
-3.6095
 30
0.0
 10
31.0177
 20
-3.6095
 30
0.0
 10
31.0177
 20
-3.6095
 30
0.0
 10
30.9876
 20
-3.8424
 30
0.0
 10
30.9876
 20
-3.8424
 30
0.0
 10
30.9876
 20
-3.8424
 30
0.0
 10
30.9876
 20
-3.8424
 30
0.0
 10
29.9499
 20
-3.6467
 30
0.0
 10
29.9499
 20
-3.6467
 30
0.0
 10
29.9499
 20
-3.6467
 30
0.0
 10
29.9499
 20
-3.6467
 30
0.0
 10
29.9499
 20
-2.642
 30
0.0
 10
29.9499
 20
-2.642
 30
0.0
 10
29.9499
 20
-2.642
 30
0.0
 10
29.9499
 20
-2.642
 30
0.0
 10
30.187
 20
-2.642
 30
0.0
 10
30.187
 20
-2.642
 30
0.0
 10
30.187
 20
-2.642
 30
0.0
 10
30.187
 20
-2.642
 30
0.0
 10
30.187
 20
-3.4482
 30
0.0
 10
30.187
 20
-3.4482
 30
0.0
 10
30.187
 20
-3.4482
 30
0.0
 10
30.187
 20
-3.4482
 30
0.0
 10
30.7298
 20
-3.5573
 30
0.0
 10
30.7298
 20
-3.5573
 30
0.0
 10
30.7298
 20
-3.5573
 30
0.0
 10
30.6451
 20
-3.436
 30
0.0
 10
30.6028
 20
-3.3085
 30
0.0
 10
30.6028
 20
-3.1754
 30
0.0
 10
30.6028
 20
-3.1754
 30
0.0
 10
30.6028
 20
-2.999
 30
0.0
 10
30.6639
 20
-2.8504
 30
0.0
 10
30.7862
 20
-2.729
 30
0.0
 10
30.7862
 20
-2.729
 30
0.0
 10
30.9085
 20
-2.6077
 30
0.0
 10
31.0656
 20
-2.547
 30
0.0
 10
31.2575
 20
-2.547
 30
0.0
 10
31.2575
 20
-2.547
 30
0.0
 10
31.4405
 20
-2.547
 30
0.0
 10
31.5986
 20
-2.6006
 30
0.0
 10
31.7317
 20
-2.7069
 30
0.0
 10
31.7317
 20
-2.7069
 30
0.0
 10
31.8949
 20
-2.8367
 30
0.0
 10
31.9767
 20
-3.0136
 30
0.0
 10
31.9767
 20
-3.2375
 30
0.0
 10
31.9767
 20
-3.2375
 30
0.0
 10
31.9767
 20
-3.4214
 30
0.0
 10
31.9255
 20
-3.5714
 30
0.0
 10
31.8225
 20
-3.6876
 30
0.0
 10
31.8225
 20
-3.6876
 30
0.0
 10
31.7194
 20
-3.8038
 30
0.0
 10
31.583
 20
-3.8701
 30
0.0
 10
31.4132
 20
-3.8866
 30
0.0
  0
SPLINE
  5
6B
330
1F
100
AcDbEntity
  8
VRSTVA_1
 62
   250
100
AcDbSpline
210
0.0
220
0.0
230
1.0
 70
    11
 71
     3
 72
    52
 73
    48
 74
     0
 42
0.0000000001
 43
0.0000000001
 40
0.0
 40
0.0
 40
0.0
 40
0.0
 40
0.0769230769230769
 40
0.0769230769230769
 40
0.0769230769230769
 40
0.0769230769230769
 40
0.1538461538461539
 40
0.1538461538461539
 40
0.1538461538461539
 40
0.1538461538461539
 40
0.2307692307692308
 40
0.2307692307692308
 40
0.2307692307692308
 40
0.2307692307692308
 40
0.3076923076923077
 40
0.3076923076923077
 40
0.3076923076923077
 40
0.3076923076923077
 40
0.3846153846153846
 40
0.3846153846153846
 40
0.3846153846153846
 40
0.3846153846153846
 40
0.4615384615384616
 40
0.4615384615384616
 40
0.4615384615384616
 40
0.4615384615384616
 40
0.5384615384615384
 40
0.5384615384615384
 40
0.5384615384615384
 40
0.5384615384615384
 40
0.6153846153846154
 40
0.6153846153846154
 40
0.6153846153846154
 40
0.6153846153846154
 40
0.6923076923076923
 40
0.6923076923076923
 40
0.6923076923076923
 40
0.6923076923076923
 40
0.7692307692307693
 40
0.7692307692307693
 40
0.7692307692307693
 40
0.7692307692307693
 40
0.8461538461538461
 40
0.8461538461538461
 40
0.8461538461538461
 40
0.8461538461538461
 40
1.0
 40
1.0
 40
1.0
 40
1.0
 10
30.9462
 20
-2.317
 30
0.0
 10
30.7072
 20
-2.317
 30
0.0
 10
30.5148
 20
-2.2925
 30
0.0
 10
30.3695
 20
-2.2431
 30
0.0
 10
30.3695
 20
-2.2431
 30
0.0
 10
30.2237
 20
-2.1942
 30
0.0
 10
30.1113
 20
-2.1208
 30
0.0
 10
30.0322
 20
-2.0239
 30
0.0
 10
30.0322
 20
-2.0239
 30
0.0
 10
29.9532
 20
-1.927
 30
0.0
 10
29.9137
 20
-1.8052
 30
0.0
 10
29.9137
 20
-1.6585
 30
0.0
 10
29.9137
 20
-1.6585
 30
0.0
 10
29.9137
 20
-1.5498
 30
0.0
 10
29.9358
 20
-1.4548
 30
0.0
 10
29.9796
 20
-1.373
 30
0.0
 10
29.9796
 20
-1.373
 30
0.0
 10
30.0228
 20
-1.2911
 30
0.0
 10
30.0859
 20
-1.2238
 30
0.0
 10
30.1682
 20
-1.1702
 30
0.0
 10
30.1682
 20
-1.1702
 30
0.0
 10
30.2505
 20
-1.1171
 30
0.0
 10
30.3507
 20
-1.0752
 30
0.0
 10
30.4687
 20
-1.0451
 30
0.0
 10
30.4687
 20
-1.0451
 30
0.0
 10
30.5868
 20
-1.0145
 30
0.0
 10
30.7458
 20
-0.9995
 30
0.0
 10
30.9462
 20
-0.9995
 30
0.0
 10
30.9462
 20
-0.9995
 30
0.0
 10
31.1832
 20
-0.9995
 30
0.0
 10
31.3742
 20
-1.0239
 30
0.0
 10
31.52
 20
-1.0724
 30
0.0
 10
31.52
 20
-1.0724
 30
0.0
 10
31.6658
 20
-1.1213
 30
0.0
 10
31.7782
 20
-1.1942
 30
0.0
 10
31.8577
 20
-1.2911
 30
0.0
 10
31.8577
 20
-1.2911
 30
0.0
 10
31.9372
 20
-1.388
 30
0.0
 10
31.9767
 20
-1.5103
 30
0.0
 10
31.9767
 20
-1.6585
 30
0.0
 10
31.9767
 20
-1.6585
 30
0.0
 10
31.9767
 20
-1.8532
 30
0.0
 10
31.9071
 20
-2.0061
 30
0.0
 10
31.7674
 20
-2.1171
 30
0.0
 10
31.7674
 20
-2.1171
 30
0.0
 10
31.5995
 20
-2.2502
 30
0.0
 10
31.3253
 20
-2.317
 30
0.0
 10
30.9462
 20
-2.317
 30
0.0
  0
SPLINE
  5
6C
330
1F
100
AcDbEntity
  8
VRSTVA_1
 62
   250
100
AcDbSpline
210
0.0
220
0.0
230
1.0
 70
    11
 71
     3
 72
    36
 73
    32
 74
     0
 42
0.0000000001
 43
0.0000000001
 40
0.0
 40
0.0
 40
0.0
 40
0.0
 40
0.1111111111111111
 40
0.1111111111111111
 40
0.1111111111111111
 40
0.1111111111111111
 40
0.2222222222222222
 40
0.2222222222222222
 40
0.2222222222222222
 40
0.2222222222222222
 40
0.3333333333333333
 40
0.3333333333333333
 40
0.3333333333333333
 40
0.3333333333333333
 40
0.4444444444444444
 40
0.4444444444444444
 40
0.4444444444444444
 40
0.4444444444444444
 40
0.5555555555555556
 40
0.5555555555555556
 40
0.5555555555555556
 40
0.5555555555555556
 40
0.6666666666666666
 40
0.6666666666666666
 40
0.6666666666666666
 40
0.6666666666666666
 40
0.7777777777777778
 40
0.7777777777777778
 40
0.7777777777777778
 40
0.7777777777777778
 40
1.0
 40
1.0
 40
1.0
 40
1.0
 10
30.9462
 20
-2.062
 30
0.0
 10
31.2778
 20
-2.062
 30
0.0
 10
31.4984
 20
-2.023
 30
0.0
 10
31.6084
 20
-1.9454
 30
0.0
 10
31.6084
 20
-1.9454
 30
0.0
 10
31.718
 20
-1.8678
 30
0.0
 10
31.7731
 20
-1.7723
 30
0.0
 10
31.7731
 20
-1.6585
 30
0.0
 10
31.7731
 20
-1.6585
 30
0.0
 10
31.7731
 20
-1.5442
 30
0.0
 10
31.7176
 20
-1.4487
 30
0.0
 10
31.6075
 20
-1.3711
 30
0.0
 10
31.6075
 20
-1.3711
 30
0.0
 10
31.4974
 20
-1.2935
 30
0.0
 10
31.2768
 20
-1.2544
 30
0.0
 10
30.9462
 20
-1.2544
 30
0.0
 10
30.9462
 20
-1.2544
 30
0.0
 10
30.6136
 20
-1.2544
 30
0.0
 10
30.3925
 20
-1.2935
 30
0.0
 10
30.2834
 20
-1.3711
 30
0.0
 10
30.2834
 20
-1.3711
 30
0.0
 10
30.1738
 20
-1.4487
 30
0.0
 10
30.1193
 20
-1.5451
 30
0.0
 10
30.1193
 20
-1.6608
 30
0.0
 10
30.1193
 20
-1.6608
 30
0.0
 10
30.1193
 20
-1.7751
 30
0.0
 10
30.1677
 20
-1.8659
 30
0.0
 10
30.2641
 20
-1.9341
 30
0.0
 10
30.2641
 20
-1.9341
 30
0.0
 10
30.3869
 20
-2.0192
 30
0.0
 10
30.6146
 20
-2.062
 30
0.0
 10
30.9462
 20
-2.062
 30
0.0
  0
SPLINE
  5
6D
330
1F
100
AcDbEntity
  8
VRSTVA_1
 62
   250
100
AcDbSpline
210
0.0
220
0.0
230
1.0
 70
    11
 71
     3
 72
    52
 73
    48
 74
     0
 42
0.0000000001
 43
0.0000000001
 40
0.0
 40
0.0
 40
0.0
 40
0.0
 40
0.0769230769230769
 40
0.0769230769230769
 40
0.0769230769230769
 40
0.0769230769230769
 40
0.1538461538461539
 40
0.1538461538461539
 40
0.1538461538461539
 40
0.1538461538461539
 40
0.2307692307692308
 40
0.2307692307692308
 40
0.2307692307692308
 40
0.2307692307692308
 40
0.3076923076923077
 40
0.3076923076923077
 40
0.3076923076923077
 40
0.3076923076923077
 40
0.3846153846153846
 40
0.3846153846153846
 40
0.3846153846153846
 40
0.3846153846153846
 40
0.4615384615384616
 40
0.4615384615384616
 40
0.4615384615384616
 40
0.4615384615384616
 40
0.5384615384615384
 40
0.5384615384615384
 40
0.5384615384615384
 40
0.5384615384615384
 40
0.6153846153846154
 40
0.6153846153846154
 40
0.6153846153846154
 40
0.6153846153846154
 40
0.6923076923076923
 40
0.6923076923076923
 40
0.6923076923076923
 40
0.6923076923076923
 40
0.7692307692307693
 40
0.7692307692307693
 40
0.7692307692307693
 40
0.7692307692307693
 40
0.8461538461538461
 40
0.8461538461538461
 40
0.8461538461538461
 40
0.8461538461538461
 40
1.0
 40
1.0
 40
1.0
 40
1.0
 10
31.584
 20
0.5767
 30
0.0
 10
31.584
 20
0.5767
 30
0.0
 10
31.0289
 20
0.5767
 30
0.0
 10
31.0289
 20
0.5767
 30
0.0
 10
31.0289
 20
0.5767
 30
0.0
 10
31.0289
 20
0.5767
 30
0.0
 10
31.0289
 20
0.0273
 30
0.0
 10
31.0289
 20
0.0273
 30
0.0
 10
31.0289
 20
0.0273
 30
0.0
 10
31.0289
 20
0.0273
 30
0.0
 10
30.7985
 20
0.0273
 30
0.0
 10
30.7985
 20
0.0273
 30
0.0
 10
30.7985
 20
0.0273
 30
0.0
 10
30.7985
 20
0.0273
 30
0.0
 10
30.7985
 20
0.5767
 30
0.0
 10
30.7985
 20
0.5767
 30
0.0
 10
30.7985
 20
0.5767
 30
0.0
 10
30.7985
 20
0.5767
 30
0.0
 10
30.2486
 20
0.5767
 30
0.0
 10
30.2486
 20
0.5767
 30
0.0
 10
30.2486
 20
0.5767
 30
0.0
 10
30.2486
 20
0.5767
 30
0.0
 10
30.2486
 20
0.8114
 30
0.0
 10
30.2486
 20
0.8114
 30
0.0
 10
30.2486
 20
0.8114
 30
0.0
 10
30.2486
 20
0.8114
 30
0.0
 10
30.7985
 20
0.8114
 30
0.0
 10
30.7985
 20
0.8114
 30
0.0
 10
30.7985
 20
0.8114
 30
0.0
 10
30.7985
 20
0.8114
 30
0.0
 10
30.7985
 20
1.3608
 30
0.0
 10
30.7985
 20
1.3608
 30
0.0
 10
30.7985
 20
1.3608
 30
0.0
 10
30.7985
 20
1.3608
 30
0.0
 10
31.0289
 20
1.3608
 30
0.0
 10
31.0289
 20
1.3608
 30
0.0
 10
31.0289
 20
1.3608
 30
0.0
 10
31.0289
 20
1.3608
 30
0.0
 10
31.0289
 20
0.8114
 30
0.0
 10
31.0289
 20
0.8114
 30
0.0
 10
31.0289
 20
0.8114
 30
0.0
 10
31.0289
 20
0.8114
 30
0.0
 10
31.584
 20
0.8114
 30
0.0
 10
31.584
 20
0.8114
 30
0.0
 10
31.584
 20
0.8114
 30
0.0
 10
31.584
 20
0.8114
 30
0.0
 10
31.584
 20
0.5767
 30
0.0
 10
31.584
 20
0.5767
 30
0.0
  0
SPLINE
  5
6E
330
1F
100
AcDbEntity
  8
VRSTVA_1
 62
   250
100
AcDbSpline
210
0.0
220
0.0
230
1.0
 70
    11
 71
     3
 72
    20
 73
    16
 74
     0
 42
0.0000000001
 43
0.0000000001
 40
0.0
 40
0.0
 40
0.0
 40
0.0
 40
0.2
 40
0.2
 40
0.2
 40
0.2
 40
0.4
 40
0.4
 40
0.4
 40
0.4
 40
0.6
 40
0.6
 40
0.6
 40
0.6
 40
1.0
 40
1.0
 40
1.0
 40
1.0
 10
31.9424
 20
1.3608
 30
0.0
 10
31.9424
 20
1.3608
 30
0.0
 10
31.9424
 20
0.0273
 30
0.0
 10
31.9424
 20
0.0273
 30
0.0
 10
31.9424
 20
0.0273
 30
0.0
 10
31.9424
 20
0.0273
 30
0.0
 10
31.711
 20
0.0273
 30
0.0
 10
31.711
 20
0.0273
 30
0.0
 10
31.711
 20
0.0273
 30
0.0
 10
31.711
 20
0.0273
 30
0.0
 10
31.711
 20
1.3608
 30
0.0
 10
31.711
 20
1.3608
 30
0.0
 10
31.711
 20
1.3608
 30
0.0
 10
31.711
 20
1.3608
 30
0.0
 10
31.9424
 20
1.3608
 30
0.0
 10
31.9424
 20
1.3608
 30
0.0
  0
SPLINE
  5
6F
330
1F
100
AcDbEntity
  8
VRSTVA_1
 62
   250
100
AcDbSpline
210
0.0
220
0.0
230
1.0
 70
    11
 71
     3
 72
    92
 73
    88
 74
     0
 42
0.0000000001
 43
0.0000000001
 40
0.0
 40
0.0
 40
0.0
 40
0.0
 40
0.0434782608695652
 40
0.0434782608695652
 40
0.0434782608695652
 40
0.0434782608695652
 40
0.0869565217391304
 40
0.0869565217391304
 40
0.0869565217391304
 40
0.0869565217391304
 40
0.1304347826086956
 40
0.1304347826086956
 40
0.1304347826086956
 40
0.1304347826086956
 40
0.1739130434782609
 40
0.1739130434782609
 40
0.1739130434782609
 40
0.1739130434782609
 40
0.2173913043478261
 40
0.2173913043478261
 40
0.2173913043478261
 40
0.2173913043478261
 40
0.2608695652173913
 40
0.2608695652173913
 40
0.2608695652173913
 40
0.2608695652173913
 40
0.3043478260869565
 40
0.3043478260869565
 40
0.3043478260869565
 40
0.3043478260869565
 40
0.3478260869565217
 40
0.3478260869565217
 40
0.3478260869565217
 40
0.3478260869565217
 40
0.391304347826087
 40
0.391304347826087
 40
0.391304347826087
 40
0.391304347826087
 40
0.4347826086956522
 40
0.4347826086956522
 40
0.4347826086956522
 40
0.4347826086956522
 40
0.4782608695652174
 40
0.4782608695652174
 40
0.4782608695652174
 40
0.4782608695652174
 40
0.5217391304347826
 40
0.5217391304347826
 40
0.5217391304347826
 40
0.5217391304347826
 40
0.5652173913043478
 40
0.5652173913043478
 40
0.5652173913043478
 40
0.5652173913043478
 40
0.6086956521739131
 40
0.6086956521739131
 40
0.6086956521739131
 40
0.6086956521739131
 40
0.6521739130434783
 40
0.6521739130434783
 40
0.6521739130434783
 40
0.6521739130434783
 40
0.6956521739130435
 40
0.6956521739130435
 40
0.6956521739130435
 40
0.6956521739130435
 40
0.7391304347826086
 40
0.7391304347826086
 40
0.7391304347826086
 40
0.7391304347826086
 40
0.782608695652174
 40
0.782608695652174
 40
0.782608695652174
 40
0.782608695652174
 40
0.8260869565217391
 40
0.8260869565217391
 40
0.8260869565217391
 40
0.8260869565217391
 40
0.8695652173913043
 40
0.8695652173913043
 40
0.8695652173913043
 40
0.8695652173913043
 40
0.9130434782608695
 40
0.9130434782608695
 40
0.9130434782608695
 40
0.9130434782608695
 40
1.0
 40
1.0
 40
1.0
 40
1.0
 10
31.7039
 20
2.8895
 30
0.0
 10
31.7039
 20
2.8895
 30
0.0
 10
31.9424
 20
2.8895
 30
0.0
 10
31.9424
 20
2.8895
 30
0.0
 10
31.9424
 20
2.8895
 30
0.0
 10
31.9424
 20
2.8895
 30
0.0
 10
31.9424
 20
1.5541
 30
0.0
 10
31.9424
 20
1.5541
 30
0.0
 10
31.9424
 20
1.5541
 30
0.0
 10
31.8827
 20
1.5522
 30
0.0
 10
31.8253
 20
1.5616
 30
0.0
 10
31.7702
 20
1.5828
 30
0.0
 10
31.7702
 20
1.5828
 30
0.0
 10
31.679
 20
1.6167
 30
0.0
 10
31.5896
 20
1.6712
 30
0.0
 10
31.5012
 20
1.746
 30
0.0
 10
31.5012
 20
1.746
 30
0.0
 10
31.4132
 20
1.8213
 30
0.0
 10
31.3112
 20
1.9295
 30
0.0
 10
31.1955
 20
2.0706
 30
0.0
 10
31.1955
 20
2.0706
 30
0.0
 10
31.0153
 20
2.2902
 30
0.0
 10
30.8728
 20
2.4389
 30
0.0
 10
30.7674
 20
2.516
 30
0.0
 10
30.7674
 20
2.516
 30
0.0
 10
30.6625
 20
2.5931
 30
0.0
 10
30.5628
 20
2.6317
 30
0.0
 10
30.4692
 20
2.6317
 30
0.0
 10
30.4692
 20
2.6317
 30
0.0
 10
30.3709
 20
2.6317
 30
0.0
 10
30.2881
 20
2.5964
 30
0.0
 10
30.2204
 20
2.5264
 30
0.0
 10
30.2204
 20
2.5264
 30
0.0
 10
30.1531
 20
2.4558
 30
0.0
 10
30.1193
 20
2.3641
 30
0.0
 10
30.1193
 20
2.2512
 30
0.0
 10
30.1193
 20
2.2512
 30
0.0
 10
30.1193
 20
2.1317
 30
0.0
 10
30.155
 20
2.0362
 30
0.0
 10
30.227
 20
1.9647
 30
0.0
 10
30.227
 20
1.9647
 30
0.0
 10
30.2985
 20
1.8928
 30
0.0
 10
30.3977
 20
1.8566
 30
0.0
 10
30.5242
 20
1.8556
 30
0.0
 10
30.5242
 20
1.8556
 30
0.0
 10
30.5242
 20
1.8556
 30
0.0
 10
30.4984
 20
1.6007
 30
0.0
 10
30.4984
 20
1.6007
 30
0.0
 10
30.4984
 20
1.6007
 30
0.0
 10
30.3079
 20
1.6181
 30
0.0
 10
30.163
 20
1.6839
 30
0.0
 10
30.0633
 20
1.7978
 30
0.0
 10
30.0633
 20
1.7978
 30
0.0
 10
29.9636
 20
1.9116
 30
0.0
 10
29.9137
 20
2.0649
 30
0.0
 10
29.9137
 20
2.2568
 30
0.0
 10
29.9137
 20
2.2568
 30
0.0
 10
29.9137
 20
2.4506
 30
0.0
 10
29.9678
 20
2.604
 30
0.0
 10
30.075
 20
2.7169
 30
0.0
 10
30.075
 20
2.7169
 30
0.0
 10
30.1828
 20
2.8302
 30
0.0
 10
30.3159
 20
2.8867
 30
0.0
 10
30.4749
 20
2.8867
 30
0.0
 10
30.4749
 20
2.8867
 30
0.0
 10
30.5558
 20
2.8867
 30
0.0
 10
30.6353
 20
2.8702
 30
0.0
 10
30.7133
 20
2.8368
 30
0.0
 10
30.7133
 20
2.8368
 30
0.0
 10
30.7914
 20
2.8039
 30
0.0
 10
30.8737
 20
2.7488
 30
0.0
 10
30.9598
 20
2.6722
 30
0.0
 10
30.9598
 20
2.6722
 30
0.0
 10
31.0464
 20
2.5955
 30
0.0
 10
31.1649
 20
2.468
 30
0.0
 10
31.3154
 20
2.2898
 30
0.0
 10
31.3154
 20
2.2898
 30
0.0
 10
31.4405
 20
2.1411
 30
0.0
 10
31.5252
 20
2.0456
 30
0.0
 10
31.5699
 20
2.0033
 30
0.0
 10
31.5699
 20
2.0033
 30
0.0
 10
31.6141
 20
1.961
 30
0.0
 10
31.6588
 20
1.9262
 30
0.0
 10
31.7039
 20
1.8984
 30
0.0
 10
31.7039
 20
1.8984
 30
0.0
 10
31.7039
 20
1.8984
 30
0.0
 10
31.7039
 20
2.8895
 30
0.0
 10
31.7039
 20
2.8895
 30
0.0
  0
SPLINE
  5
70
330
1F
100
AcDbEntity
  8
VRSTVA_1
 62
   250
100
AcDbSpline
210
0.0
220
0.0
230
1.0
 70
    11
 71
     3
 72
    52
 73
    48
 74
     0
 42
0.0000000001
 43
0.0000000001
 40
0.0
 40
0.0
 40
0.0
 40
0.0
 40
0.0769230769230769
 40
0.0769230769230769
 40
0.0769230769230769
 40
0.0769230769230769
 40
0.1538461538461539
 40
0.1538461538461539
 40
0.1538461538461539
 40
0.1538461538461539
 40
0.2307692307692308
 40
0.2307692307692308
 40
0.2307692307692308
 40
0.2307692307692308
 40
0.3076923076923077
 40
0.3076923076923077
 40
0.3076923076923077
 40
0.3076923076923077
 40
0.3846153846153846
 40
0.3846153846153846
 40
0.3846153846153846
 40
0.3846153846153846
 40
0.4615384615384616
 40
0.4615384615384616
 40
0.4615384615384616
 40
0.4615384615384616
 40
0.5384615384615384
 40
0.5384615384615384
 40
0.5384615384615384
 40
0.5384615384615384
 40
0.6153846153846154
 40
0.6153846153846154
 40
0.6153846153846154
 40
0.6153846153846154
 40
0.6923076923076923
 40
0.6923076923076923
 40
0.6923076923076923
 40
0.6923076923076923
 40
0.7692307692307693
 40
0.7692307692307693
 40
0.7692307692307693
 40
0.7692307692307693
 40
0.8461538461538461
 40
0.8461538461538461
 40
0.8461538461538461
 40
0.8461538461538461
 40
1.0
 40
1.0
 40
1.0
 40
1.0
 10
30.9462
 20
3.1552
 30
0.0
 10
30.7072
 20
3.1552
 30
0.0
 10
30.5148
 20
3.1797
 30
0.0
 10
30.3695
 20
3.2291
 30
0.0
 10
30.3695
 20
3.2291
 30
0.0
 10
30.2237
 20
3.278
 30
0.0
 10
30.1113
 20
3.3514
 30
0.0
 10
30.0322
 20
3.4483
 30
0.0
 10
30.0322
 20
3.4483
 30
0.0
 10
29.9532
 20
3.5452
 30
0.0
 10
29.9137
 20
3.667
 30
0.0
 10
29.9137
 20
3.8137
 30
0.0
 10
29.9137
 20
3.8137
 30
0.0
 10
29.9137
 20
3.9224
 30
0.0
 10
29.9358
 20
4.0174
 30
0.0
 10
29.9796
 20
4.0992
 30
0.0
 10
29.9796
 20
4.0992
 30
0.0
 10
30.0228
 20
4.1811
 30
0.0
 10
30.0859
 20
4.2484
 30
0.0
 10
30.1682
 20
4.302
 30
0.0
 10
30.1682
 20
4.302
 30
0.0
 10
30.2505
 20
4.3551
 30
0.0
 10
30.3507
 20
4.397
 30
0.0
 10
30.4687
 20
4.4271
 30
0.0
 10
30.4687
 20
4.4271
 30
0.0
 10
30.5868
 20
4.4577
 30
0.0
 10
30.7458
 20
4.4727
 30
0.0
 10
30.9462
 20
4.4727
 30
0.0
 10
30.9462
 20
4.4727
 30
0.0
 10
31.1832
 20
4.4727
 30
0.0
 10
31.3742
 20
4.4483
 30
0.0
 10
31.52
 20
4.3998
 30
0.0
 10
31.52
 20
4.3998
 30
0.0
 10
31.6658
 20
4.3509
 30
0.0
 10
31.7782
 20
4.278
 30
0.0
 10
31.8577
 20
4.1811
 30
0.0
 10
31.8577
 20
4.1811
 30
0.0
 10
31.9372
 20
4.0842
 30
0.0
 10
31.9767
 20
3.9619
 30
0.0
 10
31.9767
 20
3.8137
 30
0.0
 10
31.9767
 20
3.8137
 30
0.0
 10
31.9767
 20
3.619
 30
0.0
 10
31.9071
 20
3.4661
 30
0.0
 10
31.7674
 20
3.3551
 30
0.0
 10
31.7674
 20
3.3551
 30
0.0
 10
31.5995
 20
3.222
 30
0.0
 10
31.3253
 20
3.1552
 30
0.0
 10
30.9462
 20
3.1552
 30
0.0
  0
SPLINE
  5
71
330
1F
100
AcDbEntity
  8
VRSTVA_1
 62
   250
100
AcDbSpline
210
0.0
220
0.0
230
1.0
 70
    11
 71
     3
 72
    36
 73
    32
 74
     0
 42
0.0000000001
 43
0.0000000001
 40
0.0
 40
0.0
 40
0.0
 40
0.0
 40
0.1111111111111111
 40
0.1111111111111111
 40
0.1111111111111111
 40
0.1111111111111111
 40
0.2222222222222222
 40
0.2222222222222222
 40
0.2222222222222222
 40
0.2222222222222222
 40
0.3333333333333333
 40
0.3333333333333333
 40
0.3333333333333333
 40
0.3333333333333333
 40
0.4444444444444444
 40
0.4444444444444444
 40
0.4444444444444444
 40
0.4444444444444444
 40
0.5555555555555556
 40
0.5555555555555556
 40
0.5555555555555556
 40
0.5555555555555556
 40
0.6666666666666666
 40
0.6666666666666666
 40
0.6666666666666666
 40
0.6666666666666666
 40
0.7777777777777778
 40
0.7777777777777778
 40
0.7777777777777778
 40
0.7777777777777778
 40
1.0
 40
1.0
 40
1.0
 40
1.0
 10
30.9462
 20
3.4102
 30
0.0
 10
31.2778
 20
3.4102
 30
0.0
 10
31.4984
 20
3.4492
 30
0.0
 10
31.6084
 20
3.5268
 30
0.0
 10
31.6084
 20
3.5268
 30
0.0
 10
31.718
 20
3.6044
 30
0.0
 10
31.7731
 20
3.6999
 30
0.0
 10
31.7731
 20
3.8137
 30
0.0
 10
31.7731
 20
3.8137
 30
0.0
 10
31.7731
 20
3.928
 30
0.0
 10
31.7176
 20
4.0235
 30
0.0
 10
31.6075
 20
4.1011
 30
0.0
 10
31.6075
 20
4.1011
 30
0.0
 10
31.4974
 20
4.1787
 30
0.0
 10
31.2768
 20
4.2178
 30
0.0
 10
30.9462
 20
4.2178
 30
0.0
 10
30.9462
 20
4.2178
 30
0.0
 10
30.6136
 20
4.2178
 30
0.0
 10
30.3925
 20
4.1787
 30
0.0
 10
30.2834
 20
4.1011
 30
0.0
 10
30.2834
 20
4.1011
 30
0.0
 10
30.1738
 20
4.0235
 30
0.0
 10
30.1193
 20
3.9271
 30
0.0
 10
30.1193
 20
3.8114
 30
0.0
 10
30.1193
 20
3.8114
 30
0.0
 10
30.1193
 20
3.6971
 30
0.0
 10
30.1677
 20
3.6063
 30
0.0
 10
30.2641
 20
3.5381
 30
0.0
 10
30.2641
 20
3.5381
 30
0.0
 10
30.3869
 20
3.453
 30
0.0
 10
30.6146
 20
3.4102
 30
0.0
 10
30.9462
 20
3.4102
 30
0.0
  0
SPLINE
  5
72
330
1F
100
AcDbEntity
  8
VRSTVA_1
 62
   250
100
AcDbSpline
210
0.0
220
0.0
230
1.0
 70
    11
 71
     3
 72
    20
 73
    16
 74
     0
 42
0.0000000001
 43
0.0000000001
 40
0.0
 40
0.0
 40
0.0
 40
0.0
 40
0.2
 40
0.2
 40
0.2
 40
0.2
 40
0.4
 40
0.4
 40
0.4
 40
0.4
 40
0.6
 40
0.6
 40
0.6
 40
0.6
 40
1.0
 40
1.0
 40
1.0
 40
1.0
 10
32.721
 20
-24.766
 30
0.0
 10
32.721
 20
-24.766
 30
0.0
 10
33.1297
 20
-21.9668
 30
0.0
 10
33.1297
 20
-21.9668
 30
0.0
 10
33.1297
 20
-21.9668
 30
0.0
 10
33.1297
 20
-21.9668
 30
0.0
 10
32.2275
 20
-21.9668
 30
0.0
 10
32.2275
 20
-21.9668
 30
0.0
 10
32.2275
 20
-21.9668
 30
0.0
 10
32.2275
 20
-21.9668
 30
0.0
 10
32.7197
 20
-24.766
 30
0.0
 10
32.7197
 20
-24.766
 30
0.0
 10
32.7197
 20
-24.766
 30
0.0
 10
32.7197
 20
-24.766
 30
0.0
 10
32.721
 20
-24.766
 30
0.0
 10
32.721
 20
-24.766
 30
0.0
  0
SPLINE
  5
73
330
1F
100
AcDbEntity
  8
VRSTVA_1
 62
   250
100
AcDbSpline
210
0.0
220
0.0
230
1.0
 70
    11
 71
     3
 72
    20
 73
    16
 74
     0
 42
0.0000000001
 43
0.0000000001
 40
0.0
 40
0.0
 40
0.0
 40
0.0
 40
0.2
 40
0.2
 40
0.2
 40
0.2
 40
0.4
 40
0.4
 40
0.4
 40
0.4
 40
0.6
 40
0.6
 40
0.6
 40
0.6
 40
1.0
 40
1.0
 40
1.0
 40
1.0
 10
32.6704
 20
26.9769
 30
0.0
 10
32.6704
 20
26.9769
 30
0.0
 10
32.2617
 20
24.1777
 30
0.0
 10
32.2617
 20
24.1777
 30
0.0
 10
32.2617
 20
24.1777
 30
0.0
 10
32.2617
 20
24.1777
 30
0.0
 10
33.1639
 20
24.1777
 30
0.0
 10
33.1639
 20
24.1777
 30
0.0
 10
33.1639
 20
24.1777
 30
0.0
 10
33.1639
 20
24.1777
 30
0.0
 10
32.6716
 20
26.9769
 30
0.0
 10
32.6716
 20
26.9769
 30
0.0
 10
32.6716
 20
26.9769
 30
0.0
 10
32.6716
 20
26.9769
 30
0.0
 10
32.6704
 20
26.9769
 30
0.0
 10
32.6704
 20
26.9769
 30
0.0
  0
SPLINE
  5
74
330
1F
100
AcDbEntity
  8
VRSTVA_1
 62
   250
100
AcDbSpline
210
0.0
220
0.0
230
1.0
 70
    24
 71
     3
 72
     8
 73
     4
 74
     0
 42
0.0000000001
 43
0.0000000001
 40
0.0
 40
0.0
 40
0.0
 40
0.0
 40
1.0
 40
1.0
 40
1.0
 40
1.0
 10
32.6829
 20
25.6245
 30
0.0
 10
32.6829
 20
25.6245
 30
0.0
 10
32.6829
 20
-23.5961
 30
0.0
 10
32.6829
 20
-23.5961
 30
0.0
  0
SPLINE
  5
75
330
1F
100
AcDbEntity
  8
VRSTVA_1
 62
   250
100
AcDbSpline
210
0.0
220
0.0
230
1.0
 70
    24
 71
     3
 72
     8
 73
     4
 74
     0
 42
0.0000000001
 43
0.0000000001
 40
0.0
 40
0.0
 40
0.0
 40
0.0
 40
1.0
 40
1.0
 40
1.0
 40
1.0
 10
33.4193
 20
-24.8942
 30
0.0
 10
33.4193
 20
-24.8942
 30
0.0
 10
-0.5897
 20
-24.8942
 30
0.0
 10
-0.5897
 20
-24.8942
 30
0.0
  0
SPLINE
  5
76
330
1F
100
AcDbEntity
  8
VRSTVA_1
 62
   250
100
AcDbSpline
210
0.0
220
0.0
230
1.0
 70
    24
 71
     3
 72
     8
 73
     4
 74
     0
 42
0.0000000001
 43
0.0000000001
 40
0.0
 40
0.0
 40
0.0
 40
0.0
 40
1.0
 40
1.0
 40
1.0
 40
1.0
 10
32.9797
 20
27.1236
 30
0.0
 10
32.9797
 20
27.1236
 30
0.0
 10
12.1344
 20
27.1236
 30
0.0
 10
12.1344
 20
27.1236
 30
0.0
  0
SPLINE
  5
77
330
1F
100
AcDbEntity
  8
VRSTVA_1
 62
   250
100
AcDbSpline
210
0.0
220
0.0
230
1.0
 70
    11
 71
     3
 72
    28
 73
    24
 74
     0
 42
0.0000000001
 43
0.0000000001
 40
0.0
 40
0.0
 40
0.0
 40
0.0
 40
0.1428571428571428
 40
0.1428571428571428
 40
0.1428571428571428
 40
0.1428571428571428
 40
0.2857142857142857
 40
0.2857142857142857
 40
0.2857142857142857
 40
0.2857142857142857
 40
0.4285714285714285
 40
0.4285714285714285
 40
0.4285714285714285
 40
0.4285714285714285
 40
0.5714285714285714
 40
0.5714285714285714
 40
0.5714285714285714
 40
0.5714285714285714
 40
0.7142857142857143
 40
0.7142857142857143
 40
0.7142857142857143
 40
0.7142857142857143
 40
1.0
 40
1.0
 40
1.0
 40
1.0
 10
-17.3202
 20
5.1337
 30
0.0
 10
-17.3202
 20
13.1217
 30
0.0
 10
-10.5171
 20
19.5957
 30
0.0
 10
-2.1231
 20
19.5957
 30
0.0
 10
-2.1231
 20
19.5957
 30
0.0
 10
6.2705
 20
19.5957
 30
0.0
 10
13.0731
 20
13.1212
 30
0.0
 10
13.0731
 20
5.1331
 30
0.0
 10
13.0731
 20
5.1331
 30
0.0
 10
13.0731
 20
5.1331
 30
0.0
 10
13.0731
 20
-3.4128
 30
0.0
 10
13.0731
 20
-3.4128
 30
0.0
 10
13.0731
 20
-3.4128
 30
0.0
 10
13.0731
 20
-11.4011
 30
0.0
 10
6.2705
 20
-17.8756
 30
0.0
 10
-2.1231
 20
-17.8756
 30
0.0
 10
-2.1231
 20
-17.8756
 30
0.0
 10
-10.5171
 20
-17.8756
 30
0.0
 10
-17.3202
 20
-11.4011
 30
0.0
 10
-17.3202
 20
-3.4128
 30
0.0
 10
-17.3202
 20
-3.4128
 30
0.0
 10
-17.3202
 20
-3.4128
 30
0.0
 10
-17.3202
 20
5.1337
 30
0.0
 10
-17.3202
 20
5.1337
 30
0.0
  0
SPLINE
  5
78
330
1F
100
AcDbEntity
  8
VRSTVA_1
 62
   250
100
AcDbSpline
210
0.0
220
0.0
230
1.0
 70
    11
 71
     3
 72
    20
 73
    16
 74
     0
 42
0.0000000001
 43
0.0000000001
 40
0.0
 40
0.0
 40
0.0
 40
0.0
 40
0.2
 40
0.2
 40
0.2
 40
0.2
 40
0.4
 40
0.4
 40
0.4
 40
0.4
 40
0.6
 40
0.6
 40
0.6
 40
0.6
 40
1.0
 40
1.0
 40
1.0
 40
1.0
 10
7.6306
 20
29.7353
 30
0.0
 10
9.0251
 20
29.7353
 30
0.0
 10
10.1625
 20
28.598
 30
0.0
 10
10.1625
 20
27.2034
 30
0.0
 10
10.1625
 20
27.2034
 30
0.0
 10
10.1625
 20
25.809
 30
0.0
 10
9.0251
 20
24.6716
 30
0.0
 10
7.6306
 20
24.6716
 30
0.0
 10
7.6306
 20
24.6716
 30
0.0
 10
6.2362
 20
24.6716
 30
0.0
 10
5.0988
 20
25.809
 30
0.0
 10
5.0988
 20
27.2034
 30
0.0
 10
5.0988
 20
27.2034
 30
0.0
 10
5.0988
 20
28.598
 30
0.0
 10
6.2362
 20
29.7353
 30
0.0
 10
7.6306
 20
29.7353
 30
0.0
  0
SPLINE
  5
79
330
1F
100
AcDbEntity
  8
VRSTVA_1
 62
   250
100
AcDbSpline
210
0.0
220
0.0
230
1.0
 70
    11
 71
     3
 72
    20
 73
    16
 74
     0
 42
0.0000000001
 43
0.0000000001
 40
0.0
 40
0.0
 40
0.0
 40
0.0
 40
0.2
 40
0.2
 40
0.2
 40
0.2
 40
0.4
 40
0.4
 40
0.4
 40
0.4
 40
0.6
 40
0.6
 40
0.6
 40
0.6
 40
1.0
 40
1.0
 40
1.0
 40
1.0
 10
7.6306
 20
27.5551
 30
0.0
 10
7.8243
 20
27.5551
 30
0.0
 10
7.9823
 20
27.3972
 30
0.0
 10
7.9823
 20
27.2035
 30
0.0
 10
7.9823
 20
27.2035
 30
0.0
 10
7.9823
 20
27.0098
 30
0.0
 10
7.8243
 20
26.8518
 30
0.0
 10
7.6306
 20
26.8518
 30
0.0
 10
7.6306
 20
26.8518
 30
0.0
 10
7.4369
 20
26.8518
 30
0.0
 10
7.279
 20
27.0098
 30
0.0
 10
7.279
 20
27.2035
 30
0.0
 10
7.279
 20
27.2035
 30
0.0
 10
7.279
 20
27.3972
 30
0.0
 10
7.4369
 20
27.5551
 30
0.0
 10
7.6306
 20
27.5551
 30
0.0
  0
SPLINE
  5
7A
330
1F
100
AcDbEntity
  8
VRSTVA_1
 62
   250
100
AcDbSpline
210
0.0
220
0.0
230
1.0
 70
    11
 71
     3
 72
    20
 73
    16
 74
     0
 42
0.0000000001
 43
0.0000000001
 40
0.0
 40
0.0
 40
0.0
 40
0.0
 40
0.2
 40
0.2
 40
0.2
 40
0.2
 40
0.4
 40
0.4
 40
0.4
 40
0.4
 40
0.6
 40
0.6
 40
0.6
 40
0.6
 40
1.0
 40
1.0
 40
1.0
 40
1.0
 10
7.6306
 20
28.4694
 30
0.0
 10
8.3279
 20
28.4694
 30
0.0
 10
8.8965
 20
27.9007
 30
0.0
 10
8.8965
 20
27.2035
 30
0.0
 10
8.8965
 20
27.2035
 30
0.0
 10
8.8965
 20
26.5062
 30
0.0
 10
8.3279
 20
25.9376
 30
0.0
 10
7.6306
 20
25.9376
 30
0.0
 10
7.6306
 20
25.9376
 30
0.0
 10
6.9334
 20
25.9376
 30
0.0
 10
6.3647
 20
26.5062
 30
0.0
 10
6.3647
 20
27.2035
 30
0.0
 10
6.3647
 20
27.2035
 30
0.0
 10
6.3647
 20
27.9007
 30
0.0
 10
6.9334
 20
28.4694
 30
0.0
 10
7.6306
 20
28.4694
 30
0.0
  0
SPLINE
  5
7B
330
1F
100
AcDbEntity
  8
VRSTVA_1
 62
   250
100
AcDbSpline
210
0.0
220
0.0
230
1.0
 70
    11
 71
     3
 72
    20
 73
    16
 74
     0
 42
0.0000000001
 43
0.0000000001
 40
0.0
 40
0.0
 40
0.0
 40
0.0
 40
0.2
 40
0.2
 40
0.2
 40
0.2
 40
0.4
 40
0.4
 40
0.4
 40
0.4
 40
0.6
 40
0.6
 40
0.6
 40
0.6
 40
1.0
 40
1.0
 40
1.0
 40
1.0
 10
7.6306
 20
29.1375
 30
0.0
 10
8.6958
 20
29.1375
 30
0.0
 10
9.5647
 20
28.2687
 30
0.0
 10
9.5647
 20
27.2034
 30
0.0
 10
9.5647
 20
27.2034
 30
0.0
 10
9.5647
 20
26.1383
 30
0.0
 10
8.6958
 20
25.2694
 30
0.0
 10
7.6306
 20
25.2694
 30
0.0
 10
7.6306
 20
25.2694
 30
0.0
 10
6.5654
 20
25.2694
 30
0.0
 10
5.6966
 20
26.1383
 30
0.0
 10
5.6966
 20
27.2034
 30
0.0
 10
5.6966
 20
27.2034
 30
0.0
 10
5.6966
 20
28.2687
 30
0.0
 10
6.5654
 20
29.1375
 30
0.0
 10
7.6306
 20
29.1375
 30
0.0
  0
SPLINE
  5
7C
330
1F
100
AcDbEntity
  8
VRSTVA_1
 62
   250
100
AcDbSpline
210
0.0
220
0.0
230
1.0
 70
    11
 71
     3
 72
    28
 73
    24
 74
     0
 42
0.0000000001
 43
0.0000000001
 40
0.0
 40
0.0
 40
0.0
 40
0.0
 40
0.1428571428571428
 40
0.1428571428571428
 40
0.1428571428571428
 40
0.1428571428571428
 40
0.2857142857142857
 40
0.2857142857142857
 40
0.2857142857142857
 40
0.2857142857142857
 40
0.4285714285714285
 40
0.4285714285714285
 40
0.4285714285714285
 40
0.4285714285714285
 40
0.5714285714285714
 40
0.5714285714285714
 40
0.5714285714285714
 40
0.5714285714285714
 40
0.7142857142857143
 40
0.7142857142857143
 40
0.7142857142857143
 40
0.7142857142857143
 40
1.0
 40
1.0
 40
1.0
 40
1.0
 10
-18.5862
 20
-6.2144
 30
0.0
 10
-18.0481
 20
-6.1287
 30
0.0
 10
-17.5388
 20
-6.4965
 30
0.0
 10
-17.453
 20
-7.0356
 30
0.0
 10
-17.453
 20
-7.0356
 30
0.0
 10
-17.3672
 20
-7.5745
 30
0.0
 10
-17.7346
 20
-8.0811
 30
0.0
 10
-18.2745
 20
-8.1664
 30
0.0
 10
-18.2745
 20
-8.1664
 30
0.0
 10
-18.2745
 20
-8.1664
 30
0.0
 10
-21.0076
 20
-8.5988
 30
0.0
 10
-21.0076
 20
-8.5988
 30
0.0
 10
-21.0076
 20
-8.5988
 30
0.0
 10
-21.546
 20
-8.6854
 30
0.0
 10
-22.0529
 20
-8.3174
 30
0.0
 10
-22.1377
 20
-7.7775
 30
0.0
 10
-22.1377
 20
-7.7775
 30
0.0
 10
-22.2241
 20
-7.2378
 30
0.0
 10
-21.8563
 20
-6.7322
 30
0.0
 10
-21.3164
 20
-6.6465
 30
0.0
 10
-21.3164
 20
-6.6465
 30
0.0
 10
-21.3164
 20
-6.6465
 30
0.0
 10
-18.5862
 20
-6.2144
 30
0.0
 10
-18.5862
 20
-6.2144
 30
0.0
  0
SPLINE
  5
7D
330
1F
100
AcDbEntity
  8
VRSTVA_1
 62
   250
100
AcDbSpline
210
0.0
220
0.0
230
1.0
 70
    11
 71
     3
 72
    28
 73
    24
 74
     0
 42
0.0000000001
 43
0.0000000001
 40
0.0
 40
0.0
 40
0.0
 40
0.0
 40
0.1428571428571428
 40
0.1428571428571428
 40
0.1428571428571428
 40
0.1428571428571428
 40
0.2857142857142857
 40
0.2857142857142857
 40
0.2857142857142857
 40
0.2857142857142857
 40
0.4285714285714285
 40
0.4285714285714285
 40
0.4285714285714285
 40
0.4285714285714285
 40
0.5714285714285714
 40
0.5714285714285714
 40
0.5714285714285714
 40
0.5714285714285714
 40
0.7142857142857143
 40
0.7142857142857143
 40
0.7142857142857143
 40
0.7142857142857143
 40
1.0
 40
1.0
 40
1.0
 40
1.0
 10
18.2869
 20
8.6634
 30
0.0
 10
18.8297
 20
8.7113
 30
0.0
 10
19.3121
 20
8.309
 30
0.0
 10
19.3601
 20
7.7652
 30
0.0
 10
19.3601
 20
7.7652
 30
0.0
 10
19.408
 20
7.2216
 30
0.0
 10
19.0062
 20
6.7419
 30
0.0
 10
18.4617
 20
6.6944
 30
0.0
 10
18.4617
 20
6.6944
 30
0.0
 10
18.4617
 20
6.6944
 30
0.0
 10
15.7051
 20
6.4537
 30
0.0
 10
15.7051
 20
6.4537
 30
0.0
 10
15.7051
 20
6.4537
 30
0.0
 10
15.162
 20
6.4049
 30
0.0
 10
14.682
 20
6.8074
 30
0.0
 10
14.635
 20
7.3519
 30
0.0
 10
14.635
 20
7.3519
 30
0.0
 10
14.5865
 20
7.8963
 30
0.0
 10
14.9887
 20
8.375
 30
0.0
 10
15.5333
 20
8.4228
 30
0.0
 10
15.5333
 20
8.4228
 30
0.0
 10
15.5333
 20
8.4228
 30
0.0
 10
18.2869
 20
8.6634
 30
0.0
 10
18.2869
 20
8.6634
 30
0.0
  0
SPLINE
  5
7E
330
1F
100
AcDbEntity
  8
VRSTVA_1
 62
   250
100
AcDbSpline
210
0.0
220
0.0
230
1.0
 70
    11
 71
     3
 72
    28
 73
    24
 74
     0
 42
0.0000000001
 43
0.0000000001
 40
0.0
 40
0.0
 40
0.0
 40
0.0
 40
0.1428571428571428
 40
0.1428571428571428
 40
0.1428571428571428
 40
0.1428571428571428
 40
0.2857142857142857
 40
0.2857142857142857
 40
0.2857142857142857
 40
0.2857142857142857
 40
0.4285714285714285
 40
0.4285714285714285
 40
0.4285714285714285
 40
0.4285714285714285
 40
0.5714285714285714
 40
0.5714285714285714
 40
0.5714285714285714
 40
0.5714285714285714
 40
0.7142857142857143
 40
0.7142857142857143
 40
0.7142857142857143
 40
0.7142857142857143
 40
1.0
 40
1.0
 40
1.0
 40
1.0
 10
-19.6528
 20
8.4854
 30
0.0
 10
-19.1099
 20
8.4383
 30
0.0
 10
-18.7047
 20
7.9583
 30
0.0
 10
-18.7518
 20
7.4144
 30
0.0
 10
-18.7518
 20
7.4144
 30
0.0
 10
-18.799
 20
6.8708
 30
0.0
 10
-19.278
 20
6.4681
 30
0.0
 10
-19.8225
 20
6.5159
 30
0.0
 10
-19.8225
 20
6.5159
 30
0.0
 10
-19.8225
 20
6.5159
 30
0.0
 10
-22.579
 20
6.7576
 30
0.0
 10
-22.579
 20
6.7576
 30
0.0
 10
-22.579
 20
6.7576
 30
0.0
 10
-23.1224
 20
6.8038
 30
0.0
 10
-23.5252
 20
7.2835
 30
0.0
 10
-23.4769
 20
7.8279
 30
0.0
 10
-23.4769
 20
7.8279
 30
0.0
 10
-23.4302
 20
8.3724
 30
0.0
 10
-22.951
 20
8.774
 30
0.0
 10
-22.4063
 20
8.7266
 30
0.0
 10
-22.4063
 20
8.7266
 30
0.0
 10
-22.4063
 20
8.7266
 30
0.0
 10
-19.6528
 20
8.4854
 30
0.0
 10
-19.6528
 20
8.4854
 30
0.0
  0
SPLINE
  5
7F
330
1F
100
AcDbEntity
  8
VRSTVA_1
 62
   250
100
AcDbSpline
210
0.0
220
0.0
230
1.0
 70
    11
 71
     3
 72
    28
 73
    24
 74
     0
 42
0.0000000001
 43
0.0000000001
 40
0.0
 40
0.0
 40
0.0
 40
0.0
 40
0.1428571428571428
 40
0.1428571428571428
 40
0.1428571428571428
 40
0.1428571428571428
 40
0.2857142857142857
 40
0.2857142857142857
 40
0.2857142857142857
 40
0.2857142857142857
 40
0.4285714285714285
 40
0.4285714285714285
 40
0.4285714285714285
 40
0.4285714285714285
 40
0.5714285714285714
 40
0.5714285714285714
 40
0.5714285714285714
 40
0.5714285714285714
 40
0.7142857142857143
 40
0.7142857142857143
 40
0.7142857142857143
 40
0.7142857142857143
 40
1.0
 40
1.0
 40
1.0
 40
1.0
 10
17.1862
 20
-6.8285
 30
0.0
 10
17.7272
 20
-6.8945
 30
0.0
 10
18.1153
 20
-7.3883
 30
0.0
 10
18.0493
 20
-7.9302
 30
0.0
 10
18.0493
 20
-7.9302
 30
0.0
 10
17.9831
 20
-8.4719
 30
0.0
 10
17.4903
 20
-8.8576
 30
0.0
 10
16.9479
 20
-8.7908
 30
0.0
 10
16.9479
 20
-8.7908
 30
0.0
 10
16.9479
 20
-8.7908
 30
0.0
 10
14.2015
 20
-8.4531
 30
0.0
 10
14.2015
 20
-8.4531
 30
0.0
 10
14.2015
 20
-8.4531
 30
0.0
 10
13.66
 20
-8.3879
 30
0.0
 10
13.2743
 20
-7.8944
 30
0.0
 10
13.3415
 20
-7.3521
 30
0.0
 10
13.3415
 20
-7.3521
 30
0.0
 10
13.4072
 20
-6.8095
 30
0.0
 10
13.9001
 20
-6.4249
 30
0.0
 10
14.4428
 20
-6.4913
 30
0.0
 10
14.4428
 20
-6.4913
 30
0.0
 10
14.4428
 20
-6.4913
 30
0.0
 10
17.1862
 20
-6.8285
 30
0.0
 10
17.1862
 20
-6.8285
 30
0.0
  0
SPLINE
  5
80
330
1F
100
AcDbEntity
  8
VRSTVA_1
  6
NEW_LINE1
 62
   250
100
AcDbSpline
210
0.0
220
0.0
230
1.0
 70
    24
 71
     3
 72
     8
 73
     4
 74
     0
 42
0.0000000001
 43
0.0000000001
 40
0.0
 40
0.0
 40
0.0
 40
0.0
 40
1.0
 40
1.0
 40
1.0
 40
1.0
 10
-2.0552
 20
30.6614
 30
0.0
 10
-2.0552
 20
30.6614
 30
0.0
 10
-2.0552
 20
-26.8386
 30
0.0
 10
-2.0552
 20
-26.8386
 30
0.0
  0
SPLINE
  5
82
330
1F
100
AcDbEntity
  8
VRSTVA_1
  6
NEW_LINE2
 62
   250
100
AcDbSpline
210
0.0
220
0.0
230
1.0
 70
    24
 71
     3
 72
     8
 73
     4
 74
     0
 42
0.0000000001
 43
0.0000000001
 40
0.0
 40
0.0
 40
0.0
 40
0.0
 40
1.0
 40
1.0
 40
1.0
 40
1.0
 10
7.6311
 20
30.3478
 30
0.0
 10
7.6311
 20
30.3478
 30
0.0
 10
7.6311
 20
23.523
 30
0.0
 10
7.6311
 20
23.523
 30
0.0
  0
SPLINE
  5
84
330
1F
100
AcDbEntity
  8
VRSTVA_1
  6
NEW_LINE3
 62
   250
100
AcDbSpline
210
0.0
220
0.0
230
1.0
 70
    24
 71
     3
 72
     8
 73
     4
 74
     0
 42
0.0000000001
 43
0.0000000001
 40
0.0
 40
0.0
 40
0.0
 40
0.0
 40
1.0
 40
1.0
 40
1.0
 40
1.0
 10
4.2187
 20
27.0716
 30
0.0
 10
4.2187
 20
27.0716
 30
0.0
 10
11.3232
 20
27.0716
 30
0.0
 10
11.3232
 20
27.0716
 30
0.0
  0
SPLINE
  5
86
330
1F
100
AcDbEntity
  8
VRSTVA_1
 62
   250
100
AcDbSpline
210
0.0
220
0.0
230
1.0
 70
     8
 71
     3
 72
    44
 73
    40
 74
     0
 42
0.0000000001
 43
0.0000000001
 40
0.0
 40
0.0
 40
0.0
 40
0.0
 40
0.0909090909090909
 40
0.0909090909090909
 40
0.0909090909090909
 40
0.0909090909090909
 40
0.1818181818181818
 40
0.1818181818181818
 40
0.1818181818181818
 40
0.1818181818181818
 40
0.2727272727272727
 40
0.2727272727272727
 40
0.2727272727272727
 40
0.2727272727272727
 40
0.3636363636363636
 40
0.3636363636363636
 40
0.3636363636363636
 40
0.3636363636363636
 40
0.4545454545454545
 40
0.4545454545454545
 40
0.4545454545454545
 40
0.4545454545454545
 40
0.5454545454545454
 40
0.5454545454545454
 40
0.5454545454545454
 40
0.5454545454545454
 40
0.6363636363636364
 40
0.6363636363636364
 40
0.6363636363636364
 40
0.6363636363636364
 40
0.7272727272727273
 40
0.7272727272727273
 40
0.7272727272727273
 40
0.7272727272727273
 40
0.8181818181818182
 40
0.8181818181818182
 40
0.8181818181818182
 40
0.8181818181818182
 40
1.0
 40
1.0
 40
1.0
 40
1.0
 10
-13.3707
 20
29.1647
 30
0.0
 10
-13.3707
 20
29.1647
 30
0.0
 10
-23.8641
 20
29.1647
 30
0.0
 10
-23.8641
 20
29.1647
 30
0.0
 10
-23.8641
 20
29.1647
 30
0.0
 10
-25.2075
 20
29.1647
 30
0.0
 10
-26.3063
 20
28.0956
 30
0.0
 10
-26.3066
 20
26.7891
 30
0.0
 10
-26.3066
 20
26.7891
 30
0.0
 10
-26.3066
 20
26.7891
 30
0.0
 10
-26.3132
 20
4.0713
 30
0.0
 10
-26.3132
 20
4.0713
 30
0.0
 10
-26.3132
 20
4.0713
 30
0.0
 10
-26.3132
 20
-4.3562
 30
0.0
 10
-23.6265
 20
-12.0227
 30
0.0
 10
-18.9967
 20
-17.4333
 30
0.0
 10
-18.9967
 20
-17.4333
 30
0.0
 10
-14.6473
 20
-22.5161
 30
0.0
 10
-8.5589
 20
-25.604
 30
0.0
 10
-2.0986
 20
-25.604
 30
0.0
 10
-2.0986
 20
-25.604
 30
0.0
 10
3.6323
 20
-25.604
 30
0.0
 10
9.228
 20
-23.2661
 30
0.0
 10
13.3824
 20
-19.1623
 30
0.0
 10
13.3824
 20
-19.1623
 30
0.0
 10
18.8966
 20
-13.7153
 30
0.0
 10
22.0962
 20
-5.1939
 30
0.0
 10
22.0962
 20
4.1277
 30
0.0
 10
22.0962
 20
4.1277
 30
0.0
 10
22.0962
 20
4.1277
 30
0.0
 10
22.1253
 20
26.7891
 30
0.0
 10
22.1253
 20
26.7891
 30
0.0
 10
22.1253
 20
26.7891
 30
0.0
 10
22.127
 20
28.0955
 30
0.0
 10
21.0256
 20
29.1647
 30
0.0
 10
19.6828
 20
29.1647
 30
0.0
 10
19.6828
 20
29.1647
 30
0.0
 10
19.6828
 20
29.1647
 30
0.0
 10
9.3409
 20
29.1647
 30
0.0
 10
9.3409
 20
29.1647
 30
0.0
  0
SPLINE
  5
87
330
1F
100
AcDbEntity
  8
VRSTVA_1
 62
   250
100
AcDbSpline
210
0.0
220
0.0
230
1.0
 70
    24
 71
     3
 72
     8
 73
     4
 74
     0
 42
0.0000000001
 43
0.0000000001
 40
0.0
 40
0.0
 40
0.0
 40
0.0
 40
1.0
 40
1.0
 40
1.0
 40
1.0
 10
5.8701
 20
29.1647
 30
0.0
 10
5.8701
 20
29.1647
 30
0.0
 10
-10.0491
 20
29.1647
 30
0.0
 10
-10.0491
 20
29.1647
 30
0.0
  0
SPLINE
  5
88
330
1F
100
AcDbEntity
  8
VRSTVA_1
 62
   250
100
AcDbSpline
210
0.0
220
0.0
230
1.0
 70
    11
 71
     3
 72
    20
 73
    16
 74
     0
 42
0.0000000001
 43
0.0000000001
 40
0.0
 40
0.0
 40
0.0
 40
0.0
 40
0.2
 40
0.2
 40
0.2
 40
0.2
 40
0.4
 40
0.4
 40
0.4
 40
0.4
 40
0.6
 40
0.6
 40
0.6
 40
0.6
 40
1.0
 40
1.0
 40
1.0
 40
1.0
 10
-11.7521
 20
29.7353
 30
0.0
 10
-10.3576
 20
29.7353
 30
0.0
 10
-9.2203
 20
28.598
 30
0.0
 10
-9.2203
 20
27.2034
 30
0.0
 10
-9.2203
 20
27.2034
 30
0.0
 10
-9.2203
 20
25.809
 30
0.0
 10
-10.3576
 20
24.6716
 30
0.0
 10
-11.7521
 20
24.6716
 30
0.0
 10
-11.7521
 20
24.6716
 30
0.0
 10
-13.1466
 20
24.6716
 30
0.0
 10
-14.2839
 20
25.809
 30
0.0
 10
-14.2839
 20
27.2034
 30
0.0
 10
-14.2839
 20
27.2034
 30
0.0
 10
-14.2839
 20
28.598
 30
0.0
 10
-13.1466
 20
29.7353
 30
0.0
 10
-11.7521
 20
29.7353
 30
0.0
  0
SPLINE
  5
89
330
1F
100
AcDbEntity
  8
VRSTVA_1
 62
   250
100
AcDbSpline
210
0.0
220
0.0
230
1.0
 70
    11
 71
     3
 72
    20
 73
    16
 74
     0
 42
0.0000000001
 43
0.0000000001
 40
0.0
 40
0.0
 40
0.0
 40
0.0
 40
0.2
 40
0.2
 40
0.2
 40
0.2
 40
0.4
 40
0.4
 40
0.4
 40
0.4
 40
0.6
 40
0.6
 40
0.6
 40
0.6
 40
1.0
 40
1.0
 40
1.0
 40
1.0
 10
-11.7521
 20
27.5551
 30
0.0
 10
-11.5584
 20
27.5551
 30
0.0
 10
-11.4005
 20
27.3972
 30
0.0
 10
-11.4005
 20
27.2035
 30
0.0
 10
-11.4005
 20
27.2035
 30
0.0
 10
-11.4005
 20
27.0098
 30
0.0
 10
-11.5584
 20
26.8518
 30
0.0
 10
-11.7521
 20
26.8518
 30
0.0
 10
-11.7521
 20
26.8518
 30
0.0
 10
-11.9458
 20
26.8518
 30
0.0
 10
-12.1037
 20
27.0098
 30
0.0
 10
-12.1037
 20
27.2035
 30
0.0
 10
-12.1037
 20
27.2035
 30
0.0
 10
-12.1037
 20
27.3972
 30
0.0
 10
-11.9458
 20
27.5551
 30
0.0
 10
-11.7521
 20
27.5551
 30
0.0
  0
SPLINE
  5
8A
330
1F
100
AcDbEntity
  8
VRSTVA_1
 62
   250
100
AcDbSpline
210
0.0
220
0.0
230
1.0
 70
    11
 71
     3
 72
    20
 73
    16
 74
     0
 42
0.0000000001
 43
0.0000000001
 40
0.0
 40
0.0
 40
0.0
 40
0.0
 40
0.2
 40
0.2
 40
0.2
 40
0.2
 40
0.4
 40
0.4
 40
0.4
 40
0.4
 40
0.6
 40
0.6
 40
0.6
 40
0.6
 40
1.0
 40
1.0
 40
1.0
 40
1.0
 10
-11.7521
 20
28.4694
 30
0.0
 10
-11.0549
 20
28.4694
 30
0.0
 10
-10.4862
 20
27.9007
 30
0.0
 10
-10.4862
 20
27.2035
 30
0.0
 10
-10.4862
 20
27.2035
 30
0.0
 10
-10.4862
 20
26.5062
 30
0.0
 10
-11.0549
 20
25.9376
 30
0.0
 10
-11.7521
 20
25.9376
 30
0.0
 10
-11.7521
 20
25.9376
 30
0.0
 10
-12.4493
 20
25.9376
 30
0.0
 10
-13.018
 20
26.5062
 30
0.0
 10
-13.018
 20
27.2035
 30
0.0
 10
-13.018
 20
27.2035
 30
0.0
 10
-13.018
 20
27.9007
 30
0.0
 10
-12.4493
 20
28.4694
 30
0.0
 10
-11.7521
 20
28.4694
 30
0.0
  0
SPLINE
  5
8B
330
1F
100
AcDbEntity
  8
VRSTVA_1
 62
   250
100
AcDbSpline
210
0.0
220
0.0
230
1.0
 70
    11
 71
     3
 72
    20
 73
    16
 74
     0
 42
0.0000000001
 43
0.0000000001
 40
0.0
 40
0.0
 40
0.0
 40
0.0
 40
0.2
 40
0.2
 40
0.2
 40
0.2
 40
0.4
 40
0.4
 40
0.4
 40
0.4
 40
0.6
 40
0.6
 40
0.6
 40
0.6
 40
1.0
 40
1.0
 40
1.0
 40
1.0
 10
-11.7521
 20
29.1375
 30
0.0
 10
-10.6869
 20
29.1375
 30
0.0
 10
-9.8181
 20
28.2687
 30
0.0
 10
-9.8181
 20
27.2034
 30
0.0
 10
-9.8181
 20
27.2034
 30
0.0
 10
-9.8181
 20
26.1383
 30
0.0
 10
-10.6869
 20
25.2694
 30
0.0
 10
-11.7521
 20
25.2694
 30
0.0
 10
-11.7521
 20
25.2694
 30
0.0
 10
-12.8173
 20
25.2694
 30
0.0
 10
-13.6861
 20
26.1383
 30
0.0
 10
-13.6861
 20
27.2034
 30
0.0
 10
-13.6861
 20
27.2034
 30
0.0
 10
-13.6861
 20
28.2687
 30
0.0
 10
-12.8173
 20
29.1375
 30
0.0
 10
-11.7521
 20
29.1375
 30
0.0
  0
SPLINE
  5
8C
330
1F
100
AcDbEntity
  8
VRSTVA_1
  6
NEW_LINE4
 62
   250
100
AcDbSpline
210
0.0
220
0.0
230
1.0
 70
    24
 71
     3
 72
     8
 73
     4
 74
     0
 42
0.0000000001
 43
0.0000000001
 40
0.0
 40
0.0
 40
0.0
 40
0.0
 40
1.0
 40
1.0
 40
1.0
 40
1.0
 10
-11.7517
 20
30.3478
 30
0.0
 10
-11.7517
 20
30.3478
 30
0.0
 10
-11.7517
 20
23.523
 30
0.0
 10
-11.7517
 20
23.523
 30
0.0
  0
SPLINE
  5
8E
330
1F
100
AcDbEntity
  8
VRSTVA_1
  6
NEW_LINE5
 62
   250
100
AcDbSpline
210
0.0
220
0.0
230
1.0
 70
    24
 71
     3
 72
     8
 73
     4
 74
     0
 42
0.0000000001
 43
0.0000000001
 40
0.0
 40
0.0
 40
0.0
 40
0.0
 40
1.0
 40
1.0
 40
1.0
 40
1.0
 10
-15.164
 20
27.0716
 30
0.0
 10
-15.164
 20
27.0716
 30
0.0
 10
-8.0596
 20
27.0716
 30
0.0
 10
-8.0596
 20
27.0716
 30
0.0
  0
SPLINE
  5
90
330
1F
100
AcDbEntity
  8
VRSTVA_1
 62
   250
100
AcDbSpline
210
0.0
220
0.0
230
1.0
 70
     8
 71
     3
 72
    68
 73
    64
 74
     0
 42
0.0000000001
 43
0.0000000001
 40
0.0
 40
0.0
 40
0.0
 40
0.0
 40
0.0588235294117647
 40
0.0588235294117647
 40
0.0588235294117647
 40
0.0588235294117647
 40
0.1176470588235294
 40
0.1176470588235294
 40
0.1176470588235294
 40
0.1176470588235294
 40
0.1764705882352941
 40
0.1764705882352941
 40
0.1764705882352941
 40
0.1764705882352941
 40
0.2352941176470588
 40
0.2352941176470588
 40
0.2352941176470588
 40
0.2352941176470588
 40
0.2941176470588235
 40
0.2941176470588235
 40
0.2941176470588235
 40
0.2941176470588235
 40
0.3529411764705883
 40
0.3529411764705883
 40
0.3529411764705883
 40
0.3529411764705883
 40
0.4117647058823529
 40
0.4117647058823529
 40
0.4117647058823529
 40
0.4117647058823529
 40
0.4705882352941176
 40
0.4705882352941176
 40
0.4705882352941176
 40
0.4705882352941176
 40
0.5294117647058824
 40
0.5294117647058824
 40
0.5294117647058824
 40
0.5294117647058824
 40
0.5882352941176471
 40
0.5882352941176471
 40
0.5882352941176471
 40
0.5882352941176471
 40
0.6470588235294118
 40
0.6470588235294118
 40
0.6470588235294118
 40
0.6470588235294118
 40
0.7058823529411765
 40
0.7058823529411765
 40
0.7058823529411765
 40
0.7058823529411765
 40
0.7647058823529411
 40
0.7647058823529411
 40
0.7647058823529411
 40
0.7647058823529411
 40
0.8235294117647058
 40
0.8235294117647058
 40
0.8235294117647058
 40
0.8235294117647058
 40
0.8823529411764706
 40
0.8823529411764706
 40
0.8823529411764706
 40
0.8823529411764706
 40
1.0
 40
1.0
 40
1.0
 40
1.0
 10
-14.8052
 20
29.1744
 30
0.0
 10
-15.401
 20
29.1744
 30
0.0
 10
-15.9379
 20
28.6755
 30
0.0
 10
-15.9379
 20
28.0649
 30
0.0
 10
-15.9379
 20
28.0649
 30
0.0
 10
-15.9379
 20
28.0649
 30
0.0
 10
-15.933
 20
25.5049
 30
0.0
 10
-15.933
 20
25.5049
 30
0.0
 10
-15.933
 20
25.5049
 30
0.0
 10
-15.9319
 20
24.8565
 30
0.0
 10
-16.4423
 20
24.3251
 30
0.0
 10
-17.0647
 20
24.3258
 30
0.0
 10
-17.0647
 20
24.3258
 30
0.0
 10
-17.0647
 20
24.3258
 30
0.0
 10
-23.2622
 20
24.3335
 30
0.0
 10
-23.2622
 20
24.3335
 30
0.0
 10
-23.2622
 20
24.3335
 30
0.0
 10
-24.3961
 20
24.3335
 30
0.0
 10
-25.3236
 20
23.3829
 30
0.0
 10
-25.3236
 20
22.221
 30
0.0
 10
-25.3236
 20
22.221
 30
0.0
 10
-25.3236
 20
22.221
 30
0.0
 10
-25.2333
 20
4.4428
 30
0.0
 10
-25.2333
 20
4.4428
 30
0.0
 10
-25.2333
 20
4.4428
 30
0.0
 10
-25.2333
 20
-3.86
 30
0.0
 10
-22.6702
 20
-11.4129
 30
0.0
 10
-18.2537
 20
-16.7434
 30
0.0
 10
-18.2537
 20
-16.7434
 30
0.0
 10
-14.1046
 20
-21.751
 30
0.0
 10
-8.2966
 20
-24.7931
 30
0.0
 10
-2.1338
 20
-24.7931
 30
0.0
 10
-2.1338
 20
-24.7931
 30
0.0
 10
3.3333
 20
-24.7931
 30
0.0
 10
8.6711
 20
-22.49
 30
0.0
 10
12.6344
 20
-18.4468
 30
0.0
 10
12.6344
 20
-18.4468
 30
0.0
 10
17.8948
 20
-13.0803
 30
0.0
 10
20.9658
 20
-4.7406
 30
0.0
 10
20.9658
 20
4.4429
 30
0.0
 10
20.9658
 20
4.4429
 30
0.0
 10
20.9658
 20
4.4429
 30
0.0
 10
20.935
 20
22.221
 30
0.0
 10
20.935
 20
22.221
 30
0.0
 10
20.935
 20
22.221
 30
0.0
 10
20.935
 20
23.3829
 30
0.0
 10
20.0075
 20
24.3335
 30
0.0
 10
18.8738
 20
24.3335
 30
0.0
 10
18.8738
 20
24.3335
 30
0.0
 10
18.8738
 20
24.3335
 30
0.0
 10
12.6762
 20
24.3258
 30
0.0
 10
12.6762
 20
24.3258
 30
0.0
 10
12.6762
 20
24.3258
 30
0.0
 10
12.0537
 20
24.3251
 30
0.0
 10
11.5434
 20
24.8565
 30
0.0
 10
11.5444
 20
25.5049
 30
0.0
 10
11.5444
 20
25.5049
 30
0.0
 10
11.5444
 20
25.5049
 30
0.0
 10
11.5495
 20
28.0649
 30
0.0
 10
11.5495
 20
28.0649
 30
0.0
 10
11.5495
 20
28.0649
 30
0.0
 10
11.5495
 20
28.6755
 30
0.0
 10
11.0125
 20
29.1744
 30
0.0
 10
10.4166
 20
29.1744
 30
0.0
  0
SPLINE
  5
91
330
1F
100
AcDbEntity
  8
VRSTVA_1
 62
   250
100
AcDbSpline
210
0.0
220
0.0
230
1.0
 70
    11
 71
     3
 72
    48
 73
    44
 74
     0
 42
0.0000000001
 43
0.0000000001
 40
0.0
 40
0.0
 40
0.0
 40
0.0
 40
0.0833333333333333
 40
0.0833333333333333
 40
0.0833333333333333
 40
0.0833333333333333
 40
0.1666666666666667
 40
0.1666666666666667
 40
0.1666666666666667
 40
0.1666666666666667
 40
0.25
 40
0.25
 40
0.25
 40
0.25
 40
0.3333333333333333
 40
0.3333333333333333
 40
0.3333333333333333
 40
0.3333333333333333
 40
0.4166666666666667
 40
0.4166666666666667
 40
0.4166666666666667
 40
0.4166666666666667
 40
0.5
 40
0.5
 40
0.5
 40
0.5
 40
0.5833333333333334
 40
0.5833333333333334
 40
0.5833333333333334
 40
0.5833333333333334
 40
0.6666666666666666
 40
0.6666666666666666
 40
0.6666666666666666
 40
0.6666666666666666
 40
0.75
 40
0.75
 40
0.75
 40
0.75
 40
0.8333333333333334
 40
0.8333333333333334
 40
0.8333333333333334
 40
0.8333333333333334
 40
1.0
 40
1.0
 40
1.0
 40
1.0
 10
-31.3904
 20
4.3909
 30
0.0
 10
-31.3904
 20
4.3909
 30
0.0
 10
-31.8739
 20
4.3909
 30
0.0
 10
-31.8739
 20
4.3909
 30
0.0
 10
-31.8739
 20
4.3909
 30
0.0
 10
-31.8739
 20
4.3909
 30
0.0
 10
-31.8739
 20
3.5146
 30
0.0
 10
-31.8739
 20
3.5146
 30
0.0
 10
-31.8739
 20
3.5146
 30
0.0
 10
-31.8739
 20
3.5146
 30
0.0
 10
-32.1016
 20
3.5146
 30
0.0
 10
-32.1016
 20
3.5146
 30
0.0
 10
-32.1016
 20
3.5146
 30
0.0
 10
-32.1016
 20
3.5146
 30
0.0
 10
-33.4106
 20
4.4366
 30
0.0
 10
-33.4106
 20
4.4366
 30
0.0
 10
-33.4106
 20
4.4366
 30
0.0
 10
-33.4106
 20
4.4366
 30
0.0
 10
-33.4106
 20
4.6393
 30
0.0
 10
-33.4106
 20
4.6393
 30
0.0
 10
-33.4106
 20
4.6393
 30
0.0
 10
-33.4106
 20
4.6393
 30
0.0
 10
-32.1016
 20
4.6393
 30
0.0
 10
-32.1016
 20
4.6393
 30
0.0
 10
-32.1016
 20
4.6393
 30
0.0
 10
-32.1016
 20
4.6393
 30
0.0
 10
-32.1016
 20
4.9121
 30
0.0
 10
-32.1016
 20
4.9121
 30
0.0
 10
-32.1016
 20
4.9121
 30
0.0
 10
-32.1016
 20
4.9121
 30
0.0
 10
-31.8739
 20
4.9121
 30
0.0
 10
-31.8739
 20
4.9121
 30
0.0
 10
-31.8739
 20
4.9121
 30
0.0
 10
-31.8739
 20
4.9121
 30
0.0
 10
-31.8739
 20
4.6393
 30
0.0
 10
-31.8739
 20
4.6393
 30
0.0
 10
-31.8739
 20
4.6393
 30
0.0
 10
-31.8739
 20
4.6393
 30
0.0
 10
-31.3904
 20
4.6393
 30
0.0
 10
-31.3904
 20
4.6393
 30
0.0
 10
-31.3904
 20
4.6393
 30
0.0
 10
-31.3904
 20
4.6393
 30
0.0
 10
-31.3904
 20
4.3909
 30
0.0
 10
-31.3904
 20
4.3909
 30
0.0
  0
SPLINE
  5
92
330
1F
100
AcDbEntity
  8
VRSTVA_1
 62
   250
100
AcDbSpline
210
0.0
220
0.0
230
1.0
 70
    11
 71
     3
 72
    16
 73
    12
 74
     0
 42
0.0000000001
 43
0.0000000001
 40
0.0
 40
0.0
 40
0.0
 40
0.0
 40
0.25
 40
0.25
 40
0.25
 40
0.25
 40
0.5
 40
0.5
 40
0.5
 40
0.5
 40
1.0
 40
1.0
 40
1.0
 40
1.0
 10
-32.1016
 20
4.3909
 30
0.0
 10
-32.1016
 20
4.3909
 30
0.0
 10
-33.0122
 20
4.3909
 30
0.0
 10
-33.0122
 20
4.3909
 30
0.0
 10
-33.0122
 20
4.3909
 30
0.0
 10
-33.0122
 20
4.3909
 30
0.0
 10
-32.1016
 20
3.7588
 30
0.0
 10
-32.1016
 20
3.7588
 30
0.0
 10
-32.1016
 20
3.7588
 30
0.0
 10
-32.1016
 20
3.7588
 30
0.0
 10
-32.1016
 20
4.3909
 30
0.0
 10
-32.1016
 20
4.3909
 30
0.0
  0
SPLINE
  5
93
330
1F
100
AcDbEntity
  8
VRSTVA_1
 62
   250
100
AcDbSpline
210
0.0
220
0.0
230
1.0
 70
    11
 71
     3
 72
    80
 73
    76
 74
     0
 42
0.0000000001
 43
0.0000000001
 40
0.0
 40
0.0
 40
0.0
 40
0.0
 40
0.05
 40
0.05
 40
0.05
 40
0.05
 40
0.1
 40
0.1
 40
0.1
 40
0.1
 40
0.15
 40
0.15
 40
0.15
 40
0.15
 40
0.2
 40
0.2
 40
0.2
 40
0.2
 40
0.25
 40
0.25
 40
0.25
 40
0.25
 40
0.3
 40
0.3
 40
0.3
 40
0.3
 40
0.35
 40
0.35
 40
0.35
 40
0.35
 40
0.4
 40
0.4
 40
0.4
 40
0.4
 40
0.45
 40
0.45
 40
0.45
 40
0.45
 40
0.5
 40
0.5
 40
0.5
 40
0.5
 40
0.55
 40
0.55
 40
0.55
 40
0.55
 40
0.6
 40
0.6
 40
0.6
 40
0.6
 40
0.65
 40
0.65
 40
0.65
 40
0.65
 40
0.7
 40
0.7
 40
0.7
 40
0.7
 40
0.75
 40
0.75
 40
0.75
 40
0.75
 40
0.8
 40
0.8
 40
0.8
 40
0.8
 40
0.85
 40
0.85
 40
0.85
 40
0.85
 40
0.9
 40
0.9
 40
0.9
 40
0.9
 40
1.0
 40
1.0
 40
1.0
 40
1.0
 10
-32.9158
 20
6.4525
 30
0.0
 10
-32.9158
 20
6.4525
 30
0.0
 10
-32.8965
 20
6.2061
 30
0.0
 10
-32.8965
 20
6.2061
 30
0.0
 10
-32.8965
 20
6.2061
 30
0.0
 10
-32.9939
 20
6.184
 30
0.0
 10
-33.0649
 20
6.1529
 30
0.0
 10
-33.1086
 20
6.1125
 30
0.0
 10
-33.1086
 20
6.1125
 30
0.0
 10
-33.1797
 20
6.0452
 30
0.0
 10
-33.215
 20
5.9624
 30
0.0
 10
-33.215
 20
5.8641
 30
0.0
 10
-33.215
 20
5.8641
 30
0.0
 10
-33.215
 20
5.7851
 30
0.0
 10
-33.1928
 20
5.716
 30
0.0
 10
-33.1486
 20
5.6562
 30
0.0
 10
-33.1486
 20
5.6562
 30
0.0
 10
-33.0917
 20
5.5781
 30
0.0
 10
-33.0085
 20
5.5165
 30
0.0
 10
-32.8993
 20
5.4714
 30
0.0
 10
-32.8993
 20
5.4714
 30
0.0
 10
-32.7902
 20
5.4267
 30
0.0
 10
-32.6345
 20
5.4032
 30
0.0
 10
-32.4323
 20
5.4013
 30
0.0
 10
-32.4323
 20
5.4013
 30
0.0
 10
-32.523
 20
5.461
 30
0.0
 10
-32.5908
 20
5.5339
 30
0.0
 10
-32.635
 20
5.6205
 30
0.0
 10
-32.635
 20
5.6205
 30
0.0
 10
-32.6787
 20
5.7065
 30
0.0
 10
-32.7008
 20
5.7973
 30
0.0
 10
-32.7008
 20
5.8919
 30
0.0
 10
-32.7008
 20
5.8919
 30
0.0
 10
-32.7008
 20
6.0574
 30
0.0
 10
-32.6402
 20
6.1981
 30
0.0
 10
-32.5183
 20
6.3143
 30
0.0
 10
-32.5183
 20
6.3143
 30
0.0
 10
-32.3965
 20
6.4304
 30
0.0
 10
-32.2394
 20
6.4888
 30
0.0
 10
-32.0466
 20
6.4888
 30
0.0
 10
-32.0466
 20
6.4888
 30
0.0
 10
-31.9196
 20
6.4888
 30
0.0
 10
-31.802
 20
6.461
 30
0.0
 10
-31.6928
 20
6.4064
 30
0.0
 10
-31.6928
 20
6.4064
 30
0.0
 10
-31.5842
 20
6.3519
 30
0.0
 10
-31.5005
 20
6.2766
 30
0.0
 10
-31.4426
 20
6.1811
 30
0.0
 10
-31.4426
 20
6.1811
 30
0.0
 10
-31.3848
 20
6.0857
 30
0.0
 10
-31.3561
 20
5.9775
 30
0.0
 10
-31.3561
 20
5.8561
 30
0.0
 10
-31.3561
 20
5.8561
 30
0.0
 10
-31.3561
 20
5.6492
 30
0.0
 10
-31.4318
 20
5.4808
 30
0.0
 10
-31.5842
 20
5.3505
 30
0.0
 10
-31.5842
 20
5.3505
 30
0.0
 10
-31.7361
 20
5.2197
 30
0.0
 10
-31.9868
 20
5.1548
 30
0.0
 10
-32.3358
 20
5.1548
 30
0.0
 10
-32.3358
 20
5.1548
 30
0.0
 10
-32.7262
 20
5.1548
 30
0.0
 10
-33.0099
 20
5.2268
 30
0.0
 10
-33.1872
 20
5.3712
 30
0.0
 10
-33.1872
 20
5.3712
 30
0.0
 10
-33.3415
 20
5.4968
 30
0.0
 10
-33.4191
 20
5.6661
 30
0.0
 10
-33.4191
 20
5.8796
 30
0.0
 10
-33.4191
 20
5.8796
 30
0.0
 10
-33.4191
 20
6.0382
 30
0.0
 10
-33.3744
 20
6.1684
 30
0.0
 10
-33.285
 20
6.27
 30
0.0
 10
-33.285
 20
6.27
 30
0.0
 10
-33.1961
 20
6.3716
 30
0.0
 10
-33.0729
 20
6.4323
 30
0.0
 10
-32.9158
 20
6.4525
 30
0.0
  0
SPLINE
  5
94
330
1F
100
AcDbEntity
  8
VRSTVA_1
 62
   250
100
AcDbSpline
210
0.0
220
0.0
230
1.0
 70
    11
 71
     3
 72
    40
 73
    36
 74
     0
 42
0.0000000001
 43
0.0000000001
 40
0.0
 40
0.0
 40
0.0
 40
0.0
 40
0.1
 40
0.1
 40
0.1
 40
0.1
 40
0.2
 40
0.2
 40
0.2
 40
0.2
 40
0.3
 40
0.3
 40
0.3
 40
0.3
 40
0.4
 40
0.4
 40
0.4
 40
0.4
 40
0.5
 40
0.5
 40
0.5
 40
0.5
 40
0.6
 40
0.6
 40
0.6
 40
0.6
 40
0.7
 40
0.7
 40
0.7
 40
0.7
 40
0.8
 40
0.8
 40
0.8
 40
0.8
 40
1.0
 40
1.0
 40
1.0
 40
1.0
 10
-32.0452
 20
5.4398
 30
0.0
 10
-31.9595
 20
5.4398
 30
0.0
 10
-31.8777
 20
5.4582
 30
0.0
 10
-31.7996
 20
5.4944
 30
0.0
 10
-31.7996
 20
5.4944
 30
0.0
 10
-31.7215
 20
5.5306
 30
0.0
 10
-31.6623
 20
5.5814
 30
0.0
 10
-31.6214
 20
5.6463
 30
0.0
 10
-31.6214
 20
5.6463
 30
0.0
 10
-31.5804
 20
5.7117
 30
0.0
 10
-31.5597
 20
5.7804
 30
0.0
 10
-31.5597
 20
5.8519
 30
0.0
 10
-31.5597
 20
5.8519
 30
0.0
 10
-31.5597
 20
5.9568
 30
0.0
 10
-31.6021
 20
6.0466
 30
0.0
 10
-31.6867
 20
6.1219
 30
0.0
 10
-31.6867
 20
6.1219
 30
0.0
 10
-31.7714
 20
6.1971
 30
0.0
 10
-31.8862
 20
6.2348
 30
0.0
 10
-32.031
 20
6.2348
 30
0.0
 10
-32.031
 20
6.2348
 30
0.0
 10
-32.1707
 20
6.2348
 30
0.0
 10
-32.2808
 20
6.1976
 30
0.0
 10
-32.3612
 20
6.1233
 30
0.0
 10
-32.3612
 20
6.1233
 30
0.0
 10
-32.4417
 20
6.049
 30
0.0
 10
-32.4817
 20
5.9554
 30
0.0
 10
-32.4817
 20
5.8425
 30
0.0
 10
-32.4817
 20
5.8425
 30
0.0
 10
-32.4817
 20
5.7301
 30
0.0
 10
-32.4417
 20
5.635
 30
0.0
 10
-32.3612
 20
5.557
 30
0.0
 10
-32.3612
 20
5.557
 30
0.0
 10
-32.2808
 20
5.4789
 30
0.0
 10
-32.1754
 20
5.4398
 30
0.0
 10
-32.0452
 20
5.4398
 30
0.0
  0
SPLINE
  5
95
330
1F
100
AcDbEntity
  8
VRSTVA_1
 62
   250
100
AcDbSpline
210
0.0
220
0.0
230
1.0
 70
    11
 71
     3
 72
    52
 73
    48
 74
     0
 42
0.0000000001
 43
0.0000000001
 40
0.0
 40
0.0
 40
0.0
 40
0.0
 40
0.0769230769230769
 40
0.0769230769230769
 40
0.0769230769230769
 40
0.0769230769230769
 40
0.1538461538461539
 40
0.1538461538461539
 40
0.1538461538461539
 40
0.1538461538461539
 40
0.2307692307692308
 40
0.2307692307692308
 40
0.2307692307692308
 40
0.2307692307692308
 40
0.3076923076923077
 40
0.3076923076923077
 40
0.3076923076923077
 40
0.3076923076923077
 40
0.3846153846153846
 40
0.3846153846153846
 40
0.3846153846153846
 40
0.3846153846153846
 40
0.4615384615384616
 40
0.4615384615384616
 40
0.4615384615384616
 40
0.4615384615384616
 40
0.5384615384615384
 40
0.5384615384615384
 40
0.5384615384615384
 40
0.5384615384615384
 40
0.6153846153846154
 40
0.6153846153846154
 40
0.6153846153846154
 40
0.6153846153846154
 40
0.6923076923076923
 40
0.6923076923076923
 40
0.6923076923076923
 40
0.6923076923076923
 40
0.7692307692307693
 40
0.7692307692307693
 40
0.7692307692307693
 40
0.7692307692307693
 40
0.8461538461538461
 40
0.8461538461538461
 40
0.8461538461538461
 40
0.8461538461538461
 40
1.0
 40
1.0
 40
1.0
 40
1.0
 10
-32.3866
 20
6.7352
 30
0.0
 10
-32.6256
 20
6.7352
 30
0.0
 10
-32.818
 20
6.7597
 30
0.0
 10
-32.9633
 20
6.8091
 30
0.0
 10
-32.9633
 20
6.8091
 30
0.0
 10
-33.1091
 20
6.858
 30
0.0
 10
-33.2215
 20
6.9314
 30
0.0
 10
-33.3006
 20
7.0283
 30
0.0
 10
-33.3006
 20
7.0283
 30
0.0
 10
-33.3796
 20
7.1252
 30
0.0
 10
-33.4191
 20
7.247
 30
0.0
 10
-33.4191
 20
7.3937
 30
0.0
 10
-33.4191
 20
7.3937
 30
0.0
 10
-33.4191
 20
7.5024
 30
0.0
 10
-33.397
 20
7.5974
 30
0.0
 10
-33.3532
 20
7.6792
 30
0.0
 10
-33.3532
 20
7.6792
 30
0.0
 10
-33.31
 20
7.7611
 30
0.0
 10
-33.2469
 20
7.8284
 30
0.0
 10
-33.1646
 20
7.882
 30
0.0
 10
-33.1646
 20
7.882
 30
0.0
 10
-33.0823
 20
7.9351
 30
0.0
 10
-32.9821
 20
7.977
 30
0.0
 10
-32.8641
 20
8.0071
 30
0.0
 10
-32.8641
 20
8.0071
 30
0.0
 10
-32.746
 20
8.0377
 30
0.0
 10
-32.587
 20
8.0527
 30
0.0
 10
-32.3866
 20
8.0527
 30
0.0
 10
-32.3866
 20
8.0527
 30
0.0
 10
-32.1496
 20
8.0527
 30
0.0
 10
-31.9586
 20
8.0283
 30
0.0
 10
-31.8128
 20
7.9798
 30
0.0
 10
-31.8128
 20
7.9798
 30
0.0
 10
-31.667
 20
7.9309
 30
0.0
 10
-31.5546
 20
7.858
 30
0.0
 10
-31.4751
 20
7.7611
 30
0.0
 10
-31.4751
 20
7.7611
 30
0.0
 10
-31.3956
 20
7.6642
 30
0.0
 10
-31.3561
 20
7.5419
 30
0.0
 10
-31.3561
 20
7.3937
 30
0.0
 10
-31.3561
 20
7.3937
 30
0.0
 10
-31.3561
 20
7.199
 30
0.0
 10
-31.4257
 20
7.0461
 30
0.0
 10
-31.5654
 20
6.9351
 30
0.0
 10
-31.5654
 20
6.9351
 30
0.0
 10
-31.7333
 20
6.802
 30
0.0
 10
-32.0075
 20
6.7352
 30
0.0
 10
-32.3866
 20
6.7352
 30
0.0
  0
SPLINE
  5
96
330
1F
100
AcDbEntity
  8
VRSTVA_1
 62
   250
100
AcDbSpline
210
0.0
220
0.0
230
1.0
 70
    11
 71
     3
 72
    36
 73
    32
 74
     0
 42
0.0000000001
 43
0.0000000001
 40
0.0
 40
0.0
 40
0.0
 40
0.0
 40
0.1111111111111111
 40
0.1111111111111111
 40
0.1111111111111111
 40
0.1111111111111111
 40
0.2222222222222222
 40
0.2222222222222222
 40
0.2222222222222222
 40
0.2222222222222222
 40
0.3333333333333333
 40
0.3333333333333333
 40
0.3333333333333333
 40
0.3333333333333333
 40
0.4444444444444444
 40
0.4444444444444444
 40
0.4444444444444444
 40
0.4444444444444444
 40
0.5555555555555556
 40
0.5555555555555556
 40
0.5555555555555556
 40
0.5555555555555556
 40
0.6666666666666666
 40
0.6666666666666666
 40
0.6666666666666666
 40
0.6666666666666666
 40
0.7777777777777778
 40
0.7777777777777778
 40
0.7777777777777778
 40
0.7777777777777778
 40
1.0
 40
1.0
 40
1.0
 40
1.0
 10
-32.3866
 20
6.9902
 30
0.0
 10
-32.055
 20
6.9902
 30
0.0
 10
-31.8344
 20
7.0292
 30
0.0
 10
-31.7244
 20
7.1068
 30
0.0
 10
-31.7244
 20
7.1068
 30
0.0
 10
-31.6148
 20
7.1844
 30
0.0
 10
-31.5597
 20
7.2799
 30
0.0
 10
-31.5597
 20
7.3937
 30
0.0
 10
-31.5597
 20
7.3937
 30
0.0
 10
-31.5597
 20
7.508
 30
0.0
 10
-31.6152
 20
7.6035
 30
0.0
 10
-31.7253
 20
7.6811
 30
0.0
 10
-31.7253
 20
7.6811
 30
0.0
 10
-31.8354
 20
7.7587
 30
0.0
 10
-32.056
 20
7.7978
 30
0.0
 10
-32.3866
 20
7.7978
 30
0.0
 10
-32.3866
 20
7.7978
 30
0.0
 10
-32.7192
 20
7.7978
 30
0.0
 10
-32.9403
 20
7.7587
 30
0.0
 10
-33.0494
 20
7.6811
 30
0.0
 10
-33.0494
 20
7.6811
 30
0.0
 10
-33.159
 20
7.6035
 30
0.0
 10
-33.2135
 20
7.5071
 30
0.0
 10
-33.2135
 20
7.3914
 30
0.0
 10
-33.2135
 20
7.3914
 30
0.0
 10
-33.2135
 20
7.2771
 30
0.0
 10
-33.1651
 20
7.1863
 30
0.0
 10
-33.0687
 20
7.1181
 30
0.0
 10
-33.0687
 20
7.1181
 30
0.0
 10
-32.9459
 20
7.033
 30
0.0
 10
-32.7182
 20
6.9902
 30
0.0
 10
-32.3866
 20
6.9902
 30
0.0
  0
SPLINE
  5
97
330
1F
100
AcDbEntity
  8
VRSTVA_1
 62
   250
100
AcDbSpline
210
0.0
220
0.0
230
1.0
 70
    11
 71
     3
 72
    20
 73
    16
 74
     0
 42
0.0000000001
 43
0.0000000001
 40
0.0
 40
0.0
 40
0.0
 40
0.0
 40
0.2
 40
0.2
 40
0.2
 40
0.2
 40
0.4
 40
0.4
 40
0.4
 40
0.4
 40
0.6
 40
0.6
 40
0.6
 40
0.6
 40
1.0
 40
1.0
 40
1.0
 40
1.0
 10
-30.779
 20
-24.766
 30
0.0
 10
-30.779
 20
-24.766
 30
0.0
 10
-30.3703
 20
-21.9668
 30
0.0
 10
-30.3703
 20
-21.9668
 30
0.0
 10
-30.3703
 20
-21.9668
 30
0.0
 10
-30.3703
 20
-21.9668
 30
0.0
 10
-31.2725
 20
-21.9668
 30
0.0
 10
-31.2725
 20
-21.9668
 30
0.0
 10
-31.2725
 20
-21.9668
 30
0.0
 10
-31.2725
 20
-21.9668
 30
0.0
 10
-30.7803
 20
-24.766
 30
0.0
 10
-30.7803
 20
-24.766
 30
0.0
 10
-30.7803
 20
-24.766
 30
0.0
 10
-30.7803
 20
-24.766
 30
0.0
 10
-30.779
 20
-24.766
 30
0.0
 10
-30.779
 20
-24.766
 30
0.0
  0
SPLINE
  5
98
330
1F
100
AcDbEntity
  8
VRSTVA_1
 62
   250
100
AcDbSpline
210
0.0
220
0.0
230
1.0
 70
    11
 71
     3
 72
    20
 73
    16
 74
     0
 42
0.0000000001
 43
0.0000000001
 40
0.0
 40
0.0
 40
0.0
 40
0.0
 40
0.2
 40
0.2
 40
0.2
 40
0.2
 40
0.4
 40
0.4
 40
0.4
 40
0.4
 40
0.6
 40
0.6
 40
0.6
 40
0.6
 40
1.0
 40
1.0
 40
1.0
 40
1.0
 10
-30.7975
 20
29.1918
 30
0.0
 10
-30.7975
 20
29.1918
 30
0.0
 10
-31.2062
 20
26.3926
 30
0.0
 10
-31.2062
 20
26.3926
 30
0.0
 10
-31.2062
 20
26.3926
 30
0.0
 10
-31.2062
 20
26.3926
 30
0.0
 10
-30.304
 20
26.3926
 30
0.0
 10
-30.304
 20
26.3926
 30
0.0
 10
-30.304
 20
26.3926
 30
0.0
 10
-30.304
 20
26.3926
 30
0.0
 10
-30.7963
 20
29.1918
 30
0.0
 10
-30.7963
 20
29.1918
 30
0.0
 10
-30.7963
 20
29.1918
 30
0.0
 10
-30.7963
 20
29.1918
 30
0.0
 10
-30.7975
 20
29.1918
 30
0.0
 10
-30.7975
 20
29.1918
 30
0.0
  0
SPLINE
  5
99
330
1F
100
AcDbEntity
  8
VRSTVA_1
 62
   250
100
AcDbSpline
210
0.0
220
0.0
230
1.0
 70
    24
 71
     3
 72
     8
 73
     4
 74
     0
 42
0.0000000001
 43
0.0000000001
 40
0.0
 40
0.0
 40
0.0
 40
0.0
 40
1.0
 40
1.0
 40
1.0
 40
1.0
 10
-30.8171
 20
29.0473
 30
0.0
 10
-30.8171
 20
29.0473
 30
0.0
 10
-30.8171
 20
-23.5962
 30
0.0
 10
-30.8171
 20
-23.5962
 30
0.0
  0
SPLINE
  5
9A
330
1F
100
AcDbEntity
  8
VRSTVA_1
 62
   250
100
AcDbSpline
210
0.0
220
0.0
230
1.0
 70
    24
 71
     3
 72
     8
 73
     4
 74
     0
 42
0.0000000001
 43
0.0000000001
 40
0.0
 40
0.0
 40
0.0
 40
0.0
 40
1.0
 40
1.0
 40
1.0
 40
1.0
 10
-9.5778
 20
-24.8942
 30
0.0
 10
-9.5778
 20
-24.8942
 30
0.0
 10
-31.9653
 20
-24.8942
 30
0.0
 10
-31.9653
 20
-24.8942
 30
0.0
  0
SPLINE
  5
9B
330
1F
100
AcDbEntity
  8
VRSTVA_1
 62
   250
100
AcDbSpline
210
0.0
220
0.0
230
1.0
 70
    24
 71
     3
 72
     8
 73
     4
 74
     0
 42
0.0000000001
 43
0.0000000001
 40
0.0
 40
0.0
 40
0.0
 40
0.0
 40
1.0
 40
1.0
 40
1.0
 40
1.0
 10
-24.7976
 20
29.3098
 30
0.0
 10
-24.7976
 20
29.3098
 30
0.0
 10
-31.3337
 20
29.3098
 30
0.0
 10
-31.3337
 20
29.3098
 30
0.0
  0
ENDSEC
  0
SECTION
  2
OBJECTS
  0
DICTIONARY
  5
C
330
0
100
AcDbDictionary
  3
ACAD_GROUP
350
D
  3
ACAD_LAYOUT
350
1A
  3
ACAD_MATERIAL
350
3B
  3
ACAD_MLEADERSTYLE
350
BE
  3
ACAD_MLINESTYLE
350
17
  3
ACAD_PLOTSETTINGS
350
19
  3
ACAD_VISUALSTYLE
350
2A
  3
ACDBHEADERROUNDTRIPXREC
350
9C
  3
ACDBVARIABLEDICTIONARY
350
BC
  0
DICTIONARY
  5
D
102
{ACAD_REACTORS
330
C
102
}
330
C
100
AcDbDictionary
  0
DICTIONARY
  5
1A
102
{ACAD_REACTORS
330
C
102
}
330
C
100
AcDbDictionary
  0
DICTIONARY
  5
3B
102
{ACAD_REACTORS
330
C
102
}
330
C
100
AcDbDictionary
  3
BYBLOCK
350
3D
  3
BYLAYER
350
3C
  3
GLOBAL
350
3E
  0
DICTIONARY
  5
BE
102
{ACAD_REACTORS
330
C
102
}
330
C
100
AcDbDictionary
  0
DICTIONARY
  5
17
102
{ACAD_REACTORS
330
C
102
}
330
C
100
AcDbDictionary
  3
STANDARD
350
18
  0
DICTIONARY
  5
19
102
{ACAD_REACTORS
330
C
102
}
330
C
100
AcDbDictionary
  0
DICTIONARY
  5
2A
102
{ACAD_REACTORS
330
C
102
}
330
C
100
AcDbDictionary
  3
2DWIREFRAME
350
2F
  3
3D_HIDDEN
350
31
  3
3DWIREFRAME
350
30
  3
BASIC
350
32
  3
BRIGHTEN
350
36
  3
COLORCHANGE
350
3A
  3
CONCEPTUAL
350
34
  3
DIM
350
35
  3
FACEPATTERN
350
39
  3
FLAT
350
2B
  3
FLATWITHEDGES
350
2C
  3
GOURAUD
350
2D
  3
GOURAUDWITHEDGES
350
2E
  3
LINEPATTERN
350
38
  3
REALISTIC
350
33
  3
THICKEN
350
37
  0
DICTIONARY
  5
9C
102
{ACAD_REACTORS
330
C
102
}
330
C
100
AcDbDictionary
  3
CEPSNTYPE
350
A5
  3
DIMSTYLEDATA
350
BB
  3
FINGERPRINTGUID
350
A6
  3
HYPERLINKBASE
350
9F
  3
INSUNITS
350
A4
  3
LAYOUTDICT
350
A1
  3
LWETCUNION
350
A3
  3
PLOTSETDICT
350
A2
  3
PSVPSCALE
350
A8
  3
PUCSBASE
350
AB
  3
PUCSORGBACK
350
B1
  3
PUCSORGBOTTOM
350
AD
  3
PUCSORGFRONT
350
B0
  3
PUCSORGLEFT
350
AE
  3
PUCSORGRIGHT
350
AF
  3
PUCSORGTOP
350
AC
  3
PUCSORTHOREF
350
A9
  3
PUCSORTHOVIEW
350
AA
  3
STYLESHEET
350
A0
  3
TSTACKALIGN
350
9D
  3
TSTACKSIZE
350
9E
  3
UCSBASE
350
B4
  3
UCSORGBACK
350
BA
  3
UCSORGBOTTOM
350
B6
  3
UCSORGFRONT
350
B9
  3
UCSORGLEFT
350
B7
  3
UCSORGRIGHT
350
B8
  3
UCSORGTOP
350
B5
  3
UCSORTHOREF
350
B2
  3
UCSORTHOVIEW
350
B3
  3
VERSIONGUID
350
A7
  0
DICTIONARY
  5
BC
102
{ACAD_REACTORS
330
C
102
}
330
C
100
AcDbDictionary
  3
DIMASSOC
350
BF
  3
HIDETEXT
350
C0
  0
MATERIAL
  5
3D
102
{ACAD_REACTORS
330
3B
102
}
102
{ACAD_XDICTIONARY
360
C3
102
}
330
3B
100
AcDbMaterial
  1
ByBlock
  0
MATERIAL
  5
3C
102
{ACAD_REACTORS
330
3B
102
}
102
{ACAD_XDICTIONARY
360
C1
102
}
330
3B
100
AcDbMaterial
  1
ByLayer
  0
MATERIAL
  5
3E
102
{ACAD_REACTORS
330
3B
102
}
102
{ACAD_XDICTIONARY
360
C5
102
}
330
3B
100
AcDbMaterial
  1
Global
  0
MLINESTYLE
  5
18
102
{ACAD_REACTORS
330
17
102
}
330
17
100
AcDbMlineStyle
  2
Standard
 70
     0
  3

 62
   256
 51
90.0
 52
90.0
 71
     2
 49
0.5
 62
   256
  6
BYLAYER
 49
-0.5
 62
   256
  6
BYLAYER
  0
ACAD_PROXY_OBJECT
  5
2F
102
{ACAD_REACTORS
330
2A
102
}
330
2A
100
AcDbProxyObject
 90
      499
 91
      501
 93
      436
310
42CC9915DA5C99599C985B595049028333333333333E3BF0000000000000FB0107901411070040501600405405064090741402480A0340
1001
ACAD
1000
AcDbSavedByObjectVersion
1070
     0
  0
ACAD_PROXY_OBJECT
  5
31
102
{ACAD_REACTORS
330
2A
102
}
330
2A
100
AcDbProxyObject
 90
      499
 91
      501
 93
      500
310
424CD108121A5919195B90640502408333333333333E3BF0000000000000FB01079024090700405020000000000001110200405405064090740C02480A0340
1001
ACAD
1000
AcDbSavedByObjectVersion
1070
     0
  0
ACAD_PROXY_OBJECT
  5
30
102
{ACAD_REACTORS
330
2A
102
}
330
2A
100
AcDbProxyObject
 90
      499
 91
      501
 93
      436
310
42CCD915DA5C99599C985B595059028333333333333E3BF0000000000000FB0107901411070040501600405405064090741402480A0340
1001
ACAD
1000
AcDbSavedByObjectVersion
1070
     0
  0
ACAD_PROXY_OBJECT
  5
32
102
{ACAD_REACTORS
330
2A
102
}
330
2A
100
AcDbProxyObject
 90
      499
 91
      501
 93
      388
310
4150985CDA58D07406404333333333333E3BF0000000000000FB0107A41107004050150841D405064090741402480A0350
1001
ACAD
1000
AcDbSavedByObjectVersion
1070
     0
  0
ACAD_PROXY_OBJECT
  5
36
102
{ACAD_REACTORS
330
2A
102
}
330
2A
100
AcDbProxyObject
 90
      499
 91
      501
 93
      428
310
42109C9A59DA1D195B90C409028333333333333E3BF0000000000000FB010790141107004050150841D405064090741402480A029950
1001
ACAD
1000
AcDbSavedByObjectVersion
1070
     0
  0
ACAD_PROXY_OBJECT
  5
3A
102
{ACAD_REACTORS
330
2A
102
}
330
2A
100
AcDbProxyObject
 90
      499
 91
      501
 93
      452
310
42D0DBDB1BDC90DA185B99D95104090240C333333333333E3BF0000000000000FB0108901411070040501508421405064090741402480A0350
1001
ACAD
1000
AcDbSavedByObjectVersion
1070
     0
  0
ACAD_PROXY_OBJECT
  5
34
102
{ACAD_REACTORS
330
2A
102
}
330
2A
100
AcDbProxyObject
 90
      499
 91
      501
 93
      500
310
4290DBDB98D95C1D1D585B10940D028333333333333E3BF0000000000000FB0107902409070040501000000000000111010841D405064090740C02480A0340
1001
ACAD
1000
AcDbSavedByObjectVersion
1070
     0
  0
ACAD_PROXY_OBJECT
  5
35
102
{ACAD_REACTORS
330
2A
102
}
330
2A
100
AcDbProxyObject
 90
      499
 91
      501
 93
      412
310
40D11A5B50B409028333333333333E3BF0000000000000FB010790141107004050150841D405064090741402480A02677FFFFFD0
1001
ACAD
1000
AcDbSavedByObjectVersion
1070
     0
  0
ACAD_PROXY_OBJECT
  5
39
102
{ACAD_REACTORS
330
2A
102
}
330
2A
100
AcDbProxyObject
 90
      499
 91
      501
 93
      444
310
42D19858D95C185D1D195C9B90F409028333333333333E3BF0000000000000FB010790141107004050150841D405064090741402480A0350
1001
ACAD
1000
AcDbSavedByObjectVersion
1070
     0
  0
ACAD_PROXY_OBJECT
  5
2B
102
{ACAD_REACTORS
330
2A
102
}
330
2A
100
AcDbProxyObject
 90
      499
 91
      501
 93
      388
310
41119B185D240901404333333333333E3BF0000000000000F9010740A41107004050150841D405064090741402480A1B50
1001
ACAD
1000
AcDbSavedByObjectVersion
1070
     0
  0
ACAD_PROXY_OBJECT
  5
2C
102
{ACAD_REACTORS
330
2A
102
}
330
2A
100
AcDbProxyObject
 90
      499
 91
      501
 93
      476
310
43519B185D15DA5D1A115919D95CD0140901404333333333333E3BF0000000000000F9010740901411070040501600405405064090741402480A1B50
1001
ACAD
1000
AcDbSavedByObjectVersion
1070
     0
  0
ACAD_PROXY_OBJECT
  5
2D
102
{ACAD_REACTORS
330
2A
102
}
330
2A
100
AcDbProxyObject
 90
      499
 91
      501
 93
      412
310
41D1DBDD5C985D5910240902404333333333333E3BF0000000000000F9010740A411070040501641D405064090741402480A1B50
1001
ACAD
1000
AcDbSavedByObjectVersion
1070
     0
  0
ACAD_PROXY_OBJECT
  5
2E
102
{ACAD_REACTORS
330
2A
102
}
330
2A
100
AcDbProxyObject
 90
      499
 91
      501
 93
      500
310
4411DBDD5C985D5915DA5D1A115919D95CD0340902404333333333333E3BF0000000000000F9010740901411070040501600405405064090741402480A1B50
1001
ACAD
1000
AcDbSavedByObjectVersion
1070
     0
  0
ACAD_PROXY_OBJECT
  5
38
102
{ACAD_REACTORS
330
2A
102
}
330
2A
100
AcDbProxyObject
 90
      499
 91
      501
 93
      444
310
42D31A5B995C185D1D195C9B90E409028333333333333E3BF0000000000000FB010790141107004050750841D405064090741402483A0350
1001
ACAD
1000
AcDbSavedByObjectVersion
1070
     0
  0
ACAD_PROXY_OBJECT
  5
33
102
{ACAD_REACTORS
330
2A
102
}
330
2A
100
AcDbProxyObject
 90
      499
 91
      501
 93
      420
310
425499585B1A5CDD1A58D08409028333333333333E3BF0000000000000FB01079019070040501508421405064090741402480A1B40
1001
ACAD
1000
AcDbSavedByObjectVersion
1070
     0
  0
ACAD_PROXY_OBJECT
  5
37
102
{ACAD_REACTORS
330
2A
102
}
330
2A
100
AcDbProxyObject
 90
      499
 91
      501
 93
      412
310
41D51A1A58DAD95B90D409028333333333333E3BF0000000000000FB010790141107004050150C41D405064090741402480A0350
1001
ACAD
1000
AcDbSavedByObjectVersion
1070
     0
  0
XRECORD
  5
A5
102
{ACAD_REACTORS
330
9C
102
}
330
9C
100
AcDbXrecord
 90
        0
  0
XRECORD
  5
BB
102
{ACAD_REACTORS
330
9C
102
}
330
9C
100
AcDbXrecord
1000
DSTYLE
1002
{
1070
   340
340
11
1002
}
  0
XRECORD
  5
A6
102
{ACAD_REACTORS
330
9C
102
}
330
9C
100
AcDbXrecord
  1
{B456BBCD-A15F-46FB-832F-24C404EA405F}
  0
XRECORD
  5
9F
102
{ACAD_REACTORS
330
9C
102
}
330
9C
100
AcDbXrecord
  1

  0
XRECORD
  5
A4
102
{ACAD_REACTORS
330
9C
102
}
330
9C
100
AcDbXrecord
 90
        4
  0
XRECORD
  5
A1
102
{ACAD_REACTORS
330
9C
102
}
330
9C
100
AcDbXrecord
340
1A
  0
XRECORD
  5
A3
102
{ACAD_REACTORS
330
9C
102
}
330
9C
100
AcDbXrecord
 90
    10781
  0
XRECORD
  5
A2
102
{ACAD_REACTORS
330
9C
102
}
330
9C
100
AcDbXrecord
340
19
  0
XRECORD
  5
A8
102
{ACAD_REACTORS
330
9C
102
}
330
9C
100
AcDbXrecord
 40
0.0
  0
XRECORD
  5
AB
102
{ACAD_REACTORS
330
9C
102
}
330
9C
100
AcDbXrecord
340
0
  0
XRECORD
  5
B1
102
{ACAD_REACTORS
330
9C
102
}
330
9C
100
AcDbXrecord
 10
0.0
 20
0.0
 30
0.0
  0
XRECORD
  5
AD
102
{ACAD_REACTORS
330
9C
102
}
330
9C
100
AcDbXrecord
 10
0.0
 20
0.0
 30
0.0
  0
XRECORD
  5
B0
102
{ACAD_REACTORS
330
9C
102
}
330
9C
100
AcDbXrecord
 10
0.0
 20
0.0
 30
0.0
  0
XRECORD
  5
AE
102
{ACAD_REACTORS
330
9C
102
}
330
9C
100
AcDbXrecord
 10
0.0
 20
0.0
 30
0.0
  0
XRECORD
  5
AF
102
{ACAD_REACTORS
330
9C
102
}
330
9C
100
AcDbXrecord
 10
0.0
 20
0.0
 30
0.0
  0
XRECORD
  5
AC
102
{ACAD_REACTORS
330
9C
102
}
330
9C
100
AcDbXrecord
 10
0.0
 20
0.0
 30
0.0
  0
XRECORD
  5
A9
102
{ACAD_REACTORS
330
9C
102
}
330
9C
100
AcDbXrecord
340
0
  0
XRECORD
  5
AA
102
{ACAD_REACTORS
330
9C
102
}
330
9C
100
AcDbXrecord
 70
     0
  0
XRECORD
  5
A0
102
{ACAD_REACTORS
330
9C
102
}
330
9C
100
AcDbXrecord
  1

  0
XRECORD
  5
9D
102
{ACAD_REACTORS
330
9C
102
}
330
9C
100
AcDbXrecord
 90
        1
  0
XRECORD
  5
9E
102
{ACAD_REACTORS
330
9C
102
}
330
9C
100
AcDbXrecord
 90
       70
  0
XRECORD
  5
B4
102
{ACAD_REACTORS
330
9C
102
}
330
9C
100
AcDbXrecord
340
0
  0
XRECORD
  5
BA
102
{ACAD_REACTORS
330
9C
102
}
330
9C
100
AcDbXrecord
 10
0.0
 20
0.0
 30
0.0
  0
XRECORD
  5
B6
102
{ACAD_REACTORS
330
9C
102
}
330
9C
100
AcDbXrecord
 10
0.0
 20
0.0
 30
0.0
  0
XRECORD
  5
B9
102
{ACAD_REACTORS
330
9C
102
}
330
9C
100
AcDbXrecord
 10
0.0
 20
0.0
 30
0.0
  0
XRECORD
  5
B7
102
{ACAD_REACTORS
330
9C
102
}
330
9C
100
AcDbXrecord
 10
0.0
 20
0.0
 30
0.0
  0
XRECORD
  5
B8
102
{ACAD_REACTORS
330
9C
102
}
330
9C
100
AcDbXrecord
 10
0.0
 20
0.0
 30
0.0
  0
XRECORD
  5
B5
102
{ACAD_REACTORS
330
9C
102
}
330
9C
100
AcDbXrecord
 10
0.0
 20
0.0
 30
0.0
  0
XRECORD
  5
B2
102
{ACAD_REACTORS
330
9C
102
}
330
9C
100
AcDbXrecord
340
0
  0
XRECORD
  5
B3
102
{ACAD_REACTORS
330
9C
102
}
330
9C
100
AcDbXrecord
 70
     0
  0
XRECORD
  5
A7
102
{ACAD_REACTORS
330
9C
102
}
330
9C
100
AcDbXrecord
  1
{FAEB1C32-E019-11D5-929B-00C0DF256EC4}
  0
DICTIONARYVAR
  5
BF
102
{ACAD_REACTORS
330
BC
102
}
330
BC
100
DictionaryVariables
280
     0
  1
2
  0
DICTIONARYVAR
  5
C0
102
{ACAD_REACTORS
330
BC
102
}
330
BC
100
DictionaryVariables
280
     0
  1
1
  0
DICTIONARY
  5
C3
330
3D
100
AcDbDictionary
280
     1
  3
ACAD_XREC_ROUNDTRIP
360
C4
  0
DICTIONARY
  5
C1
330
3C
100
AcDbDictionary
280
     1
  3
ACAD_XREC_ROUNDTRIP
360
C2
  0
DICTIONARY
  5
C5
330
3E
100
AcDbDictionary
280
     1
  3
ACAD_XREC_ROUNDTRIP
360
C6
  0
XRECORD
  5
C4
102
{ACAD_REACTORS
330
C3
102
}
330
C3
100
AcDbXrecord
102
MATERIAL
148
0.0
149
0.0
149
0.0
 93
        0
 94
      127
282
     0
 72
     1
 77
     1
171
     1
175
     1
179
     1
273
     0
  0
XRECORD
  5
C2
102
{ACAD_REACTORS
330
C1
102
}
330
C1
100
AcDbXrecord
102
MATERIAL
148
0.0
149
0.0
149
0.0
 93
        0
 94
      127
282
     0
 72
     1
 77
     1
171
     1
175
     1
179
     1
273
     0
  0
XRECORD
  5
C6
102
{ACAD_REACTORS
330
C5
102
}
330
C5
100
AcDbXrecord
102
MATERIAL
148
0.0
149
0.0
149
0.0
 93
        0
 94
      127
282
     0
 72
     1
 77
     1
171
     1
175
     1
179
     1
273
     0
  0
ENDSEC
  0
EOF
