  0
SECTION
  2
HEADER
  9
$ACADVER
  1
AC1015
  9
$ACADMAINTVER
 70
     6
  9
$DWGCODEPAGE
  3
ANSI_1250
  9
$INSBASE
 10
0.0
 20
0.0
 30
0.0
  9
$EXTMIN
 10
-22.331
 20
-33.5414
 30
0.0
  9
$EXTMAX
 10
22.3309
 20
33.5415
 30
0.0
  9
$LIMMIN
 10
0.0
 20
0.0
  9
$LIMMAX
 10
12.0
 20
9.0
  9
$ORTHOMODE
 70
     0
  9
$REGENMODE
 70
     1
  9
$FILLMODE
 70
     1
  9
$QTEXTMODE
 70
     0
  9
$MIRRTEXT
 70
     1
  9
$LTSCALE
 40
1.0
  9
$ATTMODE
 70
     1
  9
$TEXTSIZE
 40
0.2
  9
$TRACEWID
 40
0.05
  9
$TEXTSTYLE
  7
Standard
  9
$CLAYER
  8
0
  9
$CELTYPE
  6
ByLayer
  9
$CECOLOR
 62
   256
  9
$CELTSCALE
 40
1.0
  9
$DISPSILH
 70
     0
  9
$DIMSCALE
 40
1.0
  9
$DIMASZ
 40
0.18
  9
$DIMEXO
 40
0.0625
  9
$DIMDLI
 40
0.38
  9
$DIMRND
 40
0.0
  9
$DIMDLE
 40
0.0
  9
$DIMEXE
 40
0.18
  9
$DIMTP
 40
0.0
  9
$DIMTM
 40
0.0
  9
$DIMTXT
 40
0.18
  9
$DIMCEN
 40
0.09
  9
$DIMTSZ
 40
0.0
  9
$DIMTOL
 70
     0
  9
$DIMLIM
 70
     0
  9
$DIMTIH
 70
     1
  9
$DIMTOH
 70
     1
  9
$DIMSE1
 70
     0
  9
$DIMSE2
 70
     0
  9
$DIMTAD
 70
     0
  9
$DIMZIN
 70
     0
  9
$DIMBLK
  1

  9
$DIMASO
 70
     1
  9
$DIMSHO
 70
     1
  9
$DIMPOST
  1

  9
$DIMAPOST
  1

  9
$DIMALT
 70
     0
  9
$DIMALTD
 70
     2
  9
$DIMALTF
 40
25.4
  9
$DIMLFAC
 40
1.0
  9
$DIMTOFL
 70
     0
  9
$DIMTVP
 40
0.0
  9
$DIMTIX
 70
     0
  9
$DIMSOXD
 70
     0
  9
$DIMSAH
 70
     0
  9
$DIMBLK1
  1

  9
$DIMBLK2
  1

  9
$DIMSTYLE
  2
Standard
  9
$DIMCLRD
 70
     0
  9
$DIMCLRE
 70
     0
  9
$DIMCLRT
 70
     0
  9
$DIMTFAC
 40
1.0
  9
$DIMGAP
 40
0.09
  9
$DIMJUST
 70
     0
  9
$DIMSD1
 70
     0
  9
$DIMSD2
 70
     0
  9
$DIMTOLJ
 70
     1
  9
$DIMTZIN
 70
     0
  9
$DIMALTZ
 70
     0
  9
$DIMALTTZ
 70
     0
  9
$DIMUPT
 70
     0
  9
$DIMDEC
 70
     4
  9
$DIMTDEC
 70
     4
  9
$DIMALTU
 70
     2
  9
$DIMALTTD
 70
     2
  9
$DIMTXSTY
  7
Standard
  9
$DIMAUNIT
 70
     0
  9
$DIMADEC
 70
     0
  9
$DIMALTRND
 40
0.0
  9
$DIMAZIN
 70
     0
  9
$DIMDSEP
 70
    46
  9
$DIMATFIT
 70
     3
  9
$DIMFRAC
 70
     0
  9
$DIMLDRBLK
  1

  9
$DIMLUNIT
 70
     2
  9
$DIMLWD
 70
    -2
  9
$DIMLWE
 70
    -2
  9
$DIMTMOVE
 70
     0
  9
$LUNITS
 70
     2
  9
$LUPREC
 70
     4
  9
$SKETCHINC
 40
0.1
  9
$FILLETRAD
 40
0.5
  9
$AUNITS
 70
     0
  9
$AUPREC
 70
     0
  9
$MENU
  1
.
  9
$ELEVATION
 40
0.0
  9
$PELEVATION
 40
0.0
  9
$THICKNESS
 40
0.0
  9
$LIMCHECK
 70
     0
  9
$CHAMFERA
 40
0.5
  9
$CHAMFERB
 40
0.5
  9
$CHAMFERC
 40
1.0
  9
$CHAMFERD
 40
0.0
  9
$SKPOLY
 70
     0
  9
$TDCREATE
 40
2458187.582370775
  9
$TDUCREATE
 40
2458187.540704109
  9
$TDUPDATE
 40
2458187.582370787
  9
$TDUUPDATE
 40
2458187.54070412
  9
$TDINDWG
 40
0.0000000116
  9
$TDUSRTIMER
 40
0.0000000116
  9
$USRTIMER
 70
     1
  9
$ANGBASE
 50
0.0
  9
$ANGDIR
 70
     0
  9
$PDMODE
 70
     0
  9
$PDSIZE
 40
0.0
  9
$PLINEWID
 40
0.0
  9
$SPLFRAME
 70
     0
  9
$SPLINETYPE
 70
     6
  9
$SPLINESEGS
 70
     8
  9
$HANDSEED
  5
E5
  9
$SURFTAB1
 70
     6
  9
$SURFTAB2
 70
     6
  9
$SURFTYPE
 70
     6
  9
$SURFU
 70
     6
  9
$SURFV
 70
     6
  9
$UCSBASE
  2

  9
$UCSNAME
  2

  9
$UCSORG
 10
0.0
 20
0.0
 30
0.0
  9
$UCSXDIR
 10
1.0
 20
0.0
 30
0.0
  9
$UCSYDIR
 10
0.0
 20
1.0
 30
0.0
  9
$UCSORTHOREF
  2

  9
$UCSORTHOVIEW
 70
     0
  9
$UCSORGTOP
 10
0.0
 20
0.0
 30
0.0
  9
$UCSORGBOTTOM
 10
0.0
 20
0.0
 30
0.0
  9
$UCSORGLEFT
 10
0.0
 20
0.0
 30
0.0
  9
$UCSORGRIGHT
 10
0.0
 20
0.0
 30
0.0
  9
$UCSORGFRONT
 10
0.0
 20
0.0
 30
0.0
  9
$UCSORGBACK
 10
0.0
 20
0.0
 30
0.0
  9
$PUCSBASE
  2

  9
$PUCSNAME
  2

  9
$PUCSORG
 10
0.0
 20
0.0
 30
0.0
  9
$PUCSXDIR
 10
1.0
 20
0.0
 30
0.0
  9
$PUCSYDIR
 10
0.0
 20
1.0
 30
0.0
  9
$PUCSORTHOREF
  2

  9
$PUCSORTHOVIEW
 70
     0
  9
$PUCSORGTOP
 10
0.0
 20
0.0
 30
0.0
  9
$PUCSORGBOTTOM
 10
0.0
 20
0.0
 30
0.0
  9
$PUCSORGLEFT
 10
0.0
 20
0.0
 30
0.0
  9
$PUCSORGRIGHT
 10
0.0
 20
0.0
 30
0.0
  9
$PUCSORGFRONT
 10
0.0
 20
0.0
 30
0.0
  9
$PUCSORGBACK
 10
0.0
 20
0.0
 30
0.0
  9
$USERI1
 70
     0
  9
$USERI2
 70
     0
  9
$USERI3
 70
     0
  9
$USERI4
 70
     0
  9
$USERI5
 70
     0
  9
$USERR1
 40
0.0
  9
$USERR2
 40
0.0
  9
$USERR3
 40
0.0
  9
$USERR4
 40
0.0
  9
$USERR5
 40
0.0
  9
$WORLDVIEW
 70
     1
  9
$SHADEDGE
 70
     3
  9
$SHADEDIF
 70
    70
  9
$TILEMODE
 70
     1
  9
$MAXACTVP
 70
    64
  9
$PINSBASE
 10
0.0
 20
0.0
 30
0.0
  9
$PLIMCHECK
 70
     0
  9
$PEXTMIN
 10
1.000000000000000E+20
 20
1.000000000000000E+20
 30
1.000000000000000E+20
  9
$PEXTMAX
 10
-1.000000000000000E+20
 20
-1.000000000000000E+20
 30
-1.000000000000000E+20
  9
$PLIMMIN
 10
0.0
 20
0.0
  9
$PLIMMAX
 10
12.0
 20
9.0
  9
$UNITMODE
 70
     0
  9
$VISRETAIN
 70
     1
  9
$PLINEGEN
 70
     0
  9
$PSLTSCALE
 70
     1
  9
$TREEDEPTH
 70
  3020
  9
$CMLSTYLE
  2
Standard
  9
$CMLJUST
 70
     0
  9
$CMLSCALE
 40
1.0
  9
$PROXYGRAPHICS
 70
     1
  9
$MEASUREMENT
 70
     0
  9
$CELWEIGHT
370
    -1
  9
$ENDCAPS
280
     0
  9
$JOINSTYLE
280
     0
  9
$LWDISPLAY
290
     0
  9
$INSUNITS
 70
     4
  9
$HYPERLINKBASE
  1

  9
$STYLESHEET
  1

  9
$XEDIT
290
     1
  9
$CEPSNTYPE
380
     0
  9
$PSTYLEMODE
290
     1
  9
$FINGERPRINTGUID
  2
{FA5351B4-C946-48F5-B515-7CA18A8EFDC3}
  9
$VERSIONGUID
  2
{FAEB1C32-E019-11D5-929B-00C0DF256EC4}
  9
$EXTNAMES
290
     1
  9
$PSVPSCALE
 40
0.0
  9
$OLESTARTUP
290
     0
  0
ENDSEC
  0
SECTION
  2
CLASSES
  0
CLASS
  1
ACDBDICTIONARYWDFLT
  2
AcDbDictionaryWithDefault
  3
ObjectDBX Classes
 90
        0
280
     0
281
     0
  0
CLASS
  1
VISUALSTYLE
  2
AcDbVisualStyle
  3
ObjectDBX Classes
 90
     4095
280
     0
281
     0
  0
CLASS
  1
MATERIAL
  2
AcDbMaterial
  3
ObjectDBX Classes
 90
     1153
280
     0
281
     0
  0
CLASS
  1
DICTIONARYVAR
  2
AcDbDictionaryVar
  3
ObjectDBX Classes
 90
        0
280
     0
281
     0
  0
CLASS
  1
ACDBPLACEHOLDER
  2
AcDbPlaceHolder
  3
ObjectDBX Classes
 90
        0
280
     0
281
     0
  0
CLASS
  1
LAYOUT
  2
AcDbLayout
  3
ObjectDBX Classes
 90
        0
280
     0
281
     0
  0
ENDSEC
  0
SECTION
  2
TABLES
  0
TABLE
  2
VPORT
  5
8
330
0
100
AcDbSymbolTable
 70
     1
  0
VPORT
  5
29
330
8
100
AcDbSymbolTableRecord
100
AcDbViewportTableRecord
  2
*Active
 70
     0
 10
0.0
 20
0.0
 11
1.0
 21
1.0
 12
10.42990654205607
 22
4.5
 13
0.0
 23
0.0
 14
0.5
 24
0.5
 15
0.5
 25
0.5
 16
0.0
 26
0.0
 36
1.0
 17
0.0
 27
0.0
 37
0.0
 40
9.0
 41
1.972972972850329
 42
50.0
 43
0.0
 44
0.0
 50
0.0
 51
0.0
 71
     0
 72
   100
 73
     1
 74
     3
 75
     0
 76
     0
 77
     0
 78
     0
281
     0
 65
     1
110
0.0
120
0.0
130
0.0
111
1.0
121
0.0
131
0.0
112
0.0
122
1.0
132
0.0
 79
     0
146
0.0
  0
ENDTAB
  0
TABLE
  2
LTYPE
  5
5
330
0
100
AcDbSymbolTable
 70
     2
  0
LTYPE
  5
14
330
5
100
AcDbSymbolTableRecord
100
AcDbLinetypeTableRecord
  2
ByBlock
 70
     0
  3

 72
    65
 73
     0
 40
0.0
  0
LTYPE
  5
15
330
5
100
AcDbSymbolTableRecord
100
AcDbLinetypeTableRecord
  2
ByLayer
 70
     0
  3

 72
    65
 73
     0
 40
0.0
  0
LTYPE
  5
16
330
5
100
AcDbSymbolTableRecord
100
AcDbLinetypeTableRecord
  2
Continuous
 70
     0
  3
Solid line
 72
    65
 73
     0
 40
0.0
  0
LTYPE
  5
5A
330
5
100
AcDbSymbolTableRecord
100
AcDbLinetypeTableRecord
  2
New Line1
 70
     0
  3

 72
    65
 73
     4
 40
1.2
 49
0.5
 74
     4
 75
     0
340
0
 46
1.0
 50
0.0
 44
0.0
 45
0.0
 49
-0.3
 74
     4
 75
     0
340
0
 46
1.0
 50
0.0
 44
0.0
 45
0.0
 49
0.1
 74
     4
 75
     0
340
0
 46
1.0
 50
0.0
 44
0.0
 45
0.0
 49
-0.3
 74
     4
 75
     0
340
0
 46
1.0
 50
0.0
 44
0.0
 45
0.0
  0
ENDTAB
  0
TABLE
  2
LAYER
  5
2
330
0
100
AcDbSymbolTable
 70
     2
  0
LAYER
  5
10
330
2
100
AcDbSymbolTableRecord
100
AcDbLayerTableRecord
  2
0
 70
     0
 62
     7
  6
Continuous
370
    -3
390
F
  0
LAYER
  5
40
330
2
100
AcDbSymbolTableRecord
100
AcDbLayerTableRecord
  2
DEFAULT_1
 70
     0
 62
     7
  6
Continuous
370
    -3
390
F
  0
ENDTAB
  0
TABLE
  2
STYLE
  5
3
330
0
100
AcDbSymbolTable
 70
     1
  0
STYLE
  5
11
330
3
100
AcDbSymbolTableRecord
100
AcDbTextStyleTableRecord
  2
Standard
 70
     0
 40
0.0
 41
1.0
 50
0.0
 71
     0
 42
0.2
  3
txt
  4

  0
ENDTAB
  0
TABLE
  2
VIEW
  5
6
330
0
100
AcDbSymbolTable
 70
     0
  0
ENDTAB
  0
TABLE
  2
UCS
  5
7
330
0
100
AcDbSymbolTable
 70
     0
  0
ENDTAB
  0
TABLE
  2
APPID
  5
9
330
0
100
AcDbSymbolTable
 70
     2
  0
APPID
  5
12
330
9
100
AcDbSymbolTableRecord
100
AcDbRegAppTableRecord
  2
ACAD
 70
     0
  0
APPID
  5
3F
330
9
100
AcDbSymbolTableRecord
100
AcDbRegAppTableRecord
  2
ODA
 70
     0
  0
ENDTAB
  0
TABLE
  2
DIMSTYLE
  5
A
330
0
100
AcDbSymbolTable
 70
     1
100
AcDbDimStyleTable
  0
DIMSTYLE
105
27
330
A
100
AcDbSymbolTableRecord
100
AcDbDimStyleTableRecord
  2
Standard
 70
     0
340
11
  0
ENDTAB
  0
TABLE
  2
BLOCK_RECORD
  5
1
330
0
100
AcDbSymbolTable
 70
     1
  0
BLOCK_RECORD
  5
1F
330
1
100
AcDbSymbolTableRecord
100
AcDbBlockTableRecord
  2
*Model_Space
340
22
  0
BLOCK_RECORD
  5
1B
330
1
100
AcDbSymbolTableRecord
100
AcDbBlockTableRecord
  2
*Paper_Space
340
1E
  0
BLOCK_RECORD
  5
23
330
1
100
AcDbSymbolTableRecord
100
AcDbBlockTableRecord
  2
*Paper_Space0
340
26
  0
ENDTAB
  0
ENDSEC
  0
SECTION
  2
BLOCKS
  0
BLOCK
  5
20
330
1F
100
AcDbEntity
  8
0
100
AcDbBlockBegin
  2
*Model_Space
 70
     0
 10
0.0
 20
0.0
 30
0.0
  3
*Model_Space
  1

  0
ENDBLK
  5
21
330
1F
100
AcDbEntity
  8
0
100
AcDbBlockEnd
  0
BLOCK
  5
1C
330
1B
100
AcDbEntity
 67
     1
  8
0
100
AcDbBlockBegin
  2
*Paper_Space
 70
     0
 10
0.0
 20
0.0
 30
0.0
  3
*Paper_Space
  1

  0
ENDBLK
  5
1D
330
1B
100
AcDbEntity
 67
     1
  8
0
100
AcDbBlockEnd
  0
BLOCK
  5
24
330
23
100
AcDbEntity
  8
0
100
AcDbBlockBegin
  2
*Paper_Space0
 70
     0
 10
0.0
 20
0.0
 30
0.0
  3
*Paper_Space0
  1

  0
ENDBLK
  5
25
330
23
100
AcDbEntity
  8
0
100
AcDbBlockEnd
  0
ENDSEC
  0
SECTION
  2
ENTITIES
  0
SPLINE
  5
41
330
1F
100
AcDbEntity
  8
DEFAULT_1
 62
     9
100
AcDbSpline
210
0.0
220
0.0
230
1.0
 70
    11
 71
     3
 72
    88
 73
    84
 74
     0
 42
0.0000000001
 43
0.0000000001
 40
0.0
 40
0.0
 40
0.0
 40
0.0
 40
0.0454545454545455
 40
0.0454545454545455
 40
0.0454545454545455
 40
0.0454545454545455
 40
0.0909090909090909
 40
0.0909090909090909
 40
0.0909090909090909
 40
0.0909090909090909
 40
0.1363636363636364
 40
0.1363636363636364
 40
0.1363636363636364
 40
0.1363636363636364
 40
0.1818181818181818
 40
0.1818181818181818
 40
0.1818181818181818
 40
0.1818181818181818
 40
0.2272727272727273
 40
0.2272727272727273
 40
0.2272727272727273
 40
0.2272727272727273
 40
0.2727272727272727
 40
0.2727272727272727
 40
0.2727272727272727
 40
0.2727272727272727
 40
0.3181818181818182
 40
0.3181818181818182
 40
0.3181818181818182
 40
0.3181818181818182
 40
0.3636363636363636
 40
0.3636363636363636
 40
0.3636363636363636
 40
0.3636363636363636
 40
0.4090909090909091
 40
0.4090909090909091
 40
0.4090909090909091
 40
0.4090909090909091
 40
0.4545454545454545
 40
0.4545454545454545
 40
0.4545454545454545
 40
0.4545454545454545
 40
0.5
 40
0.5
 40
0.5
 40
0.5
 40
0.5454545454545454
 40
0.5454545454545454
 40
0.5454545454545454
 40
0.5454545454545454
 40
0.5909090909090909
 40
0.5909090909090909
 40
0.5909090909090909
 40
0.5909090909090909
 40
0.6363636363636364
 40
0.6363636363636364
 40
0.6363636363636364
 40
0.6363636363636364
 40
0.6818181818181818
 40
0.6818181818181818
 40
0.6818181818181818
 40
0.6818181818181818
 40
0.7272727272727273
 40
0.7272727272727273
 40
0.7272727272727273
 40
0.7272727272727273
 40
0.7727272727272727
 40
0.7727272727272727
 40
0.7727272727272727
 40
0.7727272727272727
 40
0.8181818181818182
 40
0.8181818181818182
 40
0.8181818181818182
 40
0.8181818181818182
 40
0.8636363636363636
 40
0.8636363636363636
 40
0.8636363636363636
 40
0.8636363636363636
 40
0.9090909090909091
 40
0.9090909090909091
 40
0.9090909090909091
 40
0.9090909090909091
 40
1.0
 40
1.0
 40
1.0
 40
1.0
 10
-1.5514
 20
17.9626
 30
0.0
 10
-1.5514
 20
17.9626
 30
0.0
 10
-1.5184
 20
22.0196
 30
0.0
 10
-1.5184
 20
22.0196
 30
0.0
 10
-1.5184
 20
22.0196
 30
0.0
 10
-1.5184
 20
22.0196
 30
0.0
 10
-9.1588
 20
22.0692
 30
0.0
 10
-9.1588
 20
22.0692
 30
0.0
 10
-9.1588
 20
22.0692
 30
0.0
 10
-9.1588
 20
22.0692
 30
0.0
 10
-9.1822
 20
22.433
 30
0.0
 10
-9.1822
 20
22.433
 30
0.0
 10
-9.1822
 20
22.433
 30
0.0
 10
-9.1822
 20
22.433
 30
0.0
 10
-8.5401
 20
22.7307
 30
0.0
 10
-8.5401
 20
22.7307
 30
0.0
 10
-8.5401
 20
22.7307
 30
0.0
 10
-8.5401
 20
22.7307
 30
0.0
 10
-6.882
 20
23.4363
 30
0.0
 10
-6.882
 20
23.4363
 30
0.0
 10
-6.882
 20
23.4363
 30
0.0
 10
-6.882
 20
23.4363
 30
0.0
 10
-4.3606
 20
24.2521
 30
0.0
 10
-4.3606
 20
24.2521
 30
0.0
 10
-4.3606
 20
24.2521
 30
0.0
 10
-4.3606
 20
24.2521
 30
0.0
 10
-1.8391
 20
24.8033
 30
0.0
 10
-1.8391
 20
24.8033
 30
0.0
 10
-1.8391
 20
24.8033
 30
0.0
 10
-1.8391
 20
24.8033
 30
0.0
 10
0.8692
 20
25.4207
 30
0.0
 10
0.8692
 20
25.4207
 30
0.0
 10
0.8692
 20
25.4207
 30
0.0
 10
0.8692
 20
25.4207
 30
0.0
 10
3.0639
 20
25.7073
 30
0.0
 10
3.0639
 20
25.7073
 30
0.0
 10
3.0639
 20
25.7073
 30
0.0
 10
3.0639
 20
25.7073
 30
0.0
 10
5.492
 20
25.8396
 30
0.0
 10
5.492
 20
25.8396
 30
0.0
 10
5.492
 20
25.8396
 30
0.0
 10
5.492
 20
25.8396
 30
0.0
 10
8.0136
 20
25.7294
 30
0.0
 10
8.0136
 20
25.7294
 30
0.0
 10
8.0136
 20
25.7294
 30
0.0
 10
8.0136
 20
25.7294
 30
0.0
 10
10.4184
 20
25.4427
 30
0.0
 10
10.4184
 20
25.4427
 30
0.0
 10
10.4184
 20
25.4427
 30
0.0
 10
10.4184
 20
25.4427
 30
0.0
 10
13.0569
 20
25.0459
 30
0.0
 10
13.0569
 20
25.0459
 30
0.0
 10
13.0569
 20
25.0459
 30
0.0
 10
13.0569
 20
25.0459
 30
0.0
 10
15.6485
 20
24.4396
 30
0.0
 10
15.6485
 20
24.4396
 30
0.0
 10
15.6485
 20
24.4396
 30
0.0
 10
15.6485
 20
24.4396
 30
0.0
 10
18.7886
 20
23.5356
 30
0.0
 10
18.7886
 20
23.5356
 30
0.0
 10
18.7886
 20
23.5356
 30
0.0
 10
18.7886
 20
23.5356
 30
0.0
 10
20.633
 20
22.7418
 30
0.0
 10
20.633
 20
22.7418
 30
0.0
 10
20.633
 20
22.7418
 30
0.0
 10
20.633
 20
22.7418
 30
0.0
 10
21.205
 20
22.4993
 30
0.0
 10
21.205
 20
22.4993
 30
0.0
 10
21.205
 20
22.4993
 30
0.0
 10
21.205
 20
22.4993
 30
0.0
 10
21.2284
 20
22.1355
 30
0.0
 10
21.2284
 20
22.1355
 30
0.0
 10
21.2284
 20
22.1355
 30
0.0
 10
21.2284
 20
22.1355
 30
0.0
 10
13.6987
 20
22.0859
 30
0.0
 10
13.6987
 20
22.0859
 30
0.0
 10
13.6987
 20
22.0859
 30
0.0
 10
13.6987
 20
22.0859
 30
0.0
 10
13.7135
 20
17.9848
 30
0.0
 10
13.7135
 20
17.9848
 30
0.0
 10
13.7135
 20
17.9848
 30
0.0
 10
13.7135
 20
17.9848
 30
0.0
 10
-1.5514
 20
17.9626
 30
0.0
 10
-1.5514
 20
17.9626
 30
0.0
  0
SPLINE
  5
42
330
1F
100
AcDbEntity
  8
DEFAULT_1
 62
   251
100
AcDbSpline
210
0.0
220
0.0
230
1.0
 70
    11
 71
     3
 72
    52
 73
    48
 74
     0
 42
0.0000000001
 43
0.0000000001
 40
0.0
 40
0.0
 40
0.0
 40
0.0
 40
0.0769230769230769
 40
0.0769230769230769
 40
0.0769230769230769
 40
0.0769230769230769
 40
0.1538461538461539
 40
0.1538461538461539
 40
0.1538461538461539
 40
0.1538461538461539
 40
0.2307692307692308
 40
0.2307692307692308
 40
0.2307692307692308
 40
0.2307692307692308
 40
0.3076923076923077
 40
0.3076923076923077
 40
0.3076923076923077
 40
0.3076923076923077
 40
0.3846153846153846
 40
0.3846153846153846
 40
0.3846153846153846
 40
0.3846153846153846
 40
0.4615384615384616
 40
0.4615384615384616
 40
0.4615384615384616
 40
0.4615384615384616
 40
0.5384615384615384
 40
0.5384615384615384
 40
0.5384615384615384
 40
0.5384615384615384
 40
0.6153846153846154
 40
0.6153846153846154
 40
0.6153846153846154
 40
0.6153846153846154
 40
0.6923076923076923
 40
0.6923076923076923
 40
0.6923076923076923
 40
0.6923076923076923
 40
0.7692307692307693
 40
0.7692307692307693
 40
0.7692307692307693
 40
0.7692307692307693
 40
0.8461538461538461
 40
0.8461538461538461
 40
0.8461538461538461
 40
0.8461538461538461
 40
1.0
 40
1.0
 40
1.0
 40
1.0
 10
-1.2059
 20
16.0996
 30
0.0
 10
-1.2059
 20
16.0996
 30
0.0
 10
-1.1949
 20
16.6178
 30
0.0
 10
-1.1949
 20
16.6178
 30
0.0
 10
-1.1949
 20
16.6178
 30
0.0
 10
-1.1949
 20
16.6178
 30
0.0
 10
-2.3635
 20
16.8712
 30
0.0
 10
-2.3635
 20
16.8712
 30
0.0
 10
-2.3635
 20
16.8712
 30
0.0
 10
-2.3635
 20
16.8712
 30
0.0
 10
-2.4076
 20
17.1249
 30
0.0
 10
-2.4076
 20
17.1249
 30
0.0
 10
-2.4076
 20
17.1249
 30
0.0
 10
-2.4076
 20
17.1249
 30
0.0
 10
-1.25
 20
17.3123
 30
0.0
 10
-1.25
 20
17.3123
 30
0.0
 10
-1.25
 20
17.3123
 30
0.0
 10
-1.25
 20
17.3123
 30
0.0
 10
-1.1729
 20
17.9737
 30
0.0
 10
-1.1729
 20
17.9737
 30
0.0
 10
-1.1729
 20
17.9737
 30
0.0
 10
-1.1729
 20
17.9737
 30
0.0
 10
13.3848
 20
17.9464
 30
0.0
 10
13.3848
 20
17.9464
 30
0.0
 10
13.3848
 20
17.9464
 30
0.0
 10
13.3848
 20
17.9464
 30
0.0
 10
13.3628
 20
17.351
 30
0.0
 10
13.3628
 20
17.351
 30
0.0
 10
13.3628
 20
17.351
 30
0.0
 10
13.3628
 20
17.351
 30
0.0
 10
14.4597
 20
17.1251
 30
0.0
 10
14.4597
 20
17.1251
 30
0.0
 10
14.4597
 20
17.1251
 30
0.0
 10
14.4597
 20
17.1251
 30
0.0
 10
14.4156
 20
16.8163
 30
0.0
 10
14.4156
 20
16.8163
 30
0.0
 10
14.4156
 20
16.8163
 30
0.0
 10
14.4156
 20
16.8163
 30
0.0
 10
13.3573
 20
16.6566
 30
0.0
 10
13.3573
 20
16.6566
 30
0.0
 10
13.3573
 20
16.6566
 30
0.0
 10
13.3573
 20
16.6566
 30
0.0
 10
13.3352
 20
16.1603
 30
0.0
 10
13.3352
 20
16.1603
 30
0.0
 10
13.3352
 20
16.1603
 30
0.0
 10
13.3352
 20
16.1603
 30
0.0
 10
-1.2059
 20
16.0996
 30
0.0
 10
-1.2059
 20
16.0996
 30
0.0
  0
SPLINE
  5
43
330
1F
100
AcDbEntity
  8
DEFAULT_1
 62
     9
100
AcDbSpline
210
0.0
220
0.0
230
1.0
 70
    11
 71
     3
 72
    80
 73
    76
 74
     0
 42
0.0000000001
 43
0.0000000001
 40
0.0
 40
0.0
 40
0.0
 40
0.0
 40
0.05
 40
0.05
 40
0.05
 40
0.05
 40
0.1
 40
0.1
 40
0.1
 40
0.1
 40
0.15
 40
0.15
 40
0.15
 40
0.15
 40
0.2
 40
0.2
 40
0.2
 40
0.2
 40
0.25
 40
0.25
 40
0.25
 40
0.25
 40
0.3
 40
0.3
 40
0.3
 40
0.3
 40
0.35
 40
0.35
 40
0.35
 40
0.35
 40
0.4
 40
0.4
 40
0.4
 40
0.4
 40
0.45
 40
0.45
 40
0.45
 40
0.45
 40
0.5
 40
0.5
 40
0.5
 40
0.5
 40
0.55
 40
0.55
 40
0.55
 40
0.55
 40
0.6
 40
0.6
 40
0.6
 40
0.6
 40
0.65
 40
0.65
 40
0.65
 40
0.65
 40
0.7
 40
0.7
 40
0.7
 40
0.7
 40
0.75
 40
0.75
 40
0.75
 40
0.75
 40
0.8
 40
0.8
 40
0.8
 40
0.8
 40
0.85
 40
0.85
 40
0.85
 40
0.85
 40
0.9
 40
0.9
 40
0.9
 40
0.9
 40
1.0
 40
1.0
 40
1.0
 40
1.0
 10
-3.1949
 20
8.9349
 30
0.0
 10
-3.1949
 20
8.9349
 30
0.0
 10
-3.1287
 20
12.6832
 30
0.0
 10
-3.1287
 20
12.6832
 30
0.0
 10
-3.1287
 20
12.6832
 30
0.0
 10
-3.1287
 20
12.6832
 30
0.0
 10
-7.4062
 20
13.0139
 30
0.0
 10
-7.4062
 20
13.0139
 30
0.0
 10
-7.4062
 20
13.0139
 30
0.0
 10
-7.4062
 20
13.0139
 30
0.0
 10
-8.2881
 20
13.7415
 30
0.0
 10
-8.2881
 20
13.7415
 30
0.0
 10
-8.2881
 20
13.7415
 30
0.0
 10
-8.2881
 20
13.7415
 30
0.0
 10
-8.3103
 20
14.1275
 30
0.0
 10
-8.3103
 20
14.1275
 30
0.0
 10
-8.3103
 20
14.1275
 30
0.0
 10
-8.3103
 20
14.1275
 30
0.0
 10
4.2137
 20
14.0941
 30
0.0
 10
4.2137
 20
14.0941
 30
0.0
 10
4.2137
 20
14.0941
 30
0.0
 10
4.2137
 20
14.0941
 30
0.0
 10
4.1476
 20
15.7037
 30
0.0
 10
4.1476
 20
15.7037
 30
0.0
 10
4.1476
 20
15.7037
 30
0.0
 10
4.1476
 20
15.7037
 30
0.0
 10
-1.4255
 20
15.5383
 30
0.0
 10
-1.4255
 20
15.5383
 30
0.0
 10
-1.4255
 20
15.5383
 30
0.0
 10
-1.4255
 20
15.5383
 30
0.0
 10
-1.6074
 20
15.9793
 30
0.0
 10
-1.6074
 20
15.9793
 30
0.0
 10
-1.6074
 20
15.9793
 30
0.0
 10
-1.6074
 20
15.9793
 30
0.0
 10
-1.3761
 20
16.1391
 30
0.0
 10
-1.3761
 20
16.1391
 30
0.0
 10
-1.3761
 20
16.1391
 30
0.0
 10
-1.3761
 20
16.1391
 30
0.0
 10
13.6283
 20
16.1225
 30
0.0
 10
13.6283
 20
16.1225
 30
0.0
 10
13.6283
 20
16.1225
 30
0.0
 10
13.6283
 20
16.1225
 30
0.0
 10
13.6229
 20
15.5934
 30
0.0
 10
13.6229
 20
15.5934
 30
0.0
 10
13.6229
 20
15.5934
 30
0.0
 10
13.6229
 20
15.5934
 30
0.0
 10
7.9012
 20
15.6705
 30
0.0
 10
7.9012
 20
15.6705
 30
0.0
 10
7.9012
 20
15.6705
 30
0.0
 10
7.9012
 20
15.6705
 30
0.0
 10
7.8571
 20
14.2594
 30
0.0
 10
7.8571
 20
14.2594
 30
0.0
 10
7.8571
 20
14.2594
 30
0.0
 10
7.8571
 20
14.2594
 30
0.0
 10
20.4468
 20
14.1382
 30
0.0
 10
20.4468
 20
14.1382
 30
0.0
 10
20.4468
 20
14.1382
 30
0.0
 10
20.4468
 20
14.1382
 30
0.0
 10
20.4137
 20
13.7854
 30
0.0
 10
20.4137
 20
13.7854
 30
0.0
 10
20.4137
 20
13.7854
 30
0.0
 10
20.4137
 20
13.7854
 30
0.0
 10
19.664
 20
13.0247
 30
0.0
 10
19.664
 20
13.0247
 30
0.0
 10
19.664
 20
13.0247
 30
0.0
 10
19.664
 20
13.0247
 30
0.0
 10
15.3314
 20
12.6389
 30
0.0
 10
15.3314
 20
12.6389
 30
0.0
 10
15.3314
 20
12.6389
 30
0.0
 10
15.3314
 20
12.6389
 30
0.0
 10
15.3425
 20
8.9677
 30
0.0
 10
15.3425
 20
8.9677
 30
0.0
 10
15.3425
 20
8.9677
 30
0.0
 10
15.3425
 20
8.9677
 30
0.0
 10
-3.1949
 20
8.9349
 30
0.0
 10
-3.1949
 20
8.9349
 30
0.0
  0
SPLINE
  5
44
330
1F
100
AcDbEntity
  8
DEFAULT_1
 62
     9
100
AcDbSpline
210
0.0
220
0.0
230
1.0
 70
    11
 71
     3
 72
    36
 73
    32
 74
     0
 42
0.0000000001
 43
0.0000000001
 40
0.0
 40
0.0
 40
0.0
 40
0.0
 40
0.1111111111111111
 40
0.1111111111111111
 40
0.1111111111111111
 40
0.1111111111111111
 40
0.2222222222222222
 40
0.2222222222222222
 40
0.2222222222222222
 40
0.2222222222222222
 40
0.3333333333333333
 40
0.3333333333333333
 40
0.3333333333333333
 40
0.3333333333333333
 40
0.4444444444444444
 40
0.4444444444444444
 40
0.4444444444444444
 40
0.4444444444444444
 40
0.5555555555555556
 40
0.5555555555555556
 40
0.5555555555555556
 40
0.5555555555555556
 40
0.6666666666666666
 40
0.6666666666666666
 40
0.6666666666666666
 40
0.6666666666666666
 40
0.7777777777777778
 40
0.7777777777777778
 40
0.7777777777777778
 40
0.7777777777777778
 40
1.0
 40
1.0
 40
1.0
 40
1.0
 10
-3.2165
 20
7.987
 30
0.0
 10
-3.2165
 20
7.987
 30
0.0
 10
-3.2385
 20
1.1298
 30
0.0
 10
-3.2385
 20
1.1298
 30
0.0
 10
-3.2385
 20
1.1298
 30
0.0
 10
-3.2385
 20
1.1298
 30
0.0
 10
-0.0635
 20
1.1298
 30
0.0
 10
-0.0635
 20
1.1298
 30
0.0
 10
-0.0635
 20
1.1298
 30
0.0
 10
-0.0635
 20
1.1298
 30
0.0
 10
-0.0635
 20
5.7821
 30
0.0
 10
-0.0635
 20
5.7821
 30
0.0
 10
-0.0635
 20
5.7821
 30
0.0
 10
-0.0635
 20
5.7821
 30
0.0
 10
12.2838
 20
5.738
 30
0.0
 10
12.2838
 20
5.738
 30
0.0
 10
12.2838
 20
5.738
 30
0.0
 10
12.2838
 20
5.738
 30
0.0
 10
12.3058
 20
1.1298
 30
0.0
 10
12.3058
 20
1.1298
 30
0.0
 10
12.3058
 20
1.1298
 30
0.0
 10
12.3058
 20
1.1298
 30
0.0
 10
15.3486
 20
1.0637
 30
0.0
 10
15.3486
 20
1.0637
 30
0.0
 10
15.3486
 20
1.0637
 30
0.0
 10
15.3486
 20
1.0637
 30
0.0
 10
15.3486
 20
8.0752
 30
0.0
 10
15.3486
 20
8.0752
 30
0.0
 10
15.3486
 20
8.0752
 30
0.0
 10
15.3486
 20
8.0752
 30
0.0
 10
-3.2165
 20
7.987
 30
0.0
 10
-3.2165
 20
7.987
 30
0.0
  0
SPLINE
  5
45
330
1F
100
AcDbEntity
  8
DEFAULT_1
 62
     9
100
AcDbSpline
210
0.0
220
0.0
230
1.0
 70
    11
 71
     3
 72
   132
 73
   128
 74
     0
 42
0.0000000001
 43
0.0000000001
 40
0.0
 40
0.0
 40
0.0
 40
0.0
 40
0.0303030303030303
 40
0.0303030303030303
 40
0.0303030303030303
 40
0.0303030303030303
 40
0.0606060606060606
 40
0.0606060606060606
 40
0.0606060606060606
 40
0.0606060606060606
 40
0.0909090909090909
 40
0.0909090909090909
 40
0.0909090909090909
 40
0.0909090909090909
 40
0.1212121212121212
 40
0.1212121212121212
 40
0.1212121212121212
 40
0.1212121212121212
 40
0.1515151515151515
 40
0.1515151515151515
 40
0.1515151515151515
 40
0.1515151515151515
 40
0.1818181818181818
 40
0.1818181818181818
 40
0.1818181818181818
 40
0.1818181818181818
 40
0.2121212121212121
 40
0.2121212121212121
 40
0.2121212121212121
 40
0.2121212121212121
 40
0.2424242424242424
 40
0.2424242424242424
 40
0.2424242424242424
 40
0.2424242424242424
 40
0.2727272727272727
 40
0.2727272727272727
 40
0.2727272727272727
 40
0.2727272727272727
 40
0.303030303030303
 40
0.303030303030303
 40
0.303030303030303
 40
0.303030303030303
 40
0.3333333333333333
 40
0.3333333333333333
 40
0.3333333333333333
 40
0.3333333333333333
 40
0.3636363636363636
 40
0.3636363636363636
 40
0.3636363636363636
 40
0.3636363636363636
 40
0.3939393939393939
 40
0.3939393939393939
 40
0.3939393939393939
 40
0.3939393939393939
 40
0.4242424242424243
 40
0.4242424242424243
 40
0.4242424242424243
 40
0.4242424242424243
 40
0.4545454545454545
 40
0.4545454545454545
 40
0.4545454545454545
 40
0.4545454545454545
 40
0.4848484848484849
 40
0.4848484848484849
 40
0.4848484848484849
 40
0.4848484848484849
 40
0.5151515151515151
 40
0.5151515151515151
 40
0.5151515151515151
 40
0.5151515151515151
 40
0.5454545454545454
 40
0.5454545454545454
 40
0.5454545454545454
 40
0.5454545454545454
 40
0.5757575757575758
 40
0.5757575757575758
 40
0.5757575757575758
 40
0.5757575757575758
 40
0.6060606060606061
 40
0.6060606060606061
 40
0.6060606060606061
 40
0.6060606060606061
 40
0.6363636363636364
 40
0.6363636363636364
 40
0.6363636363636364
 40
0.6363636363636364
 40
0.6666666666666666
 40
0.6666666666666666
 40
0.6666666666666666
 40
0.6666666666666666
 40
0.696969696969697
 40
0.696969696969697
 40
0.696969696969697
 40
0.696969696969697
 40
0.7272727272727273
 40
0.7272727272727273
 40
0.7272727272727273
 40
0.7272727272727273
 40
0.7575757575757576
 40
0.7575757575757576
 40
0.7575757575757576
 40
0.7575757575757576
 40
0.7878787878787878
 40
0.7878787878787878
 40
0.7878787878787878
 40
0.7878787878787878
 40
0.8181818181818182
 40
0.8181818181818182
 40
0.8181818181818182
 40
0.8181818181818182
 40
0.8484848484848485
 40
0.8484848484848485
 40
0.8484848484848485
 40
0.8484848484848485
 40
0.8787878787878788
 40
0.8787878787878788
 40
0.8787878787878788
 40
0.8787878787878788
 40
0.9090909090909091
 40
0.9090909090909091
 40
0.9090909090909091
 40
0.9090909090909091
 40
0.9393939393939394
 40
0.9393939393939394
 40
0.9393939393939394
 40
0.9393939393939394
 40
1.0
 40
1.0
 40
1.0
 40
1.0
 10
-7.4715
 20
-0.4484
 30
0.0
 10
-7.4715
 20
-0.4484
 30
0.0
 10
-7.6479
 20
-0.5697
 30
0.0
 10
-7.6479
 20
-0.5697
 30
0.0
 10
-7.6479
 20
-0.5697
 30
0.0
 10
-7.6479
 20
-0.5697
 30
0.0
 10
-7.9345
 20
-0.8012
 30
0.0
 10
-7.9345
 20
-0.8012
 30
0.0
 10
-7.9345
 20
-0.8012
 30
0.0
 10
-7.9345
 20
-0.8012
 30
0.0
 10
-7.9455
 20
-0.9996
 30
0.0
 10
-7.9455
 20
-0.9996
 30
0.0
 10
-7.9455
 20
-0.9996
 30
0.0
 10
-7.9455
 20
-0.9996
 30
0.0
 10
-7.8573
 20
-1.3634
 30
0.0
 10
-7.8573
 20
-1.3634
 30
0.0
 10
-7.8573
 20
-1.3634
 30
0.0
 10
-7.8573
 20
-1.3634
 30
0.0
 10
-7.6699
 20
-1.5508
 30
0.0
 10
-7.6699
 20
-1.5508
 30
0.0
 10
-7.6699
 20
-1.5508
 30
0.0
 10
-7.6699
 20
-1.5508
 30
0.0
 10
-7.273
 20
-1.7162
 30
0.0
 10
-7.273
 20
-1.7162
 30
0.0
 10
-7.273
 20
-1.7162
 30
0.0
 10
-7.273
 20
-1.7162
 30
0.0
 10
-5.6524
 20
-2.1131
 30
0.0
 10
-5.6524
 20
-2.1131
 30
0.0
 10
-5.6524
 20
-2.1131
 30
0.0
 10
-5.6524
 20
-2.1131
 30
0.0
 10
-5.6855
 20
-5.0786
 30
0.0
 10
-5.6855
 20
-5.0786
 30
0.0
 10
-5.6855
 20
-5.0786
 30
0.0
 10
-5.6855
 20
-5.0786
 30
0.0
 10
-5.6194
 20
-5.2219
 30
0.0
 10
-5.6194
 20
-5.2219
 30
0.0
 10
-5.6194
 20
-5.2219
 30
0.0
 10
-5.6194
 20
-5.2219
 30
0.0
 10
-4.4398
 20
-5.233
 30
0.0
 10
-4.4398
 20
-5.233
 30
0.0
 10
-4.4398
 20
-5.233
 30
0.0
 10
-4.4398
 20
-5.233
 30
0.0
 10
-4.4337
 20
-14.6695
 30
0.0
 10
-4.4337
 20
-14.6695
 30
0.0
 10
-4.4337
 20
-14.6695
 30
0.0
 10
-4.4337
 20
-14.6695
 30
0.0
 10
-3.5297
 20
-15.1546
 30
0.0
 10
-3.5297
 20
-15.1546
 30
0.0
 10
-3.5297
 20
-15.1546
 30
0.0
 10
-3.5297
 20
-15.1546
 30
0.0
 10
-3.4746
 20
-19.6856
 30
0.0
 10
-3.4746
 20
-19.6856
 30
0.0
 10
-3.4746
 20
-19.6856
 30
0.0
 10
-3.4746
 20
-19.6856
 30
0.0
 10
-2.9565
 20
-20.2919
 30
0.0
 10
-2.9565
 20
-20.2919
 30
0.0
 10
-2.9565
 20
-20.2919
 30
0.0
 10
-2.9565
 20
-20.2919
 30
0.0
 10
15.0854
 20
-20.2643
 30
0.0
 10
15.0854
 20
-20.2643
 30
0.0
 10
15.0854
 20
-20.2643
 30
0.0
 10
15.0854
 20
-20.2643
 30
0.0
 10
15.6973
 20
-19.8233
 30
0.0
 10
15.6973
 20
-19.8233
 30
0.0
 10
15.6973
 20
-19.8233
 30
0.0
 10
15.6973
 20
-19.8233
 30
0.0
 10
15.7026
 20
-15.1656
 30
0.0
 10
15.7026
 20
-15.1656
 30
0.0
 10
15.7026
 20
-15.1656
 30
0.0
 10
15.7026
 20
-15.1656
 30
0.0
 10
16.6838
 20
-14.7797
 30
0.0
 10
16.6838
 20
-14.7797
 30
0.0
 10
16.6838
 20
-14.7797
 30
0.0
 10
16.6838
 20
-14.7797
 30
0.0
 10
16.6615
 20
-5.1663
 30
0.0
 10
16.6615
 20
-5.1663
 30
0.0
 10
16.6615
 20
-5.1663
 30
0.0
 10
16.6615
 20
-5.1663
 30
0.0
 10
17.7088
 20
-5.1884
 30
0.0
 10
17.7088
 20
-5.1884
 30
0.0
 10
17.7088
 20
-5.1884
 30
0.0
 10
17.7088
 20
-5.1884
 30
0.0
 10
17.8631
 20
-5.0561
 30
0.0
 10
17.8631
 20
-5.0561
 30
0.0
 10
17.8631
 20
-5.0561
 30
0.0
 10
17.8631
 20
-5.0561
 30
0.0
 10
17.8521
 20
-2.0795
 30
0.0
 10
17.8521
 20
-2.0795
 30
0.0
 10
17.8521
 20
-2.0795
 30
0.0
 10
17.8521
 20
-2.0795
 30
0.0
 10
19.7481
 20
-1.5942
 30
0.0
 10
19.7481
 20
-1.5942
 30
0.0
 10
19.7481
 20
-1.5942
 30
0.0
 10
19.7481
 20
-1.5942
 30
0.0
 10
20.0457
 20
-1.3186
 30
0.0
 10
20.0457
 20
-1.3186
 30
0.0
 10
20.0457
 20
-1.3186
 30
0.0
 10
20.0457
 20
-1.3186
 30
0.0
 10
20.0788
 20
-0.8666
 30
0.0
 10
20.0788
 20
-0.8666
 30
0.0
 10
20.0788
 20
-0.8666
 30
0.0
 10
20.0788
 20
-0.8666
 30
0.0
 10
19.9465
 20
-0.6351
 30
0.0
 10
19.9465
 20
-0.6351
 30
0.0
 10
19.9465
 20
-0.6351
 30
0.0
 10
19.9465
 20
-0.6351
 30
0.0
 10
19.6819
 20
-0.5249
 30
0.0
 10
19.6819
 20
-0.5249
 30
0.0
 10
19.6819
 20
-0.5249
 30
0.0
 10
19.6819
 20
-0.5249
 30
0.0
 10
15.3493
 20
-0.4584
 30
0.0
 10
15.3493
 20
-0.4584
 30
0.0
 10
15.3493
 20
-0.4584
 30
0.0
 10
15.3493
 20
-0.4584
 30
0.0
 10
15.3163
 20
0.2472
 30
0.0
 10
15.3163
 20
0.2472
 30
0.0
 10
15.3163
 20
0.2472
 30
0.0
 10
15.3163
 20
0.2472
 30
0.0
 10
-3.2159
 20
0.2253
 30
0.0
 10
-3.2159
 20
0.2253
 30
0.0
 10
-3.2159
 20
0.2253
 30
0.0
 10
-3.2159
 20
0.2253
 30
0.0
 10
-3.2379
 20
-0.392
 30
0.0
 10
-3.2379
 20
-0.392
 30
0.0
 10
-3.2379
 20
-0.392
 30
0.0
 10
-3.2379
 20
-0.392
 30
0.0
 10
-7.4715
 20
-0.4484
 30
0.0
 10
-7.4715
 20
-0.4484
 30
0.0
  0
SPLINE
  5
46
330
1F
100
AcDbEntity
  8
DEFAULT_1
 62
   250
370
    35
100
AcDbSpline
210
0.0
220
0.0
230
1.0
 70
    11
 71
     3
 72
    48
 73
    44
 74
     0
 42
0.0000000001
 43
0.0000000001
 40
0.0
 40
0.0
 40
0.0
 40
0.0
 40
0.0833333333333333
 40
0.0833333333333333
 40
0.0833333333333333
 40
0.0833333333333333
 40
0.1666666666666667
 40
0.1666666666666667
 40
0.1666666666666667
 40
0.1666666666666667
 40
0.25
 40
0.25
 40
0.25
 40
0.25
 40
0.3333333333333333
 40
0.3333333333333333
 40
0.3333333333333333
 40
0.3333333333333333
 40
0.4166666666666667
 40
0.4166666666666667
 40
0.4166666666666667
 40
0.4166666666666667
 40
0.5
 40
0.5
 40
0.5
 40
0.5
 40
0.5833333333333334
 40
0.5833333333333334
 40
0.5833333333333334
 40
0.5833333333333334
 40
0.6666666666666666
 40
0.6666666666666666
 40
0.6666666666666666
 40
0.6666666666666666
 40
0.75
 40
0.75
 40
0.75
 40
0.75
 40
0.8333333333333334
 40
0.8333333333333334
 40
0.8333333333333334
 40
0.8333333333333334
 40
1.0
 40
1.0
 40
1.0
 40
1.0
 10
-1.3587
 20
16.6946
 30
0.0
 10
-1.3587
 20
16.6946
 30
0.0
 10
-2.3764
 20
16.8688
 30
0.0
 10
-2.3764
 20
16.8688
 30
0.0
 10
-2.3764
 20
16.8688
 30
0.0
 10
-2.3764
 20
16.8688
 30
0.0
 10
-2.4764
 20
16.9951
 30
0.0
 10
-2.4764
 20
16.9951
 30
0.0
 10
-2.4764
 20
16.9951
 30
0.0
 10
-2.4764
 20
16.9951
 30
0.0
 10
-2.4564
 20
17.1425
 30
0.0
 10
-2.4564
 20
17.1425
 30
0.0
 10
-2.4564
 20
17.1425
 30
0.0
 10
-2.4564
 20
17.1425
 30
0.0
 10
-2.3364
 20
17.2267
 30
0.0
 10
-2.3364
 20
17.2267
 30
0.0
 10
-2.3364
 20
17.2267
 30
0.0
 10
-2.3364
 20
17.2267
 30
0.0
 10
-1.3164
 20
17.353
 30
0.0
 10
-1.3164
 20
17.353
 30
0.0
 10
-1.3164
 20
17.353
 30
0.0
 10
-1.3164
 20
17.353
 30
0.0
 10
13.4443
 20
17.353
 30
0.0
 10
13.4443
 20
17.353
 30
0.0
 10
13.4443
 20
17.353
 30
0.0
 10
13.4443
 20
17.353
 30
0.0
 10
14.5044
 20
17.1846
 30
0.0
 10
14.5044
 20
17.1846
 30
0.0
 10
14.5044
 20
17.1846
 30
0.0
 10
14.5044
 20
17.1846
 30
0.0
 10
14.5644
 20
17.0372
 30
0.0
 10
14.5644
 20
17.0372
 30
0.0
 10
14.5644
 20
17.0372
 30
0.0
 10
14.5644
 20
17.0372
 30
0.0
 10
14.5044
 20
16.8688
 30
0.0
 10
14.5044
 20
16.8688
 30
0.0
 10
14.5044
 20
16.8688
 30
0.0
 10
14.5044
 20
16.8688
 30
0.0
 10
13.4182
 20
16.6946
 30
0.0
 10
13.4182
 20
16.6946
 30
0.0
 10
13.4182
 20
16.6946
 30
0.0
 10
13.4182
 20
16.6946
 30
0.0
 10
-1.3587
 20
16.6946
 30
0.0
 10
-1.3587
 20
16.6946
 30
0.0
  0
SPLINE
  5
47
330
1F
100
AcDbEntity
  8
DEFAULT_1
 62
   250
370
    35
100
AcDbSpline
210
0.0
220
0.0
230
1.0
 70
    27
 71
     3
 72
    12
 73
     8
 74
     0
 42
0.0000000001
 43
0.0000000001
 40
0.0
 40
0.0
 40
0.0
 40
0.0
 40
0.3333333333333333
 40
0.3333333333333333
 40
0.3333333333333333
 40
0.3333333333333333
 40
1.0
 40
1.0
 40
1.0
 40
1.0
 10
13.3932
 20
17.3473
 30
0.0
 10
13.3932
 20
17.3473
 30
0.0
 10
13.3932
 20
17.9455
 30
0.0
 10
13.3932
 20
17.9455
 30
0.0
 10
13.3932
 20
17.9455
 30
0.0
 10
13.3932
 20
17.9455
 30
0.0
 10
13.3932
 20
17.3473
 30
0.0
 10
13.3932
 20
17.3473
 30
0.0
  0
SPLINE
  5
48
330
1F
100
AcDbEntity
  8
DEFAULT_1
 62
   250
370
    35
100
AcDbSpline
210
0.0
220
0.0
230
1.0
 70
    11
 71
     3
 72
    68
 73
    64
 74
     0
 42
0.0000000001
 43
0.0000000001
 40
0.0
 40
0.0
 40
0.0
 40
0.0
 40
0.0588235294117647
 40
0.0588235294117647
 40
0.0588235294117647
 40
0.0588235294117647
 40
0.1176470588235294
 40
0.1176470588235294
 40
0.1176470588235294
 40
0.1176470588235294
 40
0.1764705882352941
 40
0.1764705882352941
 40
0.1764705882352941
 40
0.1764705882352941
 40
0.2352941176470588
 40
0.2352941176470588
 40
0.2352941176470588
 40
0.2352941176470588
 40
0.2941176470588235
 40
0.2941176470588235
 40
0.2941176470588235
 40
0.2941176470588235
 40
0.3529411764705883
 40
0.3529411764705883
 40
0.3529411764705883
 40
0.3529411764705883
 40
0.4117647058823529
 40
0.4117647058823529
 40
0.4117647058823529
 40
0.4117647058823529
 40
0.4705882352941176
 40
0.4705882352941176
 40
0.4705882352941176
 40
0.4705882352941176
 40
0.5294117647058824
 40
0.5294117647058824
 40
0.5294117647058824
 40
0.5294117647058824
 40
0.5882352941176471
 40
0.5882352941176471
 40
0.5882352941176471
 40
0.5882352941176471
 40
0.6470588235294118
 40
0.6470588235294118
 40
0.6470588235294118
 40
0.6470588235294118
 40
0.7058823529411765
 40
0.7058823529411765
 40
0.7058823529411765
 40
0.7058823529411765
 40
0.7647058823529411
 40
0.7647058823529411
 40
0.7647058823529411
 40
0.7647058823529411
 40
0.8235294117647058
 40
0.8235294117647058
 40
0.8235294117647058
 40
0.8235294117647058
 40
0.8823529411764706
 40
0.8823529411764706
 40
0.8823529411764706
 40
0.8823529411764706
 40
1.0
 40
1.0
 40
1.0
 40
1.0
 10
-1.2302
 20
16.1194
 30
0.0
 10
-1.2302
 20
16.1194
 30
0.0
 10
-1.2302
 20
16.7112
 30
0.0
 10
-1.2302
 20
16.7112
 30
0.0
 10
-1.2302
 20
16.7112
 30
0.0
 10
-1.2302
 20
16.7112
 30
0.0
 10
-1.2302
 20
16.1194
 30
0.0
 10
-1.2302
 20
16.1194
 30
0.0
 10
-1.2302
 20
16.1194
 30
0.0
 10
-1.2302
 20
16.1194
 30
0.0
 10
13.3932
 20
16.1194
 30
0.0
 10
13.3932
 20
16.1194
 30
0.0
 10
13.3932
 20
16.1194
 30
0.0
 10
13.3932
 20
16.1194
 30
0.0
 10
13.3932
 20
16.7112
 30
0.0
 10
13.3932
 20
16.7112
 30
0.0
 10
13.3932
 20
16.7112
 30
0.0
 10
13.3932
 20
16.7112
 30
0.0
 10
13.3932
 20
16.1194
 30
0.0
 10
13.3932
 20
16.1194
 30
0.0
 10
13.3932
 20
16.1194
 30
0.0
 10
13.3932
 20
16.1194
 30
0.0
 10
13.6896
 20
16.1194
 30
0.0
 10
13.6896
 20
16.1194
 30
0.0
 10
13.6896
 20
16.1194
 30
0.0
 10
13.6896
 20
16.1194
 30
0.0
 10
13.6896
 20
15.6377
 30
0.0
 10
13.6896
 20
15.6377
 30
0.0
 10
13.6896
 20
15.6377
 30
0.0
 10
13.6896
 20
15.6377
 30
0.0
 10
7.9328
 20
15.645
 30
0.0
 10
7.9328
 20
15.645
 30
0.0
 10
7.9328
 20
15.645
 30
0.0
 10
7.9328
 20
15.645
 30
0.0
 10
7.9279
 20
14.3207
 30
0.0
 10
7.9279
 20
14.3207
 30
0.0
 10
7.9279
 20
14.3207
 30
0.0
 10
7.9279
 20
14.3207
 30
0.0
 10
7.9287
 20
15.6377
 30
0.0
 10
7.9287
 20
15.6377
 30
0.0
 10
7.9287
 20
15.6377
 30
0.0
 10
7.9287
 20
15.6377
 30
0.0
 10
4.2604
 20
15.6377
 30
0.0
 10
4.2604
 20
15.6377
 30
0.0
 10
4.2604
 20
15.6377
 30
0.0
 10
4.2604
 20
15.6377
 30
0.0
 10
4.2575
 20
14.2635
 30
0.0
 10
4.2575
 20
14.2635
 30
0.0
 10
4.2575
 20
14.2635
 30
0.0
 10
4.2575
 20
14.2635
 30
0.0
 10
4.2575
 20
15.6377
 30
0.0
 10
4.2575
 20
15.6377
 30
0.0
 10
4.2575
 20
15.6377
 30
0.0
 10
4.2575
 20
15.6377
 30
0.0
 10
-1.5713
 20
15.6377
 30
0.0
 10
-1.5713
 20
15.6377
 30
0.0
 10
-1.5713
 20
15.6377
 30
0.0
 10
-1.5713
 20
15.6377
 30
0.0
 10
-1.5713
 20
16.1194
 30
0.0
 10
-1.5713
 20
16.1194
 30
0.0
 10
-1.5713
 20
16.1194
 30
0.0
 10
-1.5713
 20
16.1194
 30
0.0
 10
-1.2302
 20
16.1194
 30
0.0
 10
-1.2302
 20
16.1194
 30
0.0
  0
SPLINE
  5
49
330
1F
100
AcDbEntity
  8
DEFAULT_1
 62
   250
370
    35
100
AcDbSpline
210
0.0
220
0.0
230
1.0
 70
    27
 71
     3
 72
    12
 73
     8
 74
     0
 42
0.0000000001
 43
0.0000000001
 40
0.0
 40
0.0
 40
0.0
 40
0.0
 40
0.3333333333333333
 40
0.3333333333333333
 40
0.3333333333333333
 40
0.3333333333333333
 40
1.0
 40
1.0
 40
1.0
 40
1.0
 10
-1.2302
 20
17.3473
 30
0.0
 10
-1.2302
 20
17.3473
 30
0.0
 10
-1.2302
 20
17.9455
 30
0.0
 10
-1.2302
 20
17.9455
 30
0.0
 10
-1.2302
 20
17.9455
 30
0.0
 10
-1.2302
 20
17.9455
 30
0.0
 10
-1.2302
 20
17.3473
 30
0.0
 10
-1.2302
 20
17.3473
 30
0.0
  0
SPLINE
  5
4A
330
1F
100
AcDbEntity
  8
DEFAULT_1
 62
   250
370
    35
100
AcDbSpline
210
0.0
220
0.0
230
1.0
 70
    11
 71
     3
 72
    84
 73
    80
 74
     0
 42
0.0000000001
 43
0.0000000001
 40
0.0
 40
0.0
 40
0.0
 40
0.0
 40
0.0476190476190476
 40
0.0476190476190476
 40
0.0476190476190476
 40
0.0476190476190476
 40
0.0952380952380952
 40
0.0952380952380952
 40
0.0952380952380952
 40
0.0952380952380952
 40
0.1428571428571428
 40
0.1428571428571428
 40
0.1428571428571428
 40
0.1428571428571428
 40
0.1904761904761905
 40
0.1904761904761905
 40
0.1904761904761905
 40
0.1904761904761905
 40
0.2380952380952381
 40
0.2380952380952381
 40
0.2380952380952381
 40
0.2380952380952381
 40
0.2857142857142857
 40
0.2857142857142857
 40
0.2857142857142857
 40
0.2857142857142857
 40
0.3333333333333333
 40
0.3333333333333333
 40
0.3333333333333333
 40
0.3333333333333333
 40
0.3809523809523809
 40
0.3809523809523809
 40
0.3809523809523809
 40
0.3809523809523809
 40
0.4285714285714285
 40
0.4285714285714285
 40
0.4285714285714285
 40
0.4285714285714285
 40
0.4761904761904762
 40
0.4761904761904762
 40
0.4761904761904762
 40
0.4761904761904762
 40
0.5238095238095238
 40
0.5238095238095238
 40
0.5238095238095238
 40
0.5238095238095238
 40
0.5714285714285714
 40
0.5714285714285714
 40
0.5714285714285714
 40
0.5714285714285714
 40
0.6190476190476191
 40
0.6190476190476191
 40
0.6190476190476191
 40
0.6190476190476191
 40
0.6666666666666666
 40
0.6666666666666666
 40
0.6666666666666666
 40
0.6666666666666666
 40
0.7142857142857143
 40
0.7142857142857143
 40
0.7142857142857143
 40
0.7142857142857143
 40
0.7619047619047619
 40
0.7619047619047619
 40
0.7619047619047619
 40
0.7619047619047619
 40
0.8095238095238095
 40
0.8095238095238095
 40
0.8095238095238095
 40
0.8095238095238095
 40
0.8571428571428571
 40
0.8571428571428571
 40
0.8571428571428571
 40
0.8571428571428571
 40
0.9047619047619048
 40
0.9047619047619048
 40
0.9047619047619048
 40
0.9047619047619048
 40
1.0
 40
1.0
 40
1.0
 40
1.0
 10
-9.2339
 20
22.0687
 30
0.0
 10
-9.2339
 20
22.0687
 30
0.0
 10
-9.2383
 20
22.4193
 30
0.0
 10
-9.2383
 20
22.4193
 30
0.0
 10
-9.2383
 20
22.4193
 30
0.0
 10
-9.2383
 20
22.4193
 30
0.0
 10
-7.8459
 20
23.1108
 30
0.0
 10
-7.8459
 20
23.1108
 30
0.0
 10
-7.8459
 20
23.1108
 30
0.0
 10
-7.8459
 20
23.1108
 30
0.0
 10
-6.0011
 20
23.8369
 30
0.0
 10
-6.0011
 20
23.8369
 30
0.0
 10
-6.0011
 20
23.8369
 30
0.0
 10
-6.0011
 20
23.8369
 30
0.0
 10
-4.1216
 20
24.3902
 30
0.0
 10
-4.1216
 20
24.3902
 30
0.0
 10
-4.1216
 20
24.3902
 30
0.0
 10
-4.1216
 20
24.3902
 30
0.0
 10
-2.4159
 20
24.8051
 30
0.0
 10
-2.4159
 20
24.8051
 30
0.0
 10
-2.4159
 20
24.8051
 30
0.0
 10
-2.4159
 20
24.8051
 30
0.0
 10
-0.78
 20
25.1509
 30
0.0
 10
-0.78
 20
25.1509
 30
0.0
 10
-0.78
 20
25.1509
 30
0.0
 10
-0.78
 20
25.1509
 30
0.0
 10
1.1692
 20
25.4966
 30
0.0
 10
1.1692
 20
25.4966
 30
0.0
 10
1.1692
 20
25.4966
 30
0.0
 10
1.1692
 20
25.4966
 30
0.0
 10
2.8747
 20
25.6695
 30
0.0
 10
2.8747
 20
25.6695
 30
0.0
 10
2.8747
 20
25.6695
 30
0.0
 10
2.8747
 20
25.6695
 30
0.0
 10
4.8589
 20
25.7732
 30
0.0
 10
4.8589
 20
25.7732
 30
0.0
 10
4.8589
 20
25.7732
 30
0.0
 10
4.8589
 20
25.7732
 30
0.0
 10
6.843
 20
25.7732
 30
0.0
 10
6.843
 20
25.7732
 30
0.0
 10
6.843
 20
25.7732
 30
0.0
 10
6.843
 20
25.7732
 30
0.0
 10
8.6876
 20
25.7041
 30
0.0
 10
8.6876
 20
25.7041
 30
0.0
 10
8.6876
 20
25.7041
 30
0.0
 10
8.6876
 20
25.7041
 30
0.0
 10
10.7066
 20
25.462
 30
0.0
 10
10.7066
 20
25.462
 30
0.0
 10
10.7066
 20
25.462
 30
0.0
 10
10.7066
 20
25.462
 30
0.0
 10
12.8647
 20
25.1163
 30
0.0
 10
12.8647
 20
25.1163
 30
0.0
 10
12.8647
 20
25.1163
 30
0.0
 10
12.8647
 20
25.1163
 30
0.0
 10
14.7094
 20
24.7359
 30
0.0
 10
14.7094
 20
24.7359
 30
0.0
 10
14.7094
 20
24.7359
 30
0.0
 10
14.7094
 20
24.7359
 30
0.0
 10
16.3802
 20
24.2864
 30
0.0
 10
16.3802
 20
24.2864
 30
0.0
 10
16.3802
 20
24.2864
 30
0.0
 10
16.3802
 20
24.2864
 30
0.0
 10
18.9211
 20
23.4911
 30
0.0
 10
18.9211
 20
23.4911
 30
0.0
 10
18.9211
 20
23.4911
 30
0.0
 10
18.9211
 20
23.4911
 30
0.0
 10
20.8007
 20
22.765
 30
0.0
 10
20.8007
 20
22.765
 30
0.0
 10
20.8007
 20
22.765
 30
0.0
 10
20.8007
 20
22.765
 30
0.0
 10
21.2881
 20
22.523
 30
0.0
 10
21.2881
 20
22.523
 30
0.0
 10
21.2881
 20
22.523
 30
0.0
 10
21.2881
 20
22.523
 30
0.0
 10
21.2643
 20
22.0687
 30
0.0
 10
21.2643
 20
22.0687
 30
0.0
 10
21.2643
 20
22.0687
 30
0.0
 10
21.2643
 20
22.0687
 30
0.0
 10
-9.2339
 20
22.0687
 30
0.0
 10
-9.2339
 20
22.0687
 30
0.0
  0
SPLINE
  5
4B
330
1F
100
AcDbEntity
  8
DEFAULT_1
 62
   250
370
    35
100
AcDbSpline
210
0.0
220
0.0
230
1.0
 70
     8
 71
     3
 72
    16
 73
    12
 74
     0
 42
0.0000000001
 43
0.0000000001
 40
0.0
 40
0.0
 40
0.0
 40
0.0
 40
0.25
 40
0.25
 40
0.25
 40
0.25
 40
0.5
 40
0.5
 40
0.5
 40
0.5
 40
1.0
 40
1.0
 40
1.0
 40
1.0
 10
-1.5352
 20
22.0687
 30
0.0
 10
-1.5352
 20
22.0687
 30
0.0
 10
-1.5352
 20
17.9458
 30
0.0
 10
-1.5352
 20
17.9458
 30
0.0
 10
-1.5352
 20
17.9458
 30
0.0
 10
-1.5352
 20
17.9458
 30
0.0
 10
13.7078
 20
17.9827
 30
0.0
 10
13.7078
 20
17.9827
 30
0.0
 10
13.7078
 20
17.9827
 30
0.0
 10
13.7078
 20
17.9827
 30
0.0
 10
13.7078
 20
22.063
 30
0.0
 10
13.7078
 20
22.063
 30
0.0
  0
SPLINE
  5
4C
330
1F
100
AcDbEntity
  8
DEFAULT_1
 62
   250
370
    40
100
AcDbSpline
210
0.0
220
0.0
230
1.0
 70
    24
 71
     3
 72
     8
 73
     4
 74
     0
 42
0.0000000001
 43
0.0000000001
 40
0.0
 40
0.0
 40
0.0
 40
0.0
 40
1.0
 40
1.0
 40
1.0
 40
1.0
 10
-3.4493
 20
-20.8984
 30
0.0
 10
-3.4493
 20
-20.8984
 30
0.0
 10
-3.4493
 20
-27.5073
 30
0.0
 10
-3.4493
 20
-27.5073
 30
0.0
  0
SPLINE
  5
4D
330
1F
100
AcDbEntity
  8
DEFAULT_1
 62
   250
370
    40
100
AcDbSpline
210
0.0
220
0.0
230
1.0
 70
    24
 71
     3
 72
     8
 73
     4
 74
     0
 42
0.0000000001
 43
0.0000000001
 40
0.0
 40
0.0
 40
0.0
 40
0.0
 40
1.0
 40
1.0
 40
1.0
 40
1.0
 10
15.5482
 20
-21.0716
 30
0.0
 10
15.5482
 20
-21.0716
 30
0.0
 10
15.5482
 20
-27.5073
 30
0.0
 10
15.5482
 20
-27.5073
 30
0.0
  0
SPLINE
  5
4E
330
1F
100
AcDbEntity
  8
DEFAULT_1
 62
   250
370
    40
100
AcDbSpline
210
0.0
220
0.0
230
1.0
 70
    24
 71
     3
 72
     8
 73
     4
 74
     0
 42
0.0000000001
 43
0.0000000001
 40
0.0
 40
0.0
 40
0.0
 40
0.0
 40
1.0
 40
1.0
 40
1.0
 40
1.0
 10
-3.1201
 20
-26.5791
 30
0.0
 10
-3.1201
 20
-26.5791
 30
0.0
 10
15.3304
 20
-26.5791
 30
0.0
 10
15.3304
 20
-26.5791
 30
0.0
  0
SPLINE
  5
4F
330
1F
100
AcDbEntity
  8
DEFAULT_1
 62
   250
370
    40
100
AcDbSpline
210
0.0
220
0.0
230
1.0
 70
    24
 71
     3
 72
     8
 73
     4
 74
     0
 42
0.0000000001
 43
0.0000000001
 40
0.0
 40
0.0
 40
0.0
 40
0.0
 40
1.0
 40
1.0
 40
1.0
 40
1.0
 10
-4.0205
 20
-20.2694
 30
0.0
 10
-4.0205
 20
-20.2694
 30
0.0
 10
-19.539
 20
-20.2694
 30
0.0
 10
-19.539
 20
-20.2694
 30
0.0
  0
SPLINE
  5
50
330
1F
100
AcDbEntity
  8
DEFAULT_1
 62
   250
370
    80
100
AcDbSpline
210
0.0
220
0.0
230
1.0
 70
    24
 71
     3
 72
     8
 73
     4
 74
     0
 42
0.0000000001
 43
0.0000000001
 40
0.0
 40
0.0
 40
0.0
 40
0.0
 40
1.0
 40
1.0
 40
1.0
 40
1.0
 10
-4.7776
 20
-15.1388
 30
0.0
 10
-4.7776
 20
-15.1388
 30
0.0
 10
-9.5363
 20
-15.1388
 30
0.0
 10
-9.5363
 20
-15.1388
 30
0.0
  0
SPLINE
  5
51
330
1F
100
AcDbEntity
  8
DEFAULT_1
 62
   250
370
    25
100
AcDbSpline
210
0.0
220
0.0
230
1.0
 70
    24
 71
     3
 72
     8
 73
     4
 74
     0
 42
0.0000000001
 43
0.0000000001
 40
0.0
 40
0.0
 40
0.0
 40
0.0
 40
1.0
 40
1.0
 40
1.0
 40
1.0
 10
-8.9191
 20
-22.246
 30
0.0
 10
-8.9191
 20
-22.246
 30
0.0
 10
-8.9191
 20
-9.5344
 30
0.0
 10
-8.9191
 20
-9.5344
 30
0.0
  0
SPLINE
  5
52
330
1F
100
AcDbEntity
  8
DEFAULT_1
 62
   250
370
    40
100
AcDbSpline
210
0.0
220
0.0
230
1.0
 70
    24
 71
     3
 72
     8
 73
     4
 74
     0
 42
0.0000000001
 43
0.0000000001
 40
0.0
 40
0.0
 40
0.0
 40
0.0
 40
1.0
 40
1.0
 40
1.0
 40
1.0
 10
-9.124
 20
-0.6204
 30
0.0
 10
-9.124
 20
-0.6204
 30
0.0
 10
-19.5058
 20
-0.6204
 30
0.0
 10
-19.5058
 20
-0.6204
 30
0.0
  0
SPLINE
  5
53
330
1F
100
AcDbEntity
  8
DEFAULT_1
 62
   250
370
    25
100
AcDbSpline
210
0.0
220
0.0
230
1.0
 70
    24
 71
     3
 72
     8
 73
     4
 74
     0
 42
0.0000000001
 43
0.0000000001
 40
0.0
 40
0.0
 40
0.0
 40
0.0
 40
1.0
 40
1.0
 40
1.0
 40
1.0
 10
-19.0294
 20
-19.5646
 30
0.0
 10
-19.0294
 20
-19.5646
 30
0.0
 10
-19.0294
 20
-0.159
 30
0.0
 10
-19.0294
 20
-0.159
 30
0.0
  0
SPLINE
  5
54
330
1F
100
AcDbEntity
  8
DEFAULT_1
 62
   250
370
    40
100
AcDbSpline
210
0.0
220
0.0
230
1.0
 70
    24
 71
     3
 72
     8
 73
     4
 74
     0
 42
0.0000000001
 43
0.0000000001
 40
0.0
 40
0.0
 40
0.0
 40
0.0
 40
1.0
 40
1.0
 40
1.0
 40
1.0
 10
-19.0293
 20
13.6425
 30
0.0
 10
-19.0293
 20
13.6425
 30
0.0
 10
-19.0293
 20
-0.159
 30
0.0
 10
-19.0293
 20
-0.159
 30
0.0
  0
SPLINE
  5
55
330
1F
100
AcDbEntity
  8
DEFAULT_1
 62
   250
370
    40
100
AcDbSpline
210
0.0
220
0.0
230
1.0
 70
    24
 71
     3
 72
     8
 73
     4
 74
     0
 42
0.0000000001
 43
0.0000000001
 40
0.0
 40
0.0
 40
0.0
 40
0.0
 40
1.0
 40
1.0
 40
1.0
 40
1.0
 10
-9.8397
 20
14.1543
 30
0.0
 10
-9.8397
 20
14.1543
 30
0.0
 10
-19.7704
 20
14.1543
 30
0.0
 10
-19.7704
 20
14.1543
 30
0.0
  0
SPLINE
  5
56
330
1F
100
AcDbEntity
  8
DEFAULT_1
 62
   250
370
    40
100
AcDbSpline
210
0.0
220
0.0
230
1.0
 70
    24
 71
     3
 72
     8
 73
     4
 74
     0
 42
0.0000000001
 43
0.0000000001
 40
0.0
 40
0.0
 40
0.0
 40
0.0
 40
1.0
 40
1.0
 40
1.0
 40
1.0
 10
-4.5022
 20
-16.2609
 30
0.0
 10
-4.5022
 20
-16.2609
 30
0.0
 10
-4.5022
 20
-33.4165
 30
0.0
 10
-4.5022
 20
-33.4165
 30
0.0
  0
SPLINE
  5
57
330
1F
100
AcDbEntity
  8
DEFAULT_1
 62
   250
370
    40
100
AcDbSpline
210
0.0
220
0.0
230
1.0
 70
    24
 71
     3
 72
     8
 73
     4
 74
     0
 42
0.0000000001
 43
0.0000000001
 40
0.0
 40
0.0
 40
0.0
 40
0.0
 40
1.0
 40
1.0
 40
1.0
 40
1.0
 10
16.5676
 20
-15.9493
 30
0.0
 10
16.5676
 20
-15.9493
 30
0.0
 10
16.5676
 20
-33.5414
 30
0.0
 10
16.5676
 20
-33.5414
 30
0.0
  0
SPLINE
  5
58
330
1F
100
AcDbEntity
  8
DEFAULT_1
 62
   250
370
    40
100
AcDbSpline
210
0.0
220
0.0
230
1.0
 70
    24
 71
     3
 72
     8
 73
     4
 74
     0
 42
0.0000000001
 43
0.0000000001
 40
0.0
 40
0.0
 40
0.0
 40
0.0
 40
1.0
 40
1.0
 40
1.0
 40
1.0
 10
-3.5792
 20
-32.6568
 30
0.0
 10
-3.5792
 20
-32.6568
 30
0.0
 10
15.4871
 20
-32.6568
 30
0.0
 10
15.4871
 20
-32.6568
 30
0.0
  0
SPLINE
  5
59
330
1F
100
AcDbEntity
  8
DEFAULT_1
  6
New Line1
 62
   250
370
    35
100
AcDbSpline
210
0.0
220
0.0
230
1.0
 70
    24
 71
     3
 72
     8
 73
     4
 74
     0
 42
0.0000000001
 43
0.0000000001
 40
0.0
 40
0.0
 40
0.0
 40
0.0
 40
1.0
 40
1.0
 40
1.0
 40
1.0
 10
6.0498
 20
-21.0318
 30
0.0
 10
6.0498
 20
-21.0318
 30
0.0
 10
6.0498
 20
27.1531
 30
0.0
 10
6.0498
 20
27.1531
 30
0.0
  0
SPLINE
  5
5B
330
1F
100
AcDbEntity
  8
DEFAULT_1
 62
   250
370
    40
100
AcDbSpline
210
0.0
220
0.0
230
1.0
 70
    24
 71
     3
 72
     8
 73
     4
 74
     0
 42
0.0000000001
 43
0.0000000001
 40
0.0
 40
0.0
 40
0.0
 40
0.0
 40
1.0
 40
1.0
 40
1.0
 40
1.0
 10
21.3904
 20
23.2287
 30
0.0
 10
21.3904
 20
23.2287
 30
0.0
 10
21.3904
 20
30.814
 30
0.0
 10
21.3904
 20
30.814
 30
0.0
  0
SPLINE
  5
5C
330
1F
100
AcDbEntity
  8
DEFAULT_1
 62
   250
370
    35
100
AcDbSpline
210
0.0
220
0.0
230
1.0
 70
    24
 71
     3
 72
     8
 73
     4
 74
     0
 42
0.0000000001
 43
0.0000000001
 40
0.0
 40
0.0
 40
0.0
 40
0.0
 40
1.0
 40
1.0
 40
1.0
 40
1.0
 10
-9.3884
 20
23.1846
 30
0.0
 10
-9.3884
 20
23.1846
 30
0.0
 10
-9.3884
 20
30.5829
 30
0.0
 10
-9.3884
 20
30.5829
 30
0.0
  0
SPLINE
  5
5D
330
1F
100
AcDbEntity
  8
DEFAULT_1
 62
   250
370
    15
100
AcDbSpline
210
0.0
220
0.0
230
1.0
 70
    24
 71
     3
 72
     8
 73
     4
 74
     0
 42
0.0000000001
 43
0.0000000001
 40
0.0
 40
0.0
 40
0.0
 40
0.0
 40
1.0
 40
1.0
 40
1.0
 40
1.0
 10
12.3195
 20
1.3906
 30
0.0
 10
12.3195
 20
1.3906
 30
0.0
 10
15.3881
 20
1.5207
 30
0.0
 10
15.3881
 20
1.5207
 30
0.0
  0
SPLINE
  5
5E
330
1F
100
AcDbEntity
  8
DEFAULT_1
 62
   250
370
    15
100
AcDbSpline
210
0.0
220
0.0
230
1.0
 70
    24
 71
     3
 72
     8
 73
     4
 74
     0
 42
0.0000000001
 43
0.0000000001
 40
0.0
 40
0.0
 40
0.0
 40
0.0
 40
1.0
 40
1.0
 40
1.0
 40
1.0
 10
-3.2191
 20
11.9418
 30
0.0
 10
-3.2191
 20
11.9418
 30
0.0
 10
14.0519
 20
12.6745
 30
0.0
 10
14.0519
 20
12.6745
 30
0.0
  0
SPLINE
  5
5F
330
1F
100
AcDbEntity
  8
DEFAULT_1
 62
   250
370
    15
100
AcDbSpline
210
0.0
220
0.0
230
1.0
 70
    24
 71
     3
 72
     8
 73
     4
 74
     0
 42
0.0000000001
 43
0.0000000001
 40
0.0
 40
0.0
 40
0.0
 40
0.0
 40
1.0
 40
1.0
 40
1.0
 40
1.0
 10
12.207
 20
2.4721
 30
0.0
 10
12.207
 20
2.4721
 30
0.0
 10
15.2742
 20
2.6025
 30
0.0
 10
15.2742
 20
2.6025
 30
0.0
  0
SPLINE
  5
60
330
1F
100
AcDbEntity
  8
DEFAULT_1
 62
   250
370
    15
100
AcDbSpline
210
0.0
220
0.0
230
1.0
 70
    24
 71
     3
 72
     8
 73
     4
 74
     0
 42
0.0000000001
 43
0.0000000001
 40
0.0
 40
0.0
 40
0.0
 40
0.0
 40
1.0
 40
1.0
 40
1.0
 40
1.0
 10
-3.3097
 20
1.8141
 30
0.0
 10
-3.3097
 20
1.8141
 30
0.0
 10
-0.0276
 20
1.9544
 30
0.0
 10
-0.0276
 20
1.9544
 30
0.0
  0
SPLINE
  5
61
330
1F
100
AcDbEntity
  8
DEFAULT_1
 62
   250
370
    15
100
AcDbSpline
210
0.0
220
0.0
230
1.0
 70
    24
 71
     3
 72
     8
 73
     4
 74
     0
 42
0.0000000001
 43
0.0000000001
 40
0.0
 40
0.0
 40
0.0
 40
0.0
 40
1.0
 40
1.0
 40
1.0
 40
1.0
 10
-3.2259
 20
3.2454
 30
0.0
 10
-3.2259
 20
3.2454
 30
0.0
 10
-0.1395
 20
3.376
 30
0.0
 10
-0.1395
 20
3.376
 30
0.0
  0
SPLINE
  5
62
330
1F
100
AcDbEntity
  8
DEFAULT_1
 62
   250
370
    15
100
AcDbSpline
210
0.0
220
0.0
230
1.0
 70
    24
 71
     3
 72
     8
 73
     4
 74
     0
 42
0.0000000001
 43
0.0000000001
 40
0.0
 40
0.0
 40
0.0
 40
0.0
 40
1.0
 40
1.0
 40
1.0
 40
1.0
 10
12.2388
 20
3.9021
 30
0.0
 10
12.2388
 20
3.9021
 30
0.0
 10
15.2319
 20
4.0284
 30
0.0
 10
15.2319
 20
4.0284
 30
0.0
  0
SPLINE
  5
63
330
1F
100
AcDbEntity
  8
DEFAULT_1
 62
   250
370
    15
100
AcDbSpline
210
0.0
220
0.0
230
1.0
 70
    24
 71
     3
 72
     8
 73
     4
 74
     0
 42
0.0000000001
 43
0.0000000001
 40
0.0
 40
0.0
 40
0.0
 40
0.0
 40
1.0
 40
1.0
 40
1.0
 40
1.0
 10
12.2715
 20
5.2666
 30
0.0
 10
12.2715
 20
5.2666
 30
0.0
 10
15.2402
 20
5.3938
 30
0.0
 10
15.2402
 20
5.3938
 30
0.0
  0
SPLINE
  5
64
330
1F
100
AcDbEntity
  8
DEFAULT_1
 62
   250
370
    15
100
AcDbSpline
210
0.0
220
0.0
230
1.0
 70
    24
 71
     3
 72
     8
 73
     4
 74
     0
 42
0.0000000001
 43
0.0000000001
 40
0.0
 40
0.0
 40
0.0
 40
0.0
 40
1.0
 40
1.0
 40
1.0
 40
1.0
 10
-3.2765
 20
4.6082
 30
0.0
 10
-3.2765
 20
4.6082
 30
0.0
 10
-0.0932
 20
4.7434
 30
0.0
 10
-0.0932
 20
4.7434
 30
0.0
  0
SPLINE
  5
65
330
1F
100
AcDbEntity
  8
DEFAULT_1
 62
   250
370
    15
100
AcDbSpline
210
0.0
220
0.0
230
1.0
 70
    24
 71
     3
 72
     8
 73
     4
 74
     0
 42
0.0000000001
 43
0.0000000001
 40
0.0
 40
0.0
 40
0.0
 40
0.0
 40
1.0
 40
1.0
 40
1.0
 40
1.0
 10
-3.3038
 20
5.9597
 30
0.0
 10
-3.3038
 20
5.9597
 30
0.0
 10
15.3512
 20
6.7511
 30
0.0
 10
15.3512
 20
6.7511
 30
0.0
  0
SPLINE
  5
66
330
1F
100
AcDbEntity
  8
DEFAULT_1
 62
   250
370
    15
100
AcDbSpline
210
0.0
220
0.0
230
1.0
 70
    24
 71
     3
 72
     8
 73
     4
 74
     0
 42
0.0000000001
 43
0.0000000001
 40
0.0
 40
0.0
 40
0.0
 40
0.0
 40
1.0
 40
1.0
 40
1.0
 40
1.0
 10
-3.3506
 20
7.1739
 30
0.0
 10
-3.3506
 20
7.1739
 30
0.0
 10
15.3044
 20
7.9653
 30
0.0
 10
15.3044
 20
7.9653
 30
0.0
  0
SPLINE
  5
67
330
1F
100
AcDbEntity
  8
DEFAULT_1
 62
   250
370
    15
100
AcDbSpline
210
0.0
220
0.0
230
1.0
 70
    24
 71
     3
 72
     8
 73
     4
 74
     0
 42
0.0000000001
 43
0.0000000001
 40
0.0
 40
0.0
 40
0.0
 40
0.0
 40
1.0
 40
1.0
 40
1.0
 40
1.0
 10
-3.3506
 20
9.5157
 30
0.0
 10
-3.3506
 20
9.5157
 30
0.0
 10
15.3044
 20
10.3068
 30
0.0
 10
15.3044
 20
10.3068
 30
0.0
  0
SPLINE
  5
68
330
1F
100
AcDbEntity
  8
DEFAULT_1
 62
   250
370
    15
100
AcDbSpline
210
0.0
220
0.0
230
1.0
 70
    24
 71
     3
 72
     8
 73
     4
 74
     0
 42
0.0000000001
 43
0.0000000001
 40
0.0
 40
0.0
 40
0.0
 40
0.0
 40
1.0
 40
1.0
 40
1.0
 40
1.0
 10
-3.0795
 20
10.8464
 30
0.0
 10
-3.0795
 20
10.8464
 30
0.0
 10
15.3532
 20
11.6285
 30
0.0
 10
15.3532
 20
11.6285
 30
0.0
  0
SPLINE
  5
69
330
1F
100
AcDbEntity
  8
DEFAULT_1
 62
   250
370
    15
100
AcDbSpline
210
0.0
220
0.0
230
1.0
 70
    24
 71
     3
 72
     8
 73
     4
 74
     0
 42
0.0000000001
 43
0.0000000001
 40
0.0
 40
0.0
 40
0.0
 40
0.0
 40
1.0
 40
1.0
 40
1.0
 40
1.0
 10
-3.463
 20
-17.0243
 30
0.0
 10
-3.463
 20
-17.0243
 30
0.0
 10
15.5433
 20
-16.5521
 30
0.0
 10
15.5433
 20
-16.5521
 30
0.0
  0
SPLINE
  5
6A
330
1F
100
AcDbEntity
  8
DEFAULT_1
 62
   250
370
    15
100
AcDbSpline
210
0.0
220
0.0
230
1.0
 70
    24
 71
     3
 72
     8
 73
     4
 74
     0
 42
0.0000000001
 43
0.0000000001
 40
0.0
 40
0.0
 40
0.0
 40
0.0
 40
1.0
 40
1.0
 40
1.0
 40
1.0
 10
-3.4128
 20
-15.7248
 30
0.0
 10
-3.4128
 20
-15.7248
 30
0.0
 10
15.5935
 20
-15.2526
 30
0.0
 10
15.5935
 20
-15.2526
 30
0.0
  0
SPLINE
  5
6B
330
1F
100
AcDbEntity
  8
DEFAULT_1
 62
   250
370
    15
100
AcDbSpline
210
0.0
220
0.0
230
1.0
 70
    24
 71
     3
 72
     8
 73
     4
 74
     0
 42
0.0000000001
 43
0.0000000001
 40
0.0
 40
0.0
 40
0.0
 40
0.0
 40
1.0
 40
1.0
 40
1.0
 40
1.0
 10
-3.4128
 20
-19.6844
 30
0.0
 10
-3.4128
 20
-19.6844
 30
0.0
 10
15.5935
 20
-19.2121
 30
0.0
 10
15.5935
 20
-19.2121
 30
0.0
  0
SPLINE
  5
6C
330
1F
100
AcDbEntity
  8
DEFAULT_1
 62
   250
370
    15
100
AcDbSpline
210
0.0
220
0.0
230
1.0
 70
    24
 71
     3
 72
     8
 73
     4
 74
     0
 42
0.0000000001
 43
0.0000000001
 40
0.0
 40
0.0
 40
0.0
 40
0.0
 40
1.0
 40
1.0
 40
1.0
 40
1.0
 10
-3.4128
 20
-18.2736
 30
0.0
 10
-3.4128
 20
-18.2736
 30
0.0
 10
15.5935
 20
-17.8013
 30
0.0
 10
15.5935
 20
-17.8013
 30
0.0
  0
SPLINE
  5
6D
330
1F
100
AcDbEntity
  8
DEFAULT_1
 62
   250
370
    30
100
AcDbSpline
210
0.0
220
0.0
230
1.0
 70
     8
 71
     3
 72
    32
 73
    28
 74
     0
 42
0.0000000001
 43
0.0000000001
 40
0.0
 40
0.0
 40
0.0
 40
0.0
 40
0.125
 40
0.125
 40
0.125
 40
0.125
 40
0.25
 40
0.25
 40
0.25
 40
0.25
 40
0.375
 40
0.375
 40
0.375
 40
0.375
 40
0.5
 40
0.5
 40
0.5
 40
0.5
 40
0.625
 40
0.625
 40
0.625
 40
0.625
 40
0.75
 40
0.75
 40
0.75
 40
0.75
 40
1.0
 40
1.0
 40
1.0
 40
1.0
 10
-5.7149
 20
-2.0875
 30
0.0
 10
-5.7149
 20
-2.0875
 30
0.0
 10
-5.7343
 20
-5.1865
 30
0.0
 10
-5.7343
 20
-5.1865
 30
0.0
 10
-5.7343
 20
-5.1865
 30
0.0
 10
-5.7343
 20
-5.1865
 30
0.0
 10
-0.6992
 20
-5.1865
 30
0.0
 10
-0.6992
 20
-5.1865
 30
0.0
 10
-0.6992
 20
-5.1865
 30
0.0
 10
-0.6992
 20
-5.1865
 30
0.0
 10
1.3246
 20
-5.1865
 30
0.0
 10
1.3246
 20
-5.1865
 30
0.0
 10
1.3246
 20
-5.1865
 30
0.0
 10
1.3246
 20
-5.1865
 30
0.0
 10
10.769
 20
-5.1865
 30
0.0
 10
10.769
 20
-5.1865
 30
0.0
 10
10.769
 20
-5.1865
 30
0.0
 10
10.769
 20
-5.1865
 30
0.0
 10
12.793
 20
-5.1865
 30
0.0
 10
12.793
 20
-5.1865
 30
0.0
 10
12.793
 20
-5.1865
 30
0.0
 10
12.793
 20
-5.1865
 30
0.0
 10
17.8281
 20
-5.1865
 30
0.0
 10
17.8281
 20
-5.1865
 30
0.0
 10
17.8281
 20
-5.1865
 30
0.0
 10
17.8281
 20
-5.1865
 30
0.0
 10
17.8109
 20
-2.0875
 30
0.0
 10
17.8109
 20
-2.0875
 30
0.0
  0
SPLINE
  5
6E
330
1F
100
AcDbEntity
  8
DEFAULT_1
 62
   250
370
    30
100
AcDbSpline
210
0.0
220
0.0
230
1.0
 70
     8
 71
     3
 72
    40
 73
    36
 74
     0
 42
0.0000000001
 43
0.0000000001
 40
0.0
 40
0.0
 40
0.0
 40
0.0
 40
0.1
 40
0.1
 40
0.1
 40
0.1
 40
0.2
 40
0.2
 40
0.2
 40
0.2
 40
0.3
 40
0.3
 40
0.3
 40
0.3
 40
0.4
 40
0.4
 40
0.4
 40
0.4
 40
0.5
 40
0.5
 40
0.5
 40
0.5
 40
0.6
 40
0.6
 40
0.6
 40
0.6
 40
0.7
 40
0.7
 40
0.7
 40
0.7
 40
0.8
 40
0.8
 40
0.8
 40
0.8
 40
1.0
 40
1.0
 40
1.0
 40
1.0
 10
-4.4592
 20
-5.1865
 30
0.0
 10
-4.4592
 20
-5.1865
 30
0.0
 10
-4.4465
 20
-14.6882
 30
0.0
 10
-4.4465
 20
-14.6882
 30
0.0
 10
-4.4465
 20
-14.6882
 30
0.0
 10
-4.4465
 20
-14.6882
 30
0.0
 10
-3.5055
 20
-15.1791
 30
0.0
 10
-3.5055
 20
-15.1791
 30
0.0
 10
-3.5055
 20
-15.1791
 30
0.0
 10
-3.5055
 20
-15.1791
 30
0.0
 10
-3.5055
 20
-19.7206
 30
0.0
 10
-3.5055
 20
-19.7206
 30
0.0
 10
-3.5055
 20
-19.7206
 30
0.0
 10
-3.5055
 20
-19.7206
 30
0.0
 10
-3.067
 20
-20.2412
 30
0.0
 10
-3.067
 20
-20.2412
 30
0.0
 10
-3.067
 20
-20.2412
 30
0.0
 10
-3.067
 20
-20.2412
 30
0.0
 10
15.1608
 20
-20.2412
 30
0.0
 10
15.1608
 20
-20.2412
 30
0.0
 10
15.1608
 20
-20.2412
 30
0.0
 10
15.1608
 20
-20.2412
 30
0.0
 10
15.6933
 20
-19.8501
 30
0.0
 10
15.6933
 20
-19.8501
 30
0.0
 10
15.6933
 20
-19.8501
 30
0.0
 10
15.6933
 20
-19.8501
 30
0.0
 10
15.6933
 20
-15.1626
 30
0.0
 10
15.6933
 20
-15.1626
 30
0.0
 10
15.6933
 20
-15.1626
 30
0.0
 10
15.6933
 20
-15.1626
 30
0.0
 10
16.7014
 20
-14.7594
 30
0.0
 10
16.7014
 20
-14.7594
 30
0.0
 10
16.7014
 20
-14.7594
 30
0.0
 10
16.7014
 20
-14.7594
 30
0.0
 10
16.6578
 20
-5.1865
 30
0.0
 10
16.6578
 20
-5.1865
 30
0.0
  0
SPLINE
  5
6F
330
1F
100
AcDbEntity
  8
DEFAULT_1
 62
   250
370
    30
100
AcDbSpline
210
0.0
220
0.0
230
1.0
 70
    11
 71
     3
 72
   128
 73
   124
 74
     0
 42
0.0000000001
 43
0.0000000001
 40
0.0
 40
0.0
 40
0.0
 40
0.0
 40
0.03125
 40
0.03125
 40
0.03125
 40
0.03125
 40
0.0625
 40
0.0625
 40
0.0625
 40
0.0625
 40
0.09375
 40
0.09375
 40
0.09375
 40
0.09375
 40
0.125
 40
0.125
 40
0.125
 40
0.125
 40
0.15625
 40
0.15625
 40
0.15625
 40
0.15625
 40
0.1875
 40
0.1875
 40
0.1875
 40
0.1875
 40
0.21875
 40
0.21875
 40
0.21875
 40
0.21875
 40
0.25
 40
0.25
 40
0.25
 40
0.25
 40
0.28125
 40
0.28125
 40
0.28125
 40
0.28125
 40
0.3125
 40
0.3125
 40
0.3125
 40
0.3125
 40
0.34375
 40
0.34375
 40
0.34375
 40
0.34375
 40
0.375
 40
0.375
 40
0.375
 40
0.375
 40
0.40625
 40
0.40625
 40
0.40625
 40
0.40625
 40
0.4375
 40
0.4375
 40
0.4375
 40
0.4375
 40
0.46875
 40
0.46875
 40
0.46875
 40
0.46875
 40
0.5
 40
0.5
 40
0.5
 40
0.5
 40
0.53125
 40
0.53125
 40
0.53125
 40
0.53125
 40
0.5625
 40
0.5625
 40
0.5625
 40
0.5625
 40
0.59375
 40
0.59375
 40
0.59375
 40
0.59375
 40
0.625
 40
0.625
 40
0.625
 40
0.625
 40
0.65625
 40
0.65625
 40
0.65625
 40
0.65625
 40
0.6875
 40
0.6875
 40
0.6875
 40
0.6875
 40
0.71875
 40
0.71875
 40
0.71875
 40
0.71875
 40
0.75
 40
0.75
 40
0.75
 40
0.75
 40
0.78125
 40
0.78125
 40
0.78125
 40
0.78125
 40
0.8125
 40
0.8125
 40
0.8125
 40
0.8125
 40
0.84375
 40
0.84375
 40
0.84375
 40
0.84375
 40
0.875
 40
0.875
 40
0.875
 40
0.875
 40
0.90625
 40
0.90625
 40
0.90625
 40
0.90625
 40
0.9375
 40
0.9375
 40
0.9375
 40
0.9375
 40
1.0
 40
1.0
 40
1.0
 40
1.0
 10
-0.6992
 20
-2.1125
 30
0.0
 10
-0.6992
 20
-2.1125
 30
0.0
 10
-1.3755
 20
-2.2419
 30
0.0
 10
-1.3755
 20
-2.2419
 30
0.0
 10
-1.3755
 20
-2.2419
 30
0.0
 10
-1.3755
 20
-2.2419
 30
0.0
 10
-2.048
 20
-2.3309
 30
0.0
 10
-2.048
 20
-2.3309
 30
0.0
 10
-2.048
 20
-2.3309
 30
0.0
 10
-2.048
 20
-2.3309
 30
0.0
 10
-2.7223
 20
-2.3765
 30
0.0
 10
-2.7223
 20
-2.3765
 30
0.0
 10
-2.7223
 20
-2.3765
 30
0.0
 10
-2.7223
 20
-2.3765
 30
0.0
 10
-3.3982
 20
-2.3765
 30
0.0
 10
-3.3982
 20
-2.3765
 30
0.0
 10
-3.3982
 20
-2.3765
 30
0.0
 10
-3.3982
 20
-2.3765
 30
0.0
 10
-4.0725
 20
-2.3309
 30
0.0
 10
-4.0725
 20
-2.3309
 30
0.0
 10
-4.0725
 20
-2.3309
 30
0.0
 10
-4.0725
 20
-2.3309
 30
0.0
 10
-4.745
 20
-2.2419
 30
0.0
 10
-4.745
 20
-2.2419
 30
0.0
 10
-4.745
 20
-2.2419
 30
0.0
 10
-4.745
 20
-2.2419
 30
0.0
 10
-5.4213
 20
-2.1125
 30
0.0
 10
-5.4213
 20
-2.1125
 30
0.0
 10
-5.4213
 20
-2.1125
 30
0.0
 10
-5.4213
 20
-2.1125
 30
0.0
 10
-7.6206
 20
-1.5899
 30
0.0
 10
-7.6206
 20
-1.5899
 30
0.0
 10
-7.6206
 20
-1.5899
 30
0.0
 10
-7.6206
 20
-1.5899
 30
0.0
 10
-7.8174
 20
-1.4255
 30
0.0
 10
-7.8174
 20
-1.4255
 30
0.0
 10
-7.8174
 20
-1.4255
 30
0.0
 10
-7.8174
 20
-1.4255
 30
0.0
 10
-7.9159
 20
-1.0967
 30
0.0
 10
-7.9159
 20
-1.0967
 30
0.0
 10
-7.9159
 20
-1.0967
 30
0.0
 10
-7.9159
 20
-1.0967
 30
0.0
 10
-7.9488
 20
-0.8665
 30
0.0
 10
-7.9488
 20
-0.8665
 30
0.0
 10
-7.9488
 20
-0.8665
 30
0.0
 10
-7.9488
 20
-0.8665
 30
0.0
 10
-7.7846
 20
-0.6364
 30
0.0
 10
-7.7846
 20
-0.6364
 30
0.0
 10
-7.7846
 20
-0.6364
 30
0.0
 10
-7.7846
 20
-0.6364
 30
0.0
 10
-7.5221
 20
-0.472
 30
0.0
 10
-7.5221
 20
-0.472
 30
0.0
 10
-7.5221
 20
-0.472
 30
0.0
 10
-7.5221
 20
-0.472
 30
0.0
 10
19.7467
 20
-0.5049
 30
0.0
 10
19.7467
 20
-0.5049
 30
0.0
 10
19.7467
 20
-0.5049
 30
0.0
 10
19.7467
 20
-0.5049
 30
0.0
 10
20.0092
 20
-0.6693
 30
0.0
 10
20.0092
 20
-0.6693
 30
0.0
 10
20.0092
 20
-0.6693
 30
0.0
 10
20.0092
 20
-0.6693
 30
0.0
 10
20.0748
 20
-0.9981
 30
0.0
 10
20.0748
 20
-0.9981
 30
0.0
 10
20.0748
 20
-0.9981
 30
0.0
 10
20.0748
 20
-0.9981
 30
0.0
 10
19.9436
 20
-1.4255
 30
0.0
 10
19.9436
 20
-1.4255
 30
0.0
 10
19.9436
 20
-1.4255
 30
0.0
 10
19.9436
 20
-1.4255
 30
0.0
 10
19.5497
 20
-1.6228
 30
0.0
 10
19.5497
 20
-1.6228
 30
0.0
 10
19.5497
 20
-1.6228
 30
0.0
 10
19.5497
 20
-1.6228
 30
0.0
 10
16.2026
 20
-2.3462
 30
0.0
 10
16.2026
 20
-2.3462
 30
0.0
 10
16.2026
 20
-2.3462
 30
0.0
 10
16.2026
 20
-2.3462
 30
0.0
 10
15.4152
 20
-2.4449
 30
0.0
 10
15.4152
 20
-2.4449
 30
0.0
 10
15.4152
 20
-2.4449
 30
0.0
 10
15.4152
 20
-2.4449
 30
0.0
 10
14.2995
 20
-2.412
 30
0.0
 10
14.2995
 20
-2.412
 30
0.0
 10
14.2995
 20
-2.412
 30
0.0
 10
14.2995
 20
-2.412
 30
0.0
 10
13.0853
 20
-2.1489
 30
0.0
 10
13.0853
 20
-2.1489
 30
0.0
 10
13.0853
 20
-2.1489
 30
0.0
 10
13.0853
 20
-2.1489
 30
0.0
 10
12.265
 20
-2.0503
 30
0.0
 10
12.265
 20
-2.0503
 30
0.0
 10
12.265
 20
-2.0503
 30
0.0
 10
12.265
 20
-2.0503
 30
0.0
 10
11.2477
 20
-2.0174
 30
0.0
 10
11.2477
 20
-2.0174
 30
0.0
 10
11.2477
 20
-2.0174
 30
0.0
 10
11.2477
 20
-2.0174
 30
0.0
 10
10.0664
 20
-2.1489
 30
0.0
 10
10.0664
 20
-2.1489
 30
0.0
 10
10.0664
 20
-2.1489
 30
0.0
 10
10.0664
 20
-2.1489
 30
0.0
 10
7.5069
 20
-2.3791
 30
0.0
 10
7.5069
 20
-2.3791
 30
0.0
 10
7.5069
 20
-2.3791
 30
0.0
 10
7.5069
 20
-2.3791
 30
0.0
 10
5.6036
 20
-2.412
 30
0.0
 10
5.6036
 20
-2.412
 30
0.0
 10
5.6036
 20
-2.412
 30
0.0
 10
5.6036
 20
-2.412
 30
0.0
 10
2.7487
 20
-2.2476
 30
0.0
 10
2.7487
 20
-2.2476
 30
0.0
 10
2.7487
 20
-2.2476
 30
0.0
 10
2.7487
 20
-2.2476
 30
0.0
 10
1.1737
 20
-2.0174
 30
0.0
 10
1.1737
 20
-2.0174
 30
0.0
 10
1.1737
 20
-2.0174
 30
0.0
 10
1.1737
 20
-2.0174
 30
0.0
 10
-0.0732
 20
-1.9845
 30
0.0
 10
-0.0732
 20
-1.9845
 30
0.0
 10
-0.0732
 20
-1.9845
 30
0.0
 10
-0.0732
 20
-1.9845
 30
0.0
 10
-0.6992
 20
-2.1125
 30
0.0
 10
-0.6992
 20
-2.1125
 30
0.0
  0
SPLINE
  5
70
330
1F
100
AcDbEntity
  8
DEFAULT_1
 62
   250
370
    30
100
AcDbSpline
210
0.0
220
0.0
230
1.0
 70
    27
 71
     3
 72
    20
 73
    16
 74
     0
 42
0.0000000001
 43
0.0000000001
 40
0.0
 40
0.0
 40
0.0
 40
0.0
 40
0.2
 40
0.2
 40
0.2
 40
0.2
 40
0.4
 40
0.4
 40
0.4
 40
0.4
 40
0.6
 40
0.6
 40
0.6
 40
0.6
 40
1.0
 40
1.0
 40
1.0
 40
1.0
 10
12.793
 20
-2.1125
 30
0.0
 10
12.793
 20
-2.1125
 30
0.0
 10
12.793
 20
-5.1653
 30
0.0
 10
12.793
 20
-5.1653
 30
0.0
 10
12.793
 20
-5.1653
 30
0.0
 10
12.793
 20
-5.1653
 30
0.0
 10
12.793
 20
-5.1865
 30
0.0
 10
12.793
 20
-5.1865
 30
0.0
 10
12.793
 20
-5.1865
 30
0.0
 10
12.793
 20
-5.1865
 30
0.0
 10
12.793
 20
-5.1653
 30
0.0
 10
12.793
 20
-5.1653
 30
0.0
 10
12.793
 20
-5.1653
 30
0.0
 10
12.793
 20
-5.1653
 30
0.0
 10
12.793
 20
-2.1125
 30
0.0
 10
12.793
 20
-2.1125
 30
0.0
  0
SPLINE
  5
71
330
1F
100
AcDbEntity
  8
DEFAULT_1
 62
   250
370
    30
100
AcDbSpline
210
0.0
220
0.0
230
1.0
 70
    27
 71
     3
 72
    12
 73
     8
 74
     0
 42
0.0000000001
 43
0.0000000001
 40
0.0
 40
0.0
 40
0.0
 40
0.0
 40
0.3333333333333333
 40
0.3333333333333333
 40
0.3333333333333333
 40
0.3333333333333333
 40
1.0
 40
1.0
 40
1.0
 40
1.0
 10
-3.5343
 20
-15.1
 30
0.0
 10
-3.5343
 20
-15.1
 30
0.0
 10
15.6281
 20
-15.1
 30
0.0
 10
15.6281
 20
-15.1
 30
0.0
 10
15.6281
 20
-15.1
 30
0.0
 10
15.6281
 20
-15.1
 30
0.0
 10
-3.5343
 20
-15.1
 30
0.0
 10
-3.5343
 20
-15.1
 30
0.0
  0
SPLINE
  5
72
330
1F
100
AcDbEntity
  8
DEFAULT_1
 62
   250
370
    30
100
AcDbSpline
210
0.0
220
0.0
230
1.0
 70
    27
 71
     3
 72
    12
 73
     8
 74
     0
 42
0.0000000001
 43
0.0000000001
 40
0.0
 40
0.0
 40
0.0
 40
0.0
 40
0.3333333333333333
 40
0.3333333333333333
 40
0.3333333333333333
 40
0.3333333333333333
 40
1.0
 40
1.0
 40
1.0
 40
1.0
 10
-0.6992
 20
-2.1125
 30
0.0
 10
-0.6992
 20
-2.1125
 30
0.0
 10
-0.6992
 20
-5.1865
 30
0.0
 10
-0.6992
 20
-5.1865
 30
0.0
 10
-0.6992
 20
-5.1865
 30
0.0
 10
-0.6992
 20
-5.1865
 30
0.0
 10
-0.6992
 20
-2.1125
 30
0.0
 10
-0.6992
 20
-2.1125
 30
0.0
  0
SPLINE
  5
73
330
1F
100
AcDbEntity
  8
DEFAULT_1
 62
   250
370
    30
100
AcDbSpline
210
0.0
220
0.0
230
1.0
 70
    27
 71
     3
 72
    20
 73
    16
 74
     0
 42
0.0000000001
 43
0.0000000001
 40
0.0
 40
0.0
 40
0.0
 40
0.0
 40
0.2
 40
0.2
 40
0.2
 40
0.2
 40
0.4
 40
0.4
 40
0.4
 40
0.4
 40
0.6
 40
0.6
 40
0.6
 40
0.6
 40
1.0
 40
1.0
 40
1.0
 40
1.0
 10
10.769
 20
-2.1125
 30
0.0
 10
10.769
 20
-2.1125
 30
0.0
 10
10.769
 20
-5.1719
 30
0.0
 10
10.769
 20
-5.1719
 30
0.0
 10
10.769
 20
-5.1719
 30
0.0
 10
10.769
 20
-5.1719
 30
0.0
 10
10.769
 20
-5.1865
 30
0.0
 10
10.769
 20
-5.1865
 30
0.0
 10
10.769
 20
-5.1865
 30
0.0
 10
10.769
 20
-5.1865
 30
0.0
 10
10.769
 20
-5.1719
 30
0.0
 10
10.769
 20
-5.1719
 30
0.0
 10
10.769
 20
-5.1719
 30
0.0
 10
10.769
 20
-5.1719
 30
0.0
 10
10.769
 20
-2.1125
 30
0.0
 10
10.769
 20
-2.1125
 30
0.0
  0
SPLINE
  5
74
330
1F
100
AcDbEntity
  8
DEFAULT_1
 62
   250
370
    30
100
AcDbSpline
210
0.0
220
0.0
230
1.0
 70
    27
 71
     3
 72
    12
 73
     8
 74
     0
 42
0.0000000001
 43
0.0000000001
 40
0.0
 40
0.0
 40
0.0
 40
0.0
 40
0.3333333333333333
 40
0.3333333333333333
 40
0.3333333333333333
 40
0.3333333333333333
 40
1.0
 40
1.0
 40
1.0
 40
1.0
 10
1.3246
 20
-2.1125
 30
0.0
 10
1.3246
 20
-2.1125
 30
0.0
 10
1.3246
 20
-5.1865
 30
0.0
 10
1.3246
 20
-5.1865
 30
0.0
 10
1.3246
 20
-5.1865
 30
0.0
 10
1.3246
 20
-5.1865
 30
0.0
 10
1.3246
 20
-2.1125
 30
0.0
 10
1.3246
 20
-2.1125
 30
0.0
  0
SPLINE
  5
75
330
1F
100
AcDbEntity
  8
DEFAULT_1
 62
   250
370
    35
100
AcDbSpline
210
0.0
220
0.0
230
1.0
 70
    11
 71
     3
 72
    20
 73
    16
 74
     0
 42
0.0000000001
 43
0.0000000001
 40
0.0
 40
0.0
 40
0.0
 40
0.0
 40
0.2
 40
0.2
 40
0.2
 40
0.2
 40
0.4
 40
0.4
 40
0.4
 40
0.4
 40
0.6
 40
0.6
 40
0.6
 40
0.6
 40
1.0
 40
1.0
 40
1.0
 40
1.0
 10
-7.9242
 20
1.089
 30
0.0
 10
-7.9242
 20
1.089
 30
0.0
 10
20.0612
 20
1.089
 30
0.0
 10
20.0612
 20
1.089
 30
0.0
 10
20.0612
 20
1.089
 30
0.0
 10
20.0612
 20
1.089
 30
0.0
 10
20.0612
 20
0.2446
 30
0.0
 10
20.0612
 20
0.2446
 30
0.0
 10
20.0612
 20
0.2446
 30
0.0
 10
20.0612
 20
0.2446
 30
0.0
 10
-7.9242
 20
0.2446
 30
0.0
 10
-7.9242
 20
0.2446
 30
0.0
 10
-7.9242
 20
0.2446
 30
0.0
 10
-7.9242
 20
0.2446
 30
0.0
 10
-7.9242
 20
1.089
 30
0.0
 10
-7.9242
 20
1.089
 30
0.0
  0
SPLINE
  5
76
330
1F
100
AcDbEntity
  8
DEFAULT_1
 62
   250
370
    35
100
AcDbSpline
210
0.0
220
0.0
230
1.0
 70
    11
 71
     3
 72
    20
 73
    16
 74
     0
 42
0.0000000001
 43
0.0000000001
 40
0.0
 40
0.0
 40
0.0
 40
0.0
 40
0.2
 40
0.2
 40
0.2
 40
0.2
 40
0.4
 40
0.4
 40
0.4
 40
0.4
 40
0.6
 40
0.6
 40
0.6
 40
0.6
 40
1.0
 40
1.0
 40
1.0
 40
1.0
 10
-7.9606
 20
8.9416
 30
0.0
 10
-7.9606
 20
8.9416
 30
0.0
 10
20.0248
 20
8.9416
 30
0.0
 10
20.0248
 20
8.9416
 30
0.0
 10
20.0248
 20
8.9416
 30
0.0
 10
20.0248
 20
8.9416
 30
0.0
 10
20.0248
 20
8.0972
 30
0.0
 10
20.0248
 20
8.0972
 30
0.0
 10
20.0248
 20
8.0972
 30
0.0
 10
20.0248
 20
8.0972
 30
0.0
 10
-7.9606
 20
8.0972
 30
0.0
 10
-7.9606
 20
8.0972
 30
0.0
 10
-7.9606
 20
8.0972
 30
0.0
 10
-7.9606
 20
8.0972
 30
0.0
 10
-7.9606
 20
8.9416
 30
0.0
 10
-7.9606
 20
8.9416
 30
0.0
  0
SPLINE
  5
77
330
1F
100
AcDbEntity
  8
DEFAULT_1
 62
   250
370
    30
100
AcDbSpline
210
0.0
220
0.0
230
1.0
 70
     8
 71
     3
 72
    32
 73
    28
 74
     0
 42
0.0000000001
 43
0.0000000001
 40
0.0
 40
0.0
 40
0.0
 40
0.0
 40
0.125
 40
0.125
 40
0.125
 40
0.125
 40
0.25
 40
0.25
 40
0.25
 40
0.25
 40
0.375
 40
0.375
 40
0.375
 40
0.375
 40
0.5
 40
0.5
 40
0.5
 40
0.5
 40
0.625
 40
0.625
 40
0.625
 40
0.625
 40
0.75
 40
0.75
 40
0.75
 40
0.75
 40
1.0
 40
1.0
 40
1.0
 40
1.0
 10
-0.0852
 20
1.1661
 30
0.0
 10
-0.0852
 20
1.1661
 30
0.0
 10
-0.0852
 20
5.7998
 30
0.0
 10
-0.0852
 20
5.7998
 30
0.0
 10
-0.0852
 20
5.7998
 30
0.0
 10
-0.0852
 20
5.7998
 30
0.0
 10
1.0271
 20
5.7994
 30
0.0
 10
1.0271
 20
5.7994
 30
0.0
 10
1.0271
 20
5.7994
 30
0.0
 10
1.0271
 20
5.7994
 30
0.0
 10
4.1911
 20
5.7986
 30
0.0
 10
4.1911
 20
5.7986
 30
0.0
 10
4.1911
 20
5.7986
 30
0.0
 10
4.1911
 20
5.7986
 30
0.0
 10
7.898
 20
5.7975
 30
0.0
 10
7.898
 20
5.7975
 30
0.0
 10
7.898
 20
5.7975
 30
0.0
 10
7.898
 20
5.7975
 30
0.0
 10
11.062
 20
5.7966
 30
0.0
 10
11.062
 20
5.7966
 30
0.0
 10
11.062
 20
5.7966
 30
0.0
 10
11.062
 20
5.7966
 30
0.0
 10
12.2321
 20
5.7962
 30
0.0
 10
12.2321
 20
5.7962
 30
0.0
 10
12.2321
 20
5.7962
 30
0.0
 10
12.2321
 20
5.7962
 30
0.0
 10
12.2321
 20
1.089
 30
0.0
 10
12.2321
 20
1.089
 30
0.0
  0
SPLINE
  5
78
330
1F
100
AcDbEntity
  8
DEFAULT_1
 62
   250
370
    30
100
AcDbSpline
210
0.0
220
0.0
230
1.0
 70
    11
 71
     3
 72
    36
 73
    32
 74
     0
 42
0.0000000001
 43
0.0000000001
 40
0.0
 40
0.0
 40
0.0
 40
0.0
 40
0.1111111111111111
 40
0.1111111111111111
 40
0.1111111111111111
 40
0.1111111111111111
 40
0.2222222222222222
 40
0.2222222222222222
 40
0.2222222222222222
 40
0.2222222222222222
 40
0.3333333333333333
 40
0.3333333333333333
 40
0.3333333333333333
 40
0.3333333333333333
 40
0.4444444444444444
 40
0.4444444444444444
 40
0.4444444444444444
 40
0.4444444444444444
 40
0.5555555555555556
 40
0.5555555555555556
 40
0.5555555555555556
 40
0.5555555555555556
 40
0.6666666666666666
 40
0.6666666666666666
 40
0.6666666666666666
 40
0.6666666666666666
 40
0.7777777777777778
 40
0.7777777777777778
 40
0.7777777777777778
 40
0.7777777777777778
 40
1.0
 40
1.0
 40
1.0
 40
1.0
 10
20.4091
 20
14.1405
 30
0.0
 10
20.4091
 20
14.1405
 30
0.0
 10
-8.3199
 20
14.1405
 30
0.0
 10
-8.3199
 20
14.1405
 30
0.0
 10
-8.3199
 20
14.1405
 30
0.0
 10
-8.3199
 20
14.1405
 30
0.0
 10
-8.3097
 20
13.7987
 30
0.0
 10
-8.3097
 20
13.7987
 30
0.0
 10
-8.3097
 20
13.7987
 30
0.0
 10
-8.3097
 20
13.7987
 30
0.0
 10
-7.5549
 20
13.0095
 30
0.0
 10
-7.5549
 20
13.0095
 30
0.0
 10
-7.5549
 20
13.0095
 30
0.0
 10
-7.5549
 20
13.0095
 30
0.0
 10
-3.1249
 20
12.6807
 30
0.0
 10
-3.1249
 20
12.6807
 30
0.0
 10
-3.1249
 20
12.6807
 30
0.0
 10
-3.1249
 20
12.6807
 30
0.0
 10
15.2839
 20
12.6807
 30
0.0
 10
15.2839
 20
12.6807
 30
0.0
 10
15.2839
 20
12.6807
 30
0.0
 10
15.2839
 20
12.6807
 30
0.0
 10
19.681
 20
13.0424
 30
0.0
 10
19.681
 20
13.0424
 30
0.0
 10
19.681
 20
13.0424
 30
0.0
 10
19.681
 20
13.0424
 30
0.0
 10
20.4029
 20
13.7329
 30
0.0
 10
20.4029
 20
13.7329
 30
0.0
 10
20.4029
 20
13.7329
 30
0.0
 10
20.4029
 20
13.7329
 30
0.0
 10
20.4091
 20
14.1405
 30
0.0
 10
20.4091
 20
14.1405
 30
0.0
  0
SPLINE
  5
79
330
1F
100
AcDbEntity
  8
DEFAULT_1
 62
   250
370
    30
100
AcDbSpline
210
0.0
220
0.0
230
1.0
 70
    27
 71
     3
 72
    12
 73
     8
 74
     0
 42
0.0000000001
 43
0.0000000001
 40
0.0
 40
0.0
 40
0.0
 40
0.0
 40
0.3333333333333333
 40
0.3333333333333333
 40
0.3333333333333333
 40
0.3333333333333333
 40
1.0
 40
1.0
 40
1.0
 40
1.0
 10
-3.2229
 20
0.3321
 30
0.0
 10
-3.2229
 20
0.3321
 30
0.0
 10
-3.2229
 20
-0.5947
 30
0.0
 10
-3.2229
 20
-0.5947
 30
0.0
 10
-3.2229
 20
-0.5947
 30
0.0
 10
-3.2229
 20
-0.5947
 30
0.0
 10
-3.2229
 20
0.3321
 30
0.0
 10
-3.2229
 20
0.3321
 30
0.0
  0
SPLINE
  5
7A
330
1F
100
AcDbEntity
  8
DEFAULT_1
 62
   250
370
    30
100
AcDbSpline
210
0.0
220
0.0
230
1.0
 70
    27
 71
     3
 72
    16
 73
    12
 74
     0
 42
0.0000000001
 43
0.0000000001
 40
0.0
 40
0.0
 40
0.0
 40
0.0
 40
0.25
 40
0.25
 40
0.25
 40
0.25
 40
0.5
 40
0.5
 40
0.5
 40
0.5
 40
1.0
 40
1.0
 40
1.0
 40
1.0
 10
11.062
 20
5.7998
 30
0.0
 10
11.062
 20
5.7998
 30
0.0
 10
11.062
 20
5.7966
 30
0.0
 10
11.062
 20
5.7966
 30
0.0
 10
11.062
 20
5.7966
 30
0.0
 10
11.062
 20
5.7966
 30
0.0
 10
11.062
 20
1.1661
 30
0.0
 10
11.062
 20
1.1661
 30
0.0
 10
11.062
 20
1.1661
 30
0.0
 10
11.062
 20
1.1661
 30
0.0
 10
11.062
 20
5.7998
 30
0.0
 10
11.062
 20
5.7998
 30
0.0
  0
SPLINE
  5
7B
330
1F
100
AcDbEntity
  8
DEFAULT_1
 62
   250
370
    30
100
AcDbSpline
210
0.0
220
0.0
230
1.0
 70
    27
 71
     3
 72
    20
 73
    16
 74
     0
 42
0.0000000001
 43
0.0000000001
 40
0.0
 40
0.0
 40
0.0
 40
0.0
 40
0.2
 40
0.2
 40
0.2
 40
0.2
 40
0.4
 40
0.4
 40
0.4
 40
0.4
 40
0.6
 40
0.6
 40
0.6
 40
0.6
 40
1.0
 40
1.0
 40
1.0
 40
1.0
 10
7.898
 20
5.7998
 30
0.0
 10
7.898
 20
5.7998
 30
0.0
 10
7.898
 20
5.7975
 30
0.0
 10
7.898
 20
5.7975
 30
0.0
 10
7.898
 20
5.7975
 30
0.0
 10
7.898
 20
5.7975
 30
0.0
 10
7.898
 20
1.1661
 30
0.0
 10
7.898
 20
1.1661
 30
0.0
 10
7.898
 20
1.1661
 30
0.0
 10
7.898
 20
1.1661
 30
0.0
 10
7.898
 20
5.7975
 30
0.0
 10
7.898
 20
5.7975
 30
0.0
 10
7.898
 20
5.7975
 30
0.0
 10
7.898
 20
5.7975
 30
0.0
 10
7.898
 20
5.7998
 30
0.0
 10
7.898
 20
5.7998
 30
0.0
  0
SPLINE
  5
7C
330
1F
100
AcDbEntity
  8
DEFAULT_1
 62
   250
370
    30
100
AcDbSpline
210
0.0
220
0.0
230
1.0
 70
    27
 71
     3
 72
    20
 73
    16
 74
     0
 42
0.0000000001
 43
0.0000000001
 40
0.0
 40
0.0
 40
0.0
 40
0.0
 40
0.2
 40
0.2
 40
0.2
 40
0.2
 40
0.4
 40
0.4
 40
0.4
 40
0.4
 40
0.6
 40
0.6
 40
0.6
 40
0.6
 40
1.0
 40
1.0
 40
1.0
 40
1.0
 10
4.1911
 20
5.7998
 30
0.0
 10
4.1911
 20
5.7998
 30
0.0
 10
4.1911
 20
5.7986
 30
0.0
 10
4.1911
 20
5.7986
 30
0.0
 10
4.1911
 20
5.7986
 30
0.0
 10
4.1911
 20
5.7986
 30
0.0
 10
4.1911
 20
1.1661
 30
0.0
 10
4.1911
 20
1.1661
 30
0.0
 10
4.1911
 20
1.1661
 30
0.0
 10
4.1911
 20
1.1661
 30
0.0
 10
4.1911
 20
5.7986
 30
0.0
 10
4.1911
 20
5.7986
 30
0.0
 10
4.1911
 20
5.7986
 30
0.0
 10
4.1911
 20
5.7986
 30
0.0
 10
4.1911
 20
5.7998
 30
0.0
 10
4.1911
 20
5.7998
 30
0.0
  0
SPLINE
  5
7D
330
1F
100
AcDbEntity
  8
DEFAULT_1
 62
   250
370
    30
100
AcDbSpline
210
0.0
220
0.0
230
1.0
 70
    27
 71
     3
 72
    20
 73
    16
 74
     0
 42
0.0000000001
 43
0.0000000001
 40
0.0
 40
0.0
 40
0.0
 40
0.0
 40
0.2
 40
0.2
 40
0.2
 40
0.2
 40
0.4
 40
0.4
 40
0.4
 40
0.4
 40
0.6
 40
0.6
 40
0.6
 40
0.6
 40
1.0
 40
1.0
 40
1.0
 40
1.0
 10
1.0271
 20
5.7998
 30
0.0
 10
1.0271
 20
5.7998
 30
0.0
 10
1.0271
 20
5.7994
 30
0.0
 10
1.0271
 20
5.7994
 30
0.0
 10
1.0271
 20
5.7994
 30
0.0
 10
1.0271
 20
5.7994
 30
0.0
 10
1.0271
 20
1.1661
 30
0.0
 10
1.0271
 20
1.1661
 30
0.0
 10
1.0271
 20
1.1661
 30
0.0
 10
1.0271
 20
1.1661
 30
0.0
 10
1.0271
 20
5.7994
 30
0.0
 10
1.0271
 20
5.7994
 30
0.0
 10
1.0271
 20
5.7994
 30
0.0
 10
1.0271
 20
5.7994
 30
0.0
 10
1.0271
 20
5.7998
 30
0.0
 10
1.0271
 20
5.7998
 30
0.0
  0
SPLINE
  5
7E
330
1F
100
AcDbEntity
  8
DEFAULT_1
 62
   250
370
    30
100
AcDbSpline
210
0.0
220
0.0
230
1.0
 70
    27
 71
     3
 72
    12
 73
     8
 74
     0
 42
0.0000000001
 43
0.0000000001
 40
0.0
 40
0.0
 40
0.0
 40
0.0
 40
0.3333333333333333
 40
0.3333333333333333
 40
0.3333333333333333
 40
0.3333333333333333
 40
1.0
 40
1.0
 40
1.0
 40
1.0
 10
15.312
 20
0.3321
 30
0.0
 10
15.312
 20
0.3321
 30
0.0
 10
15.312
 20
-0.5947
 30
0.0
 10
15.312
 20
-0.5947
 30
0.0
 10
15.312
 20
-0.5947
 30
0.0
 10
15.312
 20
-0.5947
 30
0.0
 10
15.312
 20
0.3321
 30
0.0
 10
15.312
 20
0.3321
 30
0.0
  0
SPLINE
  5
7F
330
1F
100
AcDbEntity
  8
DEFAULT_1
 62
   250
370
    30
100
AcDbSpline
210
0.0
220
0.0
230
1.0
 70
    27
 71
     3
 72
    12
 73
     8
 74
     0
 42
0.0000000001
 43
0.0000000001
 40
0.0
 40
0.0
 40
0.0
 40
0.0
 40
0.3333333333333333
 40
0.3333333333333333
 40
0.3333333333333333
 40
0.3333333333333333
 40
1.0
 40
1.0
 40
1.0
 40
1.0
 10
-3.2229
 20
12.7504
 30
0.0
 10
-3.2229
 20
12.7504
 30
0.0
 10
-3.2229
 20
8.9508
 30
0.0
 10
-3.2229
 20
8.9508
 30
0.0
 10
-3.2229
 20
8.9508
 30
0.0
 10
-3.2229
 20
8.9508
 30
0.0
 10
-3.2229
 20
12.7504
 30
0.0
 10
-3.2229
 20
12.7504
 30
0.0
  0
SPLINE
  5
80
330
1F
100
AcDbEntity
  8
DEFAULT_1
 62
   250
370
    30
100
AcDbSpline
210
0.0
220
0.0
230
1.0
 70
    27
 71
     3
 72
    12
 73
     8
 74
     0
 42
0.0000000001
 43
0.0000000001
 40
0.0
 40
0.0
 40
0.0
 40
0.0
 40
0.3333333333333333
 40
0.3333333333333333
 40
0.3333333333333333
 40
0.3333333333333333
 40
1.0
 40
1.0
 40
1.0
 40
1.0
 10
-3.2229
 20
8.1168
 30
0.0
 10
-3.2229
 20
8.1168
 30
0.0
 10
-3.2229
 20
1.1661
 30
0.0
 10
-3.2229
 20
1.1661
 30
0.0
 10
-3.2229
 20
1.1661
 30
0.0
 10
-3.2229
 20
1.1661
 30
0.0
 10
-3.2229
 20
8.1168
 30
0.0
 10
-3.2229
 20
8.1168
 30
0.0
  0
SPLINE
  5
81
330
1F
100
AcDbEntity
  8
DEFAULT_1
 62
   250
370
    30
100
AcDbSpline
210
0.0
220
0.0
230
1.0
 70
    27
 71
     3
 72
    12
 73
     8
 74
     0
 42
0.0000000001
 43
0.0000000001
 40
0.0
 40
0.0
 40
0.0
 40
0.0
 40
0.3333333333333333
 40
0.3333333333333333
 40
0.3333333333333333
 40
0.3333333333333333
 40
1.0
 40
1.0
 40
1.0
 40
1.0
 10
15.312
 20
8.1168
 30
0.0
 10
15.312
 20
8.1168
 30
0.0
 10
15.312
 20
1.1661
 30
0.0
 10
15.312
 20
1.1661
 30
0.0
 10
15.312
 20
1.1661
 30
0.0
 10
15.312
 20
1.1661
 30
0.0
 10
15.312
 20
8.1168
 30
0.0
 10
15.312
 20
8.1168
 30
0.0
  0
SPLINE
  5
82
330
1F
100
AcDbEntity
  8
DEFAULT_1
 62
   250
370
    30
100
AcDbSpline
210
0.0
220
0.0
230
1.0
 70
    27
 71
     3
 72
    12
 73
     8
 74
     0
 42
0.0000000001
 43
0.0000000001
 40
0.0
 40
0.0
 40
0.0
 40
0.0
 40
0.3333333333333333
 40
0.3333333333333333
 40
0.3333333333333333
 40
0.3333333333333333
 40
1.0
 40
1.0
 40
1.0
 40
1.0
 10
15.312
 20
12.7504
 30
0.0
 10
15.312
 20
12.7504
 30
0.0
 10
15.312
 20
8.9508
 30
0.0
 10
15.312
 20
8.9508
 30
0.0
 10
15.312
 20
8.9508
 30
0.0
 10
15.312
 20
8.9508
 30
0.0
 10
15.312
 20
12.7504
 30
0.0
 10
15.312
 20
12.7504
 30
0.0
  0
SPLINE
  5
83
330
1F
100
AcDbEntity
  8
DEFAULT_1
 62
   250
100
AcDbSpline
210
0.0
220
0.0
230
1.0
 70
    11
 71
     3
 72
   140
 73
   136
 74
     0
 42
0.0000000001
 43
0.0000000001
 40
0.0
 40
0.0
 40
0.0
 40
0.0
 40
0.0285714285714286
 40
0.0285714285714286
 40
0.0285714285714286
 40
0.0285714285714286
 40
0.0571428571428571
 40
0.0571428571428571
 40
0.0571428571428571
 40
0.0571428571428571
 40
0.0857142857142857
 40
0.0857142857142857
 40
0.0857142857142857
 40
0.0857142857142857
 40
0.1142857142857143
 40
0.1142857142857143
 40
0.1142857142857143
 40
0.1142857142857143
 40
0.1428571428571428
 40
0.1428571428571428
 40
0.1428571428571428
 40
0.1428571428571428
 40
0.1714285714285714
 40
0.1714285714285714
 40
0.1714285714285714
 40
0.1714285714285714
 40
0.2
 40
0.2
 40
0.2
 40
0.2
 40
0.2285714285714286
 40
0.2285714285714286
 40
0.2285714285714286
 40
0.2285714285714286
 40
0.2571428571428571
 40
0.2571428571428571
 40
0.2571428571428571
 40
0.2571428571428571
 40
0.2857142857142857
 40
0.2857142857142857
 40
0.2857142857142857
 40
0.2857142857142857
 40
0.3142857142857143
 40
0.3142857142857143
 40
0.3142857142857143
 40
0.3142857142857143
 40
0.3428571428571429
 40
0.3428571428571429
 40
0.3428571428571429
 40
0.3428571428571429
 40
0.3714285714285714
 40
0.3714285714285714
 40
0.3714285714285714
 40
0.3714285714285714
 40
0.4
 40
0.4
 40
0.4
 40
0.4
 40
0.4285714285714285
 40
0.4285714285714285
 40
0.4285714285714285
 40
0.4285714285714285
 40
0.4571428571428571
 40
0.4571428571428571
 40
0.4571428571428571
 40
0.4571428571428571
 40
0.4857142857142857
 40
0.4857142857142857
 40
0.4857142857142857
 40
0.4857142857142857
 40
0.5142857142857142
 40
0.5142857142857142
 40
0.5142857142857142
 40
0.5142857142857142
 40
0.5428571428571428
 40
0.5428571428571428
 40
0.5428571428571428
 40
0.5428571428571428
 40
0.5714285714285714
 40
0.5714285714285714
 40
0.5714285714285714
 40
0.5714285714285714
 40
0.6
 40
0.6
 40
0.6
 40
0.6
 40
0.6285714285714286
 40
0.6285714285714286
 40
0.6285714285714286
 40
0.6285714285714286
 40
0.6571428571428571
 40
0.6571428571428571
 40
0.6571428571428571
 40
0.6571428571428571
 40
0.6857142857142857
 40
0.6857142857142857
 40
0.6857142857142857
 40
0.6857142857142857
 40
0.7142857142857143
 40
0.7142857142857143
 40
0.7142857142857143
 40
0.7142857142857143
 40
0.7428571428571429
 40
0.7428571428571429
 40
0.7428571428571429
 40
0.7428571428571429
 40
0.7714285714285715
 40
0.7714285714285715
 40
0.7714285714285715
 40
0.7714285714285715
 40
0.8
 40
0.8
 40
0.8
 40
0.8
 40
0.8285714285714286
 40
0.8285714285714286
 40
0.8285714285714286
 40
0.8285714285714286
 40
0.8571428571428571
 40
0.8571428571428571
 40
0.8571428571428571
 40
0.8571428571428571
 40
0.8857142857142857
 40
0.8857142857142857
 40
0.8857142857142857
 40
0.8857142857142857
 40
0.9142857142857143
 40
0.9142857142857143
 40
0.9142857142857143
 40
0.9142857142857143
 40
0.9428571428571428
 40
0.9428571428571428
 40
0.9428571428571428
 40
0.9428571428571428
 40
1.0
 40
1.0
 40
1.0
 40
1.0
 10
4.2418
 20
-24.4799
 30
0.0
 10
4.2418
 20
-24.4799
 30
0.0
 10
3.3803
 20
-24.4799
 30
0.0
 10
3.3803
 20
-24.4799
 30
0.0
 10
3.3803
 20
-24.4799
 30
0.0
 10
3.3803
 20
-24.4799
 30
0.0
 10
3.3803
 20
-24.7515
 30
0.0
 10
3.3803
 20
-24.7515
 30
0.0
 10
3.3803
 20
-24.7515
 30
0.0
 10
3.3803
 20
-24.7515
 30
0.0
 10
3.9081
 20
-24.7515
 30
0.0
 10
3.9081
 20
-24.7515
 30
0.0
 10
3.9081
 20
-24.7515
 30
0.0
 10
3.9081
 20
-24.7515
 30
0.0
 10
3.9081
 20
-25.5315
 30
0.0
 10
3.9081
 20
-25.5315
 30
0.0
 10
3.9081
 20
-25.5315
 30
0.0
 10
3.8693
 20
-25.5516
 30
0.0
 10
3.8124
 20
-25.5677
 30
0.0
 10
3.7367
 20
-25.5813
 30
0.0
 10
3.7367
 20
-25.5813
 30
0.0
 10
3.6617
 20
-25.5943
 30
0.0
 10
3.5685
 20
-25.6007
 30
0.0
 10
3.4579
 20
-25.6014
 30
0.0
 10
3.4579
 20
-25.6014
 30
0.0
 10
3.304
 20
-25.6014
 30
0.0
 10
3.1656
 20
-25.5774
 30
0.0
 10
3.0414
 20
-25.5296
 30
0.0
 10
3.0414
 20
-25.5296
 30
0.0
 10
2.9179
 20
-25.4824
 30
0.0
 10
2.8118
 20
-25.4132
 30
0.0
 10
2.7232
 20
-25.3226
 30
0.0
 10
2.7232
 20
-25.3226
 30
0.0
 10
2.6353
 20
-25.2314
 30
0.0
 10
2.5674
 20
-25.1208
 30
0.0
 10
2.5201
 20
-24.9908
 30
0.0
 10
2.5201
 20
-24.9908
 30
0.0
 10
2.4729
 20
-24.8602
 30
0.0
 10
2.4497
 20
-24.7121
 30
0.0
 10
2.449
 20
-24.5459
 30
0.0
 10
2.449
 20
-24.5459
 30
0.0
 10
2.4497
 20
-24.3816
 30
0.0
 10
2.4742
 20
-24.2348
 30
0.0
 10
2.524
 20
-24.1048
 30
0.0
 10
2.524
 20
-24.1048
 30
0.0
 10
2.5732
 20
-23.9754
 30
0.0
 10
2.6437
 20
-23.8648
 30
0.0
 10
2.7362
 20
-23.7743
 30
0.0
 10
2.7362
 20
-23.7743
 30
0.0
 10
2.8286
 20
-23.6831
 30
0.0
 10
2.9386
 20
-23.6139
 30
0.0
 10
3.0679
 20
-23.566
 30
0.0
 10
3.0679
 20
-23.566
 30
0.0
 10
3.1966
 20
-23.5188
 30
0.0
 10
3.3409
 20
-23.4943
 30
0.0
 10
3.5006
 20
-23.4943
 30
0.0
 10
3.5006
 20
-23.4943
 30
0.0
 10
3.5886
 20
-23.4943
 30
0.0
 10
3.6668
 20
-23.4994
 30
0.0
 10
3.7367
 20
-23.5085
 30
0.0
 10
3.7367
 20
-23.5085
 30
0.0
 10
3.8065
 20
-23.5182
 30
0.0
 10
3.8693
 20
-23.5311
 30
0.0
 10
3.9255
 20
-23.5479
 30
0.0
 10
3.9255
 20
-23.5479
 30
0.0
 10
3.9818
 20
-23.5648
 30
0.0
 10
4.0329
 20
-23.5848
 30
0.0
 10
4.0788
 20
-23.6068
 30
0.0
 10
4.0788
 20
-23.6068
 30
0.0
 10
4.0788
 20
-23.6068
 30
0.0
 10
4.1642
 20
-23.3313
 30
0.0
 10
4.1642
 20
-23.3313
 30
0.0
 10
4.1642
 20
-23.3313
 30
0.0
 10
4.126
 20
-23.3125
 30
0.0
 10
4.0756
 20
-23.2944
 30
0.0
 10
4.0116
 20
-23.2757
 30
0.0
 10
4.0116
 20
-23.2757
 30
0.0
 10
3.9475
 20
-23.2575
 30
0.0
 10
3.8731
 20
-23.242
 30
0.0
 10
3.7878
 20
-23.2297
 30
0.0
 10
3.7878
 20
-23.2297
 30
0.0
 10
3.7031
 20
-23.2181
 30
0.0
 10
3.6099
 20
-23.2116
 30
0.0
 10
3.5084
 20
-23.211
 30
0.0
 10
3.5084
 20
-23.211
 30
0.0
 10
3.2885
 20
-23.2116
 30
0.0
 10
3.0912
 20
-23.2459
 30
0.0
 10
2.9173
 20
-23.3125
 30
0.0
 10
2.9173
 20
-23.3125
 30
0.0
 10
2.7426
 20
-23.3791
 30
0.0
 10
2.5939
 20
-23.4729
 30
0.0
 10
2.4716
 20
-23.5939
 30
0.0
 10
2.4716
 20
-23.5939
 30
0.0
 10
2.3488
 20
-23.7148
 30
0.0
 10
2.255
 20
-23.8571
 30
0.0
 10
2.1903
 20
-24.0214
 30
0.0
 10
2.1903
 20
-24.0214
 30
0.0
 10
2.125
 20
-24.1856
 30
0.0
 10
2.0926
 20
-24.3654
 30
0.0
 10
2.092
 20
-24.5614
 30
0.0
 10
2.092
 20
-24.5614
 30
0.0
 10
2.0926
 20
-24.6979
 30
0.0
 10
2.1075
 20
-24.8259
 30
0.0
 10
2.1366
 20
-24.9469
 30
0.0
 10
2.1366
 20
-24.9469
 30
0.0
 10
2.1657
 20
-25.0672
 30
0.0
 10
2.2078
 20
-25.1771
 30
0.0
 10
2.2621
 20
-25.2767
 30
0.0
 10
2.2621
 20
-25.2767
 30
0.0
 10
2.3164
 20
-25.3763
 30
0.0
 10
2.3811
 20
-25.4623
 30
0.0
 10
2.4568
 20
-25.5354
 30
0.0
 10
2.4568
 20
-25.5354
 30
0.0
 10
2.5848
 20
-25.657
 30
0.0
 10
2.7303
 20
-25.7449
 30
0.0
 10
2.8933
 20
-25.7999
 30
0.0
 10
2.8933
 20
-25.7999
 30
0.0
 10
3.0563
 20
-25.8549
 30
0.0
 10
3.2367
 20
-25.8814
 30
0.0
 10
3.4347
 20
-25.8808
 30
0.0
 10
3.4347
 20
-25.8808
 30
0.0
 10
3.553
 20
-25.8801
 30
0.0
 10
3.6636
 20
-25.8717
 30
0.0
 10
3.7671
 20
-25.8562
 30
0.0
 10
3.7671
 20
-25.8562
 30
0.0
 10
3.8706
 20
-25.8407
 30
0.0
 10
3.963
 20
-25.8219
 30
0.0
 10
4.0439
 20
-25.8006
 30
0.0
 10
4.0439
 20
-25.8006
 30
0.0
 10
4.1247
 20
-25.7786
 30
0.0
 10
4.1907
 20
-25.7572
 30
0.0
 10
4.2418
 20
-25.7372
 30
0.0
 10
4.2418
 20
-25.7372
 30
0.0
 10
4.2418
 20
-25.7372
 30
0.0
 10
4.2418
 20
-24.4799
 30
0.0
 10
4.2418
 20
-24.4799
 30
0.0
  0
SPLINE
  5
84
330
1F
100
AcDbEntity
  8
DEFAULT_1
 62
   250
100
AcDbSpline
210
0.0
220
0.0
230
1.0
 70
    11
 71
     3
 72
   132
 73
   128
 74
     0
 42
0.0000000001
 43
0.0000000001
 40
0.0
 40
0.0
 40
0.0
 40
0.0
 40
0.0303030303030303
 40
0.0303030303030303
 40
0.0303030303030303
 40
0.0303030303030303
 40
0.0606060606060606
 40
0.0606060606060606
 40
0.0606060606060606
 40
0.0606060606060606
 40
0.0909090909090909
 40
0.0909090909090909
 40
0.0909090909090909
 40
0.0909090909090909
 40
0.1212121212121212
 40
0.1212121212121212
 40
0.1212121212121212
 40
0.1212121212121212
 40
0.1515151515151515
 40
0.1515151515151515
 40
0.1515151515151515
 40
0.1515151515151515
 40
0.1818181818181818
 40
0.1818181818181818
 40
0.1818181818181818
 40
0.1818181818181818
 40
0.2121212121212121
 40
0.2121212121212121
 40
0.2121212121212121
 40
0.2121212121212121
 40
0.2424242424242424
 40
0.2424242424242424
 40
0.2424242424242424
 40
0.2424242424242424
 40
0.2727272727272727
 40
0.2727272727272727
 40
0.2727272727272727
 40
0.2727272727272727
 40
0.303030303030303
 40
0.303030303030303
 40
0.303030303030303
 40
0.303030303030303
 40
0.3333333333333333
 40
0.3333333333333333
 40
0.3333333333333333
 40
0.3333333333333333
 40
0.3636363636363636
 40
0.3636363636363636
 40
0.3636363636363636
 40
0.3636363636363636
 40
0.3939393939393939
 40
0.3939393939393939
 40
0.3939393939393939
 40
0.3939393939393939
 40
0.4242424242424243
 40
0.4242424242424243
 40
0.4242424242424243
 40
0.4242424242424243
 40
0.4545454545454545
 40
0.4545454545454545
 40
0.4545454545454545
 40
0.4545454545454545
 40
0.4848484848484849
 40
0.4848484848484849
 40
0.4848484848484849
 40
0.4848484848484849
 40
0.5151515151515151
 40
0.5151515151515151
 40
0.5151515151515151
 40
0.5151515151515151
 40
0.5454545454545454
 40
0.5454545454545454
 40
0.5454545454545454
 40
0.5454545454545454
 40
0.5757575757575758
 40
0.5757575757575758
 40
0.5757575757575758
 40
0.5757575757575758
 40
0.6060606060606061
 40
0.6060606060606061
 40
0.6060606060606061
 40
0.6060606060606061
 40
0.6363636363636364
 40
0.6363636363636364
 40
0.6363636363636364
 40
0.6363636363636364
 40
0.6666666666666666
 40
0.6666666666666666
 40
0.6666666666666666
 40
0.6666666666666666
 40
0.696969696969697
 40
0.696969696969697
 40
0.696969696969697
 40
0.696969696969697
 40
0.7272727272727273
 40
0.7272727272727273
 40
0.7272727272727273
 40
0.7272727272727273
 40
0.7575757575757576
 40
0.7575757575757576
 40
0.7575757575757576
 40
0.7575757575757576
 40
0.7878787878787878
 40
0.7878787878787878
 40
0.7878787878787878
 40
0.7878787878787878
 40
0.8181818181818182
 40
0.8181818181818182
 40
0.8181818181818182
 40
0.8181818181818182
 40
0.8484848484848485
 40
0.8484848484848485
 40
0.8484848484848485
 40
0.8484848484848485
 40
0.8787878787878788
 40
0.8787878787878788
 40
0.8787878787878788
 40
0.8787878787878788
 40
0.9090909090909091
 40
0.9090909090909091
 40
0.9090909090909091
 40
0.9090909090909091
 40
0.9393939393939394
 40
0.9393939393939394
 40
0.9393939393939394
 40
0.9393939393939394
 40
1.0
 40
1.0
 40
1.0
 40
1.0
 10
6.9621
 20
-23.3313
 30
0.0
 10
6.9621
 20
-23.3313
 30
0.0
 10
5.7552
 20
-23.3313
 30
0.0
 10
5.7552
 20
-23.3313
 30
0.0
 10
5.7552
 20
-23.3313
 30
0.0
 10
5.7552
 20
-23.3313
 30
0.0
 10
5.5922
 20
-24.542
 30
0.0
 10
5.5922
 20
-24.542
 30
0.0
 10
5.5922
 20
-24.542
 30
0.0
 10
5.6388
 20
-24.5355
 30
0.0
 10
5.6905
 20
-24.5303
 30
0.0
 10
5.7488
 20
-24.5258
 30
0.0
 10
5.7488
 20
-24.5258
 30
0.0
 10
5.8063
 20
-24.5213
 30
0.0
 10
5.8723
 20
-24.5187
 30
0.0
 10
5.9454
 20
-24.5187
 30
0.0
 10
5.9454
 20
-24.5187
 30
0.0
 10
6.1122
 20
-24.5194
 30
0.0
 10
6.2487
 20
-24.5433
 30
0.0
 10
6.3548
 20
-24.5899
 30
0.0
 10
6.3548
 20
-24.5899
 30
0.0
 10
6.4615
 20
-24.6371
 30
0.0
 10
6.5404
 20
-24.7017
 30
0.0
 10
6.5915
 20
-24.7845
 30
0.0
 10
6.5915
 20
-24.7845
 30
0.0
 10
6.6426
 20
-24.868
 30
0.0
 10
6.6678
 20
-24.9643
 30
0.0
 10
6.6671
 20
-25.0736
 30
0.0
 10
6.6671
 20
-25.0736
 30
0.0
 10
6.6678
 20
-25.1583
 30
0.0
 10
6.6523
 20
-25.234
 30
0.0
 10
6.6206
 20
-25.3013
 30
0.0
 10
6.6206
 20
-25.3013
 30
0.0
 10
6.5895
 20
-25.3692
 30
0.0
 10
6.5462
 20
-25.4261
 30
0.0
 10
6.4912
 20
-25.474
 30
0.0
 10
6.4912
 20
-25.474
 30
0.0
 10
6.4362
 20
-25.5212
 30
0.0
 10
6.3729
 20
-25.5574
 30
0.0
 10
6.3011
 20
-25.5826
 30
0.0
 10
6.3011
 20
-25.5826
 30
0.0
 10
6.2293
 20
-25.6078
 30
0.0
 10
6.1536
 20
-25.6208
 30
0.0
 10
6.0734
 20
-25.6208
 30
0.0
 10
6.0734
 20
-25.6208
 30
0.0
 10
5.9952
 20
-25.6201
 30
0.0
 10
5.9214
 20
-25.613
 30
0.0
 10
5.8522
 20
-25.5981
 30
0.0
 10
5.8522
 20
-25.5981
 30
0.0
 10
5.783
 20
-25.5839
 30
0.0
 10
5.7209
 20
-25.5664
 30
0.0
 10
5.666
 20
-25.5451
 30
0.0
 10
5.666
 20
-25.5451
 30
0.0
 10
5.611
 20
-25.5238
 30
0.0
 10
5.5657
 20
-25.5024
 30
0.0
 10
5.5302
 20
-25.4811
 30
0.0
 10
5.5302
 20
-25.4811
 30
0.0
 10
5.5302
 20
-25.4811
 30
0.0
 10
5.4448
 20
-25.7411
 30
0.0
 10
5.4448
 20
-25.7411
 30
0.0
 10
5.4448
 20
-25.7411
 30
0.0
 10
5.4868
 20
-25.7676
 30
0.0
 10
5.5392
 20
-25.7922
 30
0.0
 10
5.6019
 20
-25.8161
 30
0.0
 10
5.6019
 20
-25.8161
 30
0.0
 10
5.6647
 20
-25.8394
 30
0.0
 10
5.7358
 20
-25.8581
 30
0.0
 10
5.8154
 20
-25.873
 30
0.0
 10
5.8154
 20
-25.873
 30
0.0
 10
5.8956
 20
-25.8879
 30
0.0
 10
5.9816
 20
-25.8956
 30
0.0
 10
6.0734
 20
-25.8963
 30
0.0
 10
6.0734
 20
-25.8963
 30
0.0
 10
6.2112
 20
-25.8956
 30
0.0
 10
6.3366
 20
-25.8736
 30
0.0
 10
6.4511
 20
-25.831
 30
0.0
 10
6.4511
 20
-25.831
 30
0.0
 10
6.5656
 20
-25.7883
 30
0.0
 10
6.6646
 20
-25.7281
 30
0.0
 10
6.748
 20
-25.6505
 30
0.0
 10
6.748
 20
-25.6505
 30
0.0
 10
6.8321
 20
-25.5729
 30
0.0
 10
6.8967
 20
-25.4817
 30
0.0
 10
6.9427
 20
-25.3776
 30
0.0
 10
6.9427
 20
-25.3776
 30
0.0
 10
6.9886
 20
-25.2728
 30
0.0
 10
7.0119
 20
-25.1583
 30
0.0
 10
7.0125
 20
-25.0348
 30
0.0
 10
7.0125
 20
-25.0348
 30
0.0
 10
7.0119
 20
-24.93
 30
0.0
 10
6.995
 20
-24.8356
 30
0.0
 10
6.9627
 20
-24.7522
 30
0.0
 10
6.9627
 20
-24.7522
 30
0.0
 10
6.9304
 20
-24.6688
 30
0.0
 10
6.8877
 20
-24.597
 30
0.0
 10
6.8334
 20
-24.5362
 30
0.0
 10
6.8334
 20
-24.5362
 30
0.0
 10
6.779
 20
-24.4754
 30
0.0
 10
6.7182
 20
-24.4269
 30
0.0
 10
6.6516
 20
-24.3907
 30
0.0
 10
6.6516
 20
-24.3907
 30
0.0
 10
6.5734
 20
-24.3428
 30
0.0
 10
6.4886
 20
-24.3079
 30
0.0
 10
6.3962
 20
-24.2865
 30
0.0
 10
6.3962
 20
-24.2865
 30
0.0
 10
6.3037
 20
-24.2652
 30
0.0
 10
6.2079
 20
-24.2542
 30
0.0
 10
6.1083
 20
-24.2548
 30
0.0
 10
6.1083
 20
-24.2548
 30
0.0
 10
6.0631
 20
-24.2548
 30
0.0
 10
6.0243
 20
-24.2555
 30
0.0
 10
5.9926
 20
-24.2574
 30
0.0
 10
5.9926
 20
-24.2574
 30
0.0
 10
5.9609
 20
-24.2594
 30
0.0
 10
5.9311
 20
-24.2626
 30
0.0
 10
5.9027
 20
-24.2665
 30
0.0
 10
5.9027
 20
-24.2665
 30
0.0
 10
5.9027
 20
-24.2665
 30
0.0
 10
5.9997
 20
-23.6184
 30
0.0
 10
5.9997
 20
-23.6184
 30
0.0
 10
5.9997
 20
-23.6184
 30
0.0
 10
5.9997
 20
-23.6184
 30
0.0
 10
6.9621
 20
-23.6184
 30
0.0
 10
6.9621
 20
-23.6184
 30
0.0
 10
6.9621
 20
-23.6184
 30
0.0
 10
6.9621
 20
-23.6184
 30
0.0
 10
6.9621
 20
-23.3313
 30
0.0
 10
6.9621
 20
-23.3313
 30
0.0
  0
SPLINE
  5
85
330
1F
100
AcDbEntity
  8
DEFAULT_1
 62
   250
100
AcDbSpline
210
0.0
220
0.0
230
1.0
 70
    11
 71
     3
 72
    20
 73
    16
 74
     0
 42
0.0000000001
 43
0.0000000001
 40
0.0
 40
0.0
 40
0.0
 40
0.0
 40
0.2
 40
0.2
 40
0.2
 40
0.2
 40
0.4
 40
0.4
 40
0.4
 40
0.4
 40
0.6
 40
0.6
 40
0.6
 40
0.6
 40
1.0
 40
1.0
 40
1.0
 40
1.0
 10
7.5286
 20
-26.0049
 30
0.0
 10
7.5286
 20
-26.0049
 30
0.0
 10
8.6152
 20
-23.1916
 30
0.0
 10
8.6152
 20
-23.1916
 30
0.0
 10
8.6152
 20
-23.1916
 30
0.0
 10
8.6152
 20
-23.1916
 30
0.0
 10
8.3474
 20
-23.1916
 30
0.0
 10
8.3474
 20
-23.1916
 30
0.0
 10
8.3474
 20
-23.1916
 30
0.0
 10
8.3474
 20
-23.1916
 30
0.0
 10
7.2686
 20
-26.0049
 30
0.0
 10
7.2686
 20
-26.0049
 30
0.0
 10
7.2686
 20
-26.0049
 30
0.0
 10
7.2686
 20
-26.0049
 30
0.0
 10
7.5286
 20
-26.0049
 30
0.0
 10
7.5286
 20
-26.0049
 30
0.0
  0
SPLINE
  5
86
330
1F
100
AcDbEntity
  8
DEFAULT_1
 62
   250
100
AcDbSpline
210
0.0
220
0.0
230
1.0
 70
    11
 71
     3
 72
    48
 73
    44
 74
     0
 42
0.0000000001
 43
0.0000000001
 40
0.0
 40
0.0
 40
0.0
 40
0.0
 40
0.0833333333333333
 40
0.0833333333333333
 40
0.0833333333333333
 40
0.0833333333333333
 40
0.1666666666666667
 40
0.1666666666666667
 40
0.1666666666666667
 40
0.1666666666666667
 40
0.25
 40
0.25
 40
0.25
 40
0.25
 40
0.3333333333333333
 40
0.3333333333333333
 40
0.3333333333333333
 40
0.3333333333333333
 40
0.4166666666666667
 40
0.4166666666666667
 40
0.4166666666666667
 40
0.4166666666666667
 40
0.5
 40
0.5
 40
0.5
 40
0.5
 40
0.5833333333333334
 40
0.5833333333333334
 40
0.5833333333333334
 40
0.5833333333333334
 40
0.6666666666666666
 40
0.6666666666666666
 40
0.6666666666666666
 40
0.6666666666666666
 40
0.75
 40
0.75
 40
0.75
 40
0.75
 40
0.8333333333333334
 40
0.8333333333333334
 40
0.8333333333333334
 40
0.8333333333333334
 40
1.0
 40
1.0
 40
1.0
 40
1.0
 10
10.1557
 20
-25.8536
 30
0.0
 10
10.1557
 20
-25.8536
 30
0.0
 10
10.1557
 20
-25.1629
 30
0.0
 10
10.1557
 20
-25.1629
 30
0.0
 10
10.1557
 20
-25.1629
 30
0.0
 10
10.1557
 20
-25.1629
 30
0.0
 10
10.5088
 20
-25.1629
 30
0.0
 10
10.5088
 20
-25.1629
 30
0.0
 10
10.5088
 20
-25.1629
 30
0.0
 10
10.5088
 20
-25.1629
 30
0.0
 10
10.5088
 20
-24.899
 30
0.0
 10
10.5088
 20
-24.899
 30
0.0
 10
10.5088
 20
-24.899
 30
0.0
 10
10.5088
 20
-24.899
 30
0.0
 10
10.1557
 20
-24.899
 30
0.0
 10
10.1557
 20
-24.899
 30
0.0
 10
10.1557
 20
-24.899
 30
0.0
 10
10.1557
 20
-24.899
 30
0.0
 10
10.1557
 20
-23.3313
 30
0.0
 10
10.1557
 20
-23.3313
 30
0.0
 10
10.1557
 20
-23.3313
 30
0.0
 10
10.1557
 20
-23.3313
 30
0.0
 10
9.7871
 20
-23.3313
 30
0.0
 10
9.7871
 20
-23.3313
 30
0.0
 10
9.7871
 20
-23.3313
 30
0.0
 10
9.7871
 20
-23.3313
 30
0.0
 10
8.6617
 20
-24.9417
 30
0.0
 10
8.6617
 20
-24.9417
 30
0.0
 10
8.6617
 20
-24.9417
 30
0.0
 10
8.6617
 20
-24.9417
 30
0.0
 10
8.6617
 20
-25.1629
 30
0.0
 10
8.6617
 20
-25.1629
 30
0.0
 10
8.6617
 20
-25.1629
 30
0.0
 10
8.6617
 20
-25.1629
 30
0.0
 10
9.8336
 20
-25.1629
 30
0.0
 10
9.8336
 20
-25.1629
 30
0.0
 10
9.8336
 20
-25.1629
 30
0.0
 10
9.8336
 20
-25.1629
 30
0.0
 10
9.8336
 20
-25.8536
 30
0.0
 10
9.8336
 20
-25.8536
 30
0.0
 10
9.8336
 20
-25.8536
 30
0.0
 10
9.8336
 20
-25.8536
 30
0.0
 10
10.1557
 20
-25.8536
 30
0.0
 10
10.1557
 20
-25.8536
 30
0.0
  0
SPLINE
  5
87
330
1F
100
AcDbEntity
  8
DEFAULT_1
 62
   250
100
AcDbSpline
210
0.0
220
0.0
230
1.0
 70
    11
 71
     3
 72
    36
 73
    32
 74
     0
 42
0.0000000001
 43
0.0000000001
 40
0.0
 40
0.0
 40
0.0
 40
0.0
 40
0.1111111111111111
 40
0.1111111111111111
 40
0.1111111111111111
 40
0.1111111111111111
 40
0.2222222222222222
 40
0.2222222222222222
 40
0.2222222222222222
 40
0.2222222222222222
 40
0.3333333333333333
 40
0.3333333333333333
 40
0.3333333333333333
 40
0.3333333333333333
 40
0.4444444444444444
 40
0.4444444444444444
 40
0.4444444444444444
 40
0.4444444444444444
 40
0.5555555555555556
 40
0.5555555555555556
 40
0.5555555555555556
 40
0.5555555555555556
 40
0.6666666666666666
 40
0.6666666666666666
 40
0.6666666666666666
 40
0.6666666666666666
 40
0.7777777777777778
 40
0.7777777777777778
 40
0.7777777777777778
 40
0.7777777777777778
 40
1.0
 40
1.0
 40
1.0
 40
1.0
 10
9.0071
 20
-24.899
 30
0.0
 10
9.0071
 20
-24.899
 30
0.0
 10
9.0071
 20
-24.8912
 30
0.0
 10
9.0071
 20
-24.8912
 30
0.0
 10
9.0071
 20
-24.8912
 30
0.0
 10
9.0071
 20
-24.8912
 30
0.0
 10
9.6241
 20
-24.0336
 30
0.0
 10
9.6241
 20
-24.0336
 30
0.0
 10
9.6241
 20
-24.0336
 30
0.0
 10
9.6583
 20
-23.9761
 30
0.0
 10
9.6926
 20
-23.9179
 30
0.0
 10
9.7263
 20
-23.859
 30
0.0
 10
9.7263
 20
-23.859
 30
0.0
 10
9.7592
 20
-23.7995
 30
0.0
 10
9.7955
 20
-23.7336
 30
0.0
 10
9.8336
 20
-23.6611
 30
0.0
 10
9.8336
 20
-23.6611
 30
0.0
 10
9.8336
 20
-23.6611
 30
0.0
 10
9.8453
 20
-23.6611
 30
0.0
 10
9.8453
 20
-23.6611
 30
0.0
 10
9.8453
 20
-23.6611
 30
0.0
 10
9.8375
 20
-23.7931
 30
0.0
 10
9.8336
 20
-23.925
 30
0.0
 10
9.8336
 20
-24.0569
 30
0.0
 10
9.8336
 20
-24.0569
 30
0.0
 10
9.8336
 20
-24.0569
 30
0.0
 10
9.8336
 20
-24.899
 30
0.0
 10
9.8336
 20
-24.899
 30
0.0
 10
9.8336
 20
-24.899
 30
0.0
 10
9.8336
 20
-24.899
 30
0.0
 10
9.0071
 20
-24.899
 30
0.0
 10
9.0071
 20
-24.899
 30
0.0
  0
SPLINE
  5
88
330
1F
100
AcDbEntity
  8
DEFAULT_1
 62
   250
100
AcDbSpline
210
0.0
220
0.0
230
1.0
 70
    11
 71
     3
 72
    20
 73
    16
 74
     0
 42
0.0000000001
 43
0.0000000001
 40
0.0
 40
0.0
 40
0.0
 40
0.0
 40
0.2
 40
0.2
 40
0.2
 40
0.2
 40
0.4
 40
0.4
 40
0.4
 40
0.4
 40
0.6
 40
0.6
 40
0.6
 40
0.6
 40
1.0
 40
1.0
 40
1.0
 40
1.0
 10
10.7921
 20
-23.1683
 30
0.0
 10
10.7921
 20
-23.1683
 30
0.0
 10
10.8542
 20
-24.0996
 30
0.0
 10
10.8542
 20
-24.0996
 30
0.0
 10
10.8542
 20
-24.0996
 30
0.0
 10
10.8542
 20
-24.0996
 30
0.0
 10
11.0637
 20
-24.0996
 30
0.0
 10
11.0637
 20
-24.0996
 30
0.0
 10
11.0637
 20
-24.0996
 30
0.0
 10
11.0637
 20
-24.0996
 30
0.0
 10
11.1297
 20
-23.1683
 30
0.0
 10
11.1297
 20
-23.1683
 30
0.0
 10
11.1297
 20
-23.1683
 30
0.0
 10
11.1297
 20
-23.1683
 30
0.0
 10
10.7921
 20
-23.1683
 30
0.0
 10
10.7921
 20
-23.1683
 30
0.0
  0
SPLINE
  5
89
330
1F
100
AcDbEntity
  8
DEFAULT_1
 62
   250
100
AcDbSpline
210
0.0
220
0.0
230
1.0
 70
    11
 71
     3
 72
    20
 73
    16
 74
     0
 42
0.0000000001
 43
0.0000000001
 40
0.0
 40
0.0
 40
0.0
 40
0.0
 40
0.2
 40
0.2
 40
0.2
 40
0.2
 40
0.4
 40
0.4
 40
0.4
 40
0.4
 40
0.6
 40
0.6
 40
0.6
 40
0.6
 40
1.0
 40
1.0
 40
1.0
 40
1.0
 10
11.3703
 20
-23.1683
 30
0.0
 10
11.3703
 20
-23.1683
 30
0.0
 10
11.4363
 20
-24.0996
 30
0.0
 10
11.4363
 20
-24.0996
 30
0.0
 10
11.4363
 20
-24.0996
 30
0.0
 10
11.4363
 20
-24.0996
 30
0.0
 10
11.6419
 20
-24.0996
 30
0.0
 10
11.6419
 20
-24.0996
 30
0.0
 10
11.6419
 20
-24.0996
 30
0.0
 10
11.6419
 20
-24.0996
 30
0.0
 10
11.7079
 20
-23.1683
 30
0.0
 10
11.7079
 20
-23.1683
 30
0.0
 10
11.7079
 20
-23.1683
 30
0.0
 10
11.7079
 20
-23.1683
 30
0.0
 10
11.3703
 20
-23.1683
 30
0.0
 10
11.3703
 20
-23.1683
 30
0.0
  0
SPLINE
  5
8A
330
1F
100
AcDbEntity
  8
DEFAULT_1
 62
   250
100
AcDbSpline
210
0.0
220
0.0
230
1.0
 70
    11
 71
     3
 72
   196
 73
   192
 74
     0
 42
0.0000000001
 43
0.0000000001
 40
0.0
 40
0.0
 40
0.0
 40
0.0
 40
0.0204081632653061
 40
0.0204081632653061
 40
0.0204081632653061
 40
0.0204081632653061
 40
0.0408163265306122
 40
0.0408163265306122
 40
0.0408163265306122
 40
0.0408163265306122
 40
0.0612244897959184
 40
0.0612244897959184
 40
0.0612244897959184
 40
0.0612244897959184
 40
0.0816326530612245
 40
0.0816326530612245
 40
0.0816326530612245
 40
0.0816326530612245
 40
0.1020408163265306
 40
0.1020408163265306
 40
0.1020408163265306
 40
0.1020408163265306
 40
0.1224489795918367
 40
0.1224489795918367
 40
0.1224489795918367
 40
0.1224489795918367
 40
0.1428571428571428
 40
0.1428571428571428
 40
0.1428571428571428
 40
0.1428571428571428
 40
0.163265306122449
 40
0.163265306122449
 40
0.163265306122449
 40
0.163265306122449
 40
0.1836734693877551
 40
0.1836734693877551
 40
0.1836734693877551
 40
0.1836734693877551
 40
0.2040816326530612
 40
0.2040816326530612
 40
0.2040816326530612
 40
0.2040816326530612
 40
0.2244897959183673
 40
0.2244897959183673
 40
0.2244897959183673
 40
0.2244897959183673
 40
0.2448979591836735
 40
0.2448979591836735
 40
0.2448979591836735
 40
0.2448979591836735
 40
0.2653061224489796
 40
0.2653061224489796
 40
0.2653061224489796
 40
0.2653061224489796
 40
0.2857142857142857
 40
0.2857142857142857
 40
0.2857142857142857
 40
0.2857142857142857
 40
0.3061224489795918
 40
0.3061224489795918
 40
0.3061224489795918
 40
0.3061224489795918
 40
0.3265306122448979
 40
0.3265306122448979
 40
0.3265306122448979
 40
0.3265306122448979
 40
0.3469387755102041
 40
0.3469387755102041
 40
0.3469387755102041
 40
0.3469387755102041
 40
0.3673469387755102
 40
0.3673469387755102
 40
0.3673469387755102
 40
0.3673469387755102
 40
0.3877551020408163
 40
0.3877551020408163
 40
0.3877551020408163
 40
0.3877551020408163
 40
0.4081632653061225
 40
0.4081632653061225
 40
0.4081632653061225
 40
0.4081632653061225
 40
0.4285714285714285
 40
0.4285714285714285
 40
0.4285714285714285
 40
0.4285714285714285
 40
0.4489795918367347
 40
0.4489795918367347
 40
0.4489795918367347
 40
0.4489795918367347
 40
0.4693877551020408
 40
0.4693877551020408
 40
0.4693877551020408
 40
0.4693877551020408
 40
0.4897959183673469
 40
0.4897959183673469
 40
0.4897959183673469
 40
0.4897959183673469
 40
0.5102040816326531
 40
0.5102040816326531
 40
0.5102040816326531
 40
0.5102040816326531
 40
0.5306122448979592
 40
0.5306122448979592
 40
0.5306122448979592
 40
0.5306122448979592
 40
0.5510204081632653
 40
0.5510204081632653
 40
0.5510204081632653
 40
0.5510204081632653
 40
0.5714285714285714
 40
0.5714285714285714
 40
0.5714285714285714
 40
0.5714285714285714
 40
0.5918367346938775
 40
0.5918367346938775
 40
0.5918367346938775
 40
0.5918367346938775
 40
0.6122448979591837
 40
0.6122448979591837
 40
0.6122448979591837
 40
0.6122448979591837
 40
0.6326530612244898
 40
0.6326530612244898
 40
0.6326530612244898
 40
0.6326530612244898
 40
0.6530612244897959
 40
0.6530612244897959
 40
0.6530612244897959
 40
0.6530612244897959
 40
0.673469387755102
 40
0.673469387755102
 40
0.673469387755102
 40
0.673469387755102
 40
0.6938775510204082
 40
0.6938775510204082
 40
0.6938775510204082
 40
0.6938775510204082
 40
0.7142857142857143
 40
0.7142857142857143
 40
0.7142857142857143
 40
0.7142857142857143
 40
0.7346938775510204
 40
0.7346938775510204
 40
0.7346938775510204
 40
0.7346938775510204
 40
0.7551020408163265
 40
0.7551020408163265
 40
0.7551020408163265
 40
0.7551020408163265
 40
0.7755102040816326
 40
0.7755102040816326
 40
0.7755102040816326
 40
0.7755102040816326
 40
0.7959183673469388
 40
0.7959183673469388
 40
0.7959183673469388
 40
0.7959183673469388
 40
0.8163265306122449
 40
0.8163265306122449
 40
0.8163265306122449
 40
0.8163265306122449
 40
0.8367346938775511
 40
0.8367346938775511
 40
0.8367346938775511
 40
0.8367346938775511
 40
0.8571428571428571
 40
0.8571428571428571
 40
0.8571428571428571
 40
0.8571428571428571
 40
0.8775510204081632
 40
0.8775510204081632
 40
0.8775510204081632
 40
0.8775510204081632
 40
0.8979591836734694
 40
0.8979591836734694
 40
0.8979591836734694
 40
0.8979591836734694
 40
0.9183673469387755
 40
0.9183673469387755
 40
0.9183673469387755
 40
0.9183673469387755
 40
0.9387755102040817
 40
0.9387755102040817
 40
0.9387755102040817
 40
0.9387755102040817
 40
0.9591836734693877
 40
0.9591836734693877
 40
0.9591836734693877
 40
0.9591836734693877
 40
1.0
 40
1.0
 40
1.0
 40
1.0
 10
-19.6686
 20
2.2591
 30
0.0
 10
-19.6407
 20
2.3011
 30
0.0
 10
-19.6142
 20
2.3554
 30
0.0
 10
-19.5884
 20
2.4214
 30
0.0
 10
-19.5884
 20
2.4214
 30
0.0
 10
-19.5625
 20
2.4874
 30
0.0
 10
-19.5411
 20
2.5624
 30
0.0
 10
-19.5237
 20
2.6465
 30
0.0
 10
-19.5237
 20
2.6465
 30
0.0
 10
-19.5069
 20
2.7306
 30
0.0
 10
-19.4985
 20
2.8198
 30
0.0
 10
-19.4978
 20
2.9149
 30
0.0
 10
-19.4978
 20
2.9149
 30
0.0
 10
-19.4985
 20
3.0656
 30
0.0
 10
-19.5192
 20
3.1982
 30
0.0
 10
-19.5593
 20
3.3126
 30
0.0
 10
-19.5593
 20
3.3126
 30
0.0
 10
-19.5994
 20
3.4271
 30
0.0
 10
-19.655
 20
3.5228
 30
0.0
 10
-19.7248
 20
3.6004
 30
0.0
 10
-19.7248
 20
3.6004
 30
0.0
 10
-19.7947
 20
3.6781
 30
0.0
 10
-19.8755
 20
3.7363
 30
0.0
 10
-19.9661
 20
3.7757
 30
0.0
 10
-19.9661
 20
3.7757
 30
0.0
 10
-20.0566
 20
3.8145
 30
0.0
 10
-20.153
 20
3.8346
 30
0.0
 10
-20.2545
 20
3.8346
 30
0.0
 10
-20.2545
 20
3.8346
 30
0.0
 10
-20.3431
 20
3.8333
 30
0.0
 10
-20.4233
 20
3.8177
 30
0.0
 10
-20.4957
 20
3.7886
 30
0.0
 10
-20.4957
 20
3.7886
 30
0.0
 10
-20.5688
 20
3.7595
 30
0.0
 10
-20.6322
 20
3.7194
 30
0.0
 10
-20.6872
 20
3.6683
 30
0.0
 10
-20.6872
 20
3.6683
 30
0.0
 10
-20.7422
 20
3.6173
 30
0.0
 10
-20.7874
 20
3.5578
 30
0.0
 10
-20.823
 20
3.4905
 30
0.0
 10
-20.823
 20
3.4905
 30
0.0
 10
-20.8586
 20
3.4226
 30
0.0
 10
-20.8838
 20
3.3501
 30
0.0
 10
-20.8987
 20
3.2719
 30
0.0
 10
-20.8987
 20
3.2719
 30
0.0
 10
-20.8987
 20
3.2719
 30
0.0
 10
-20.9064
 20
3.2719
 30
0.0
 10
-20.9064
 20
3.2719
 30
0.0
 10
-20.9064
 20
3.2719
 30
0.0
 10
-20.9446
 20
3.3741
 30
0.0
 10
-20.9931
 20
3.4601
 30
0.0
 10
-21.0526
 20
3.5287
 30
0.0
 10
-21.0526
 20
3.5287
 30
0.0
 10
-21.1121
 20
3.5979
 30
0.0
 10
-21.1807
 20
3.6502
 30
0.0
 10
-21.257
 20
3.6852
 30
0.0
 10
-21.257
 20
3.6852
 30
0.0
 10
-21.3333
 20
3.7201
 30
0.0
 10
-21.4154
 20
3.7376
 30
0.0
 10
-21.504
 20
3.7376
 30
0.0
 10
-21.504
 20
3.7376
 30
0.0
 10
-21.5816
 20
3.7376
 30
0.0
 10
-21.656
 20
3.7233
 30
0.0
 10
-21.7272
 20
3.6949
 30
0.0
 10
-21.7272
 20
3.6949
 30
0.0
 10
-21.799
 20
3.6658
 30
0.0
 10
-21.863
 20
3.6218
 30
0.0
 10
-21.9199
 20
3.5629
 30
0.0
 10
-21.9199
 20
3.5629
 30
0.0
 10
-21.9768
 20
3.5041
 30
0.0
 10
-22.0214
 20
3.4291
 30
0.0
 10
-22.0544
 20
3.3379
 30
0.0
 10
-22.0544
 20
3.3379
 30
0.0
 10
-22.088
 20
3.2473
 30
0.0
 10
-22.1049
 20
3.14
 30
0.0
 10
-22.1055
 20
3.0158
 30
0.0
 10
-22.1055
 20
3.0158
 30
0.0
 10
-22.1049
 20
2.9246
 30
0.0
 10
-22.0952
 20
2.8373
 30
0.0
 10
-22.0771
 20
2.7532
 30
0.0
 10
-22.0771
 20
2.7532
 30
0.0
 10
-22.0583
 20
2.6691
 30
0.0
 10
-22.0344
 20
2.5928
 30
0.0
 10
-22.0053
 20
2.5242
 30
0.0
 10
-22.0053
 20
2.5242
 30
0.0
 10
-21.9755
 20
2.4557
 30
0.0
 10
-21.9445
 20
2.3981
 30
0.0
 10
-21.9115
 20
2.3522
 30
0.0
 10
-21.9115
 20
2.3522
 30
0.0
 10
-21.9115
 20
2.3522
 30
0.0
 10
-21.6631
 20
2.4453
 30
0.0
 10
-21.6631
 20
2.4453
 30
0.0
 10
-21.6631
 20
2.4453
 30
0.0
 10
-21.6897
 20
2.4822
 30
0.0
 10
-21.7155
 20
2.5268
 30
0.0
 10
-21.7407
 20
2.5799
 30
0.0
 10
-21.7407
 20
2.5799
 30
0.0
 10
-21.7666
 20
2.6323
 30
0.0
 10
-21.7873
 20
2.6905
 30
0.0
 10
-21.8041
 20
2.7538
 30
0.0
 10
-21.8041
 20
2.7538
 30
0.0
 10
-21.8209
 20
2.8166
 30
0.0
 10
-21.8293
 20
2.8819
 30
0.0
 10
-21.83
 20
2.9498
 30
0.0
 10
-21.83
 20
2.9498
 30
0.0
 10
-21.8293
 20
3.0546
 30
0.0
 10
-21.8112
 20
3.1393
 30
0.0
 10
-21.7763
 20
3.204
 30
0.0
 10
-21.7763
 20
3.204
 30
0.0
 10
-21.7414
 20
3.2693
 30
0.0
 10
-21.6955
 20
3.3172
 30
0.0
 10
-21.6379
 20
3.3476
 30
0.0
 10
-21.6379
 20
3.3476
 30
0.0
 10
-21.581
 20
3.378
 30
0.0
 10
-21.5183
 20
3.3928
 30
0.0
 10
-21.4497
 20
3.3922
 30
0.0
 10
-21.4497
 20
3.3922
 30
0.0
 10
-21.3753
 20
3.3915
 30
0.0
 10
-21.3107
 20
3.3734
 30
0.0
 10
-21.257
 20
3.3392
 30
0.0
 10
-21.257
 20
3.3392
 30
0.0
 10
-21.2033
 20
3.3049
 30
0.0
 10
-21.1587
 20
3.2596
 30
0.0
 10
-21.1244
 20
3.204
 30
0.0
 10
-21.1244
 20
3.204
 30
0.0
 10
-21.0895
 20
3.1484
 30
0.0
 10
-21.0642
 20
3.0876
 30
0.0
 10
-21.0474
 20
3.0222
 30
0.0
 10
-21.0474
 20
3.0222
 30
0.0
 10
-21.0313
 20
2.9569
 30
0.0
 10
-21.0229
 20
2.8929
 30
0.0
 10
-21.0229
 20
2.8295
 30
0.0
 10
-21.0229
 20
2.8295
 30
0.0
 10
-21.0229
 20
2.8295
 30
0.0
 10
-21.0229
 20
2.6394
 30
0.0
 10
-21.0229
 20
2.6394
 30
0.0
 10
-21.0229
 20
2.6394
 30
0.0
 10
-21.0229
 20
2.6394
 30
0.0
 10
-20.7667
 20
2.6394
 30
0.0
 10
-20.7667
 20
2.6394
 30
0.0
 10
-20.7667
 20
2.6394
 30
0.0
 10
-20.7667
 20
2.6394
 30
0.0
 10
-20.7667
 20
2.8295
 30
0.0
 10
-20.7667
 20
2.8295
 30
0.0
 10
-20.7667
 20
2.8295
 30
0.0
 10
-20.7667
 20
2.9129
 30
0.0
 10
-20.757
 20
2.9931
 30
0.0
 10
-20.7376
 20
3.0701
 30
0.0
 10
-20.7376
 20
3.0701
 30
0.0
 10
-20.7182
 20
3.1471
 30
0.0
 10
-20.6878
 20
3.2163
 30
0.0
 10
-20.6471
 20
3.2777
 30
0.0
 10
-20.6471
 20
3.2777
 30
0.0
 10
-20.6063
 20
3.3392
 30
0.0
 10
-20.554
 20
3.3883
 30
0.0
 10
-20.4899
 20
3.4245
 30
0.0
 10
-20.4899
 20
3.4245
 30
0.0
 10
-20.4265
 20
3.4607
 30
0.0
 10
-20.3502
 20
3.4795
 30
0.0
 10
-20.2623
 20
3.4814
 30
0.0
 10
-20.2623
 20
3.4814
 30
0.0
 10
-20.2079
 20
3.4827
 30
0.0
 10
-20.1523
 20
3.4743
 30
0.0
 10
-20.0961
 20
3.4549
 30
0.0
 10
-20.0961
 20
3.4549
 30
0.0
 10
-20.0391
 20
3.4362
 30
0.0
 10
-19.9861
 20
3.4045
 30
0.0
 10
-19.9376
 20
3.3605
 30
0.0
 10
-19.9376
 20
3.3605
 30
0.0
 10
-19.8891
 20
3.3165
 30
0.0
 10
-19.8496
 20
3.2577
 30
0.0
 10
-19.8199
 20
3.1839
 30
0.0
 10
-19.8199
 20
3.1839
 30
0.0
 10
-19.7895
 20
3.1102
 30
0.0
 10
-19.774
 20
3.0197
 30
0.0
 10
-19.7733
 20
2.911
 30
0.0
 10
-19.7733
 20
2.911
 30
0.0
 10
-19.774
 20
2.8302
 30
0.0
 10
-19.783
 20
2.7532
 30
0.0
 10
-19.8005
 20
2.6808
 30
0.0
 10
-19.8005
 20
2.6808
 30
0.0
 10
-19.818
 20
2.6083
 30
0.0
 10
-19.8387
 20
2.5437
 30
0.0
 10
-19.8626
 20
2.4867
 30
0.0
 10
-19.8626
 20
2.4867
 30
0.0
 10
-19.8865
 20
2.4298
 30
0.0
 10
-19.9085
 20
2.3852
 30
0.0
 10
-19.9286
 20
2.3522
 30
0.0
 10
-19.9286
 20
2.3522
 30
0.0
 10
-19.9286
 20
2.3522
 30
0.0
 10
-19.6686
 20
2.2591
 30
0.0
 10
-19.6686
 20
2.2591
 30
0.0
  0
SPLINE
  5
8B
330
1F
100
AcDbEntity
  8
DEFAULT_1
 62
   250
100
AcDbSpline
210
0.0
220
0.0
230
1.0
 70
    11
 71
     3
 72
   132
 73
   128
 74
     0
 42
0.0000000001
 43
0.0000000001
 40
0.0
 40
0.0
 40
0.0
 40
0.0
 40
0.0303030303030303
 40
0.0303030303030303
 40
0.0303030303030303
 40
0.0303030303030303
 40
0.0606060606060606
 40
0.0606060606060606
 40
0.0606060606060606
 40
0.0606060606060606
 40
0.0909090909090909
 40
0.0909090909090909
 40
0.0909090909090909
 40
0.0909090909090909
 40
0.1212121212121212
 40
0.1212121212121212
 40
0.1212121212121212
 40
0.1212121212121212
 40
0.1515151515151515
 40
0.1515151515151515
 40
0.1515151515151515
 40
0.1515151515151515
 40
0.1818181818181818
 40
0.1818181818181818
 40
0.1818181818181818
 40
0.1818181818181818
 40
0.2121212121212121
 40
0.2121212121212121
 40
0.2121212121212121
 40
0.2121212121212121
 40
0.2424242424242424
 40
0.2424242424242424
 40
0.2424242424242424
 40
0.2424242424242424
 40
0.2727272727272727
 40
0.2727272727272727
 40
0.2727272727272727
 40
0.2727272727272727
 40
0.303030303030303
 40
0.303030303030303
 40
0.303030303030303
 40
0.303030303030303
 40
0.3333333333333333
 40
0.3333333333333333
 40
0.3333333333333333
 40
0.3333333333333333
 40
0.3636363636363636
 40
0.3636363636363636
 40
0.3636363636363636
 40
0.3636363636363636
 40
0.3939393939393939
 40
0.3939393939393939
 40
0.3939393939393939
 40
0.3939393939393939
 40
0.4242424242424243
 40
0.4242424242424243
 40
0.4242424242424243
 40
0.4242424242424243
 40
0.4545454545454545
 40
0.4545454545454545
 40
0.4545454545454545
 40
0.4545454545454545
 40
0.4848484848484849
 40
0.4848484848484849
 40
0.4848484848484849
 40
0.4848484848484849
 40
0.5151515151515151
 40
0.5151515151515151
 40
0.5151515151515151
 40
0.5151515151515151
 40
0.5454545454545454
 40
0.5454545454545454
 40
0.5454545454545454
 40
0.5454545454545454
 40
0.5757575757575758
 40
0.5757575757575758
 40
0.5757575757575758
 40
0.5757575757575758
 40
0.6060606060606061
 40
0.6060606060606061
 40
0.6060606060606061
 40
0.6060606060606061
 40
0.6363636363636364
 40
0.6363636363636364
 40
0.6363636363636364
 40
0.6363636363636364
 40
0.6666666666666666
 40
0.6666666666666666
 40
0.6666666666666666
 40
0.6666666666666666
 40
0.696969696969697
 40
0.696969696969697
 40
0.696969696969697
 40
0.696969696969697
 40
0.7272727272727273
 40
0.7272727272727273
 40
0.7272727272727273
 40
0.7272727272727273
 40
0.7575757575757576
 40
0.7575757575757576
 40
0.7575757575757576
 40
0.7575757575757576
 40
0.7878787878787878
 40
0.7878787878787878
 40
0.7878787878787878
 40
0.7878787878787878
 40
0.8181818181818182
 40
0.8181818181818182
 40
0.8181818181818182
 40
0.8181818181818182
 40
0.8484848484848485
 40
0.8484848484848485
 40
0.8484848484848485
 40
0.8484848484848485
 40
0.8787878787878788
 40
0.8787878787878788
 40
0.8787878787878788
 40
0.8787878787878788
 40
0.9090909090909091
 40
0.9090909090909091
 40
0.9090909090909091
 40
0.9090909090909091
 40
0.9393939393939394
 40
0.9393939393939394
 40
0.9393939393939394
 40
0.9393939393939394
 40
1.0
 40
1.0
 40
1.0
 40
1.0
 10
-22.0628
 20
5.7671
 30
0.0
 10
-22.0628
 20
5.7671
 30
0.0
 10
-22.0628
 20
4.5602
 30
0.0
 10
-22.0628
 20
4.5602
 30
0.0
 10
-22.0628
 20
4.5602
 30
0.0
 10
-22.0628
 20
4.5602
 30
0.0
 10
-20.8521
 20
4.3972
 30
0.0
 10
-20.8521
 20
4.3972
 30
0.0
 10
-20.8521
 20
4.3972
 30
0.0
 10
-20.8586
 20
4.4438
 30
0.0
 10
-20.8638
 20
4.4955
 30
0.0
 10
-20.8683
 20
4.5538
 30
0.0
 10
-20.8683
 20
4.5538
 30
0.0
 10
-20.8728
 20
4.6113
 30
0.0
 10
-20.8754
 20
4.6773
 30
0.0
 10
-20.8754
 20
4.7504
 30
0.0
 10
-20.8754
 20
4.7504
 30
0.0
 10
-20.8747
 20
4.9172
 30
0.0
 10
-20.8508
 20
5.0537
 30
0.0
 10
-20.8042
 20
5.1598
 30
0.0
 10
-20.8042
 20
5.1598
 30
0.0
 10
-20.757
 20
5.2665
 30
0.0
 10
-20.6924
 20
5.3454
 30
0.0
 10
-20.6096
 20
5.3965
 30
0.0
 10
-20.6096
 20
5.3965
 30
0.0
 10
-20.5261
 20
5.4476
 30
0.0
 10
-20.4298
 20
5.4728
 30
0.0
 10
-20.3205
 20
5.4721
 30
0.0
 10
-20.3205
 20
5.4721
 30
0.0
 10
-20.2358
 20
5.4728
 30
0.0
 10
-20.1601
 20
5.4573
 30
0.0
 10
-20.0928
 20
5.4256
 30
0.0
 10
-20.0928
 20
5.4256
 30
0.0
 10
-20.0249
 20
5.3945
 30
0.0
 10
-19.968
 20
5.3512
 30
0.0
 10
-19.9201
 20
5.2962
 30
0.0
 10
-19.9201
 20
5.2962
 30
0.0
 10
-19.8729
 20
5.2412
 30
0.0
 10
-19.8367
 20
5.1779
 30
0.0
 10
-19.8115
 20
5.1061
 30
0.0
 10
-19.8115
 20
5.1061
 30
0.0
 10
-19.7863
 20
5.0343
 30
0.0
 10
-19.7733
 20
4.9586
 30
0.0
 10
-19.7733
 20
4.8784
 30
0.0
 10
-19.7733
 20
4.8784
 30
0.0
 10
-19.774
 20
4.8002
 30
0.0
 10
-19.7811
 20
4.7264
 30
0.0
 10
-19.796
 20
4.6572
 30
0.0
 10
-19.796
 20
4.6572
 30
0.0
 10
-19.8102
 20
4.588
 30
0.0
 10
-19.8277
 20
4.5259
 30
0.0
 10
-19.849
 20
4.471
 30
0.0
 10
-19.849
 20
4.471
 30
0.0
 10
-19.8703
 20
4.416
 30
0.0
 10
-19.8917
 20
4.3707
 30
0.0
 10
-19.913
 20
4.3352
 30
0.0
 10
-19.913
 20
4.3352
 30
0.0
 10
-19.913
 20
4.3352
 30
0.0
 10
-19.653
 20
4.2498
 30
0.0
 10
-19.653
 20
4.2498
 30
0.0
 10
-19.653
 20
4.2498
 30
0.0
 10
-19.6265
 20
4.2918
 30
0.0
 10
-19.6019
 20
4.3442
 30
0.0
 10
-19.578
 20
4.4069
 30
0.0
 10
-19.578
 20
4.4069
 30
0.0
 10
-19.5547
 20
4.4697
 30
0.0
 10
-19.536
 20
4.5408
 30
0.0
 10
-19.5211
 20
4.6204
 30
0.0
 10
-19.5211
 20
4.6204
 30
0.0
 10
-19.5062
 20
4.7006
 30
0.0
 10
-19.4985
 20
4.7866
 30
0.0
 10
-19.4978
 20
4.8784
 30
0.0
 10
-19.4978
 20
4.8784
 30
0.0
 10
-19.4985
 20
5.0162
 30
0.0
 10
-19.5205
 20
5.1416
 30
0.0
 10
-19.5631
 20
5.2561
 30
0.0
 10
-19.5631
 20
5.2561
 30
0.0
 10
-19.6058
 20
5.3706
 30
0.0
 10
-19.666
 20
5.4696
 30
0.0
 10
-19.7436
 20
5.553
 30
0.0
 10
-19.7436
 20
5.553
 30
0.0
 10
-19.8212
 20
5.6371
 30
0.0
 10
-19.9124
 20
5.7017
 30
0.0
 10
-20.0165
 20
5.7477
 30
0.0
 10
-20.0165
 20
5.7477
 30
0.0
 10
-20.1213
 20
5.7936
 30
0.0
 10
-20.2358
 20
5.8169
 30
0.0
 10
-20.3593
 20
5.8175
 30
0.0
 10
-20.3593
 20
5.8175
 30
0.0
 10
-20.4641
 20
5.8169
 30
0.0
 10
-20.5585
 20
5.8
 30
0.0
 10
-20.6419
 20
5.7677
 30
0.0
 10
-20.6419
 20
5.7677
 30
0.0
 10
-20.7253
 20
5.7354
 30
0.0
 10
-20.7971
 20
5.6927
 30
0.0
 10
-20.8579
 20
5.6384
 30
0.0
 10
-20.8579
 20
5.6384
 30
0.0
 10
-20.9187
 20
5.584
 30
0.0
 10
-20.9672
 20
5.5232
 30
0.0
 10
-21.0034
 20
5.4566
 30
0.0
 10
-21.0034
 20
5.4566
 30
0.0
 10
-21.0513
 20
5.3784
 30
0.0
 10
-21.0862
 20
5.2936
 30
0.0
 10
-21.1076
 20
5.2012
 30
0.0
 10
-21.1076
 20
5.2012
 30
0.0
 10
-21.1289
 20
5.1087
 30
0.0
 10
-21.1399
 20
5.0129
 30
0.0
 10
-21.1393
 20
4.9133
 30
0.0
 10
-21.1393
 20
4.9133
 30
0.0
 10
-21.1393
 20
4.8681
 30
0.0
 10
-21.1386
 20
4.8293
 30
0.0
 10
-21.1367
 20
4.7976
 30
0.0
 10
-21.1367
 20
4.7976
 30
0.0
 10
-21.1347
 20
4.7659
 30
0.0
 10
-21.1315
 20
4.7361
 30
0.0
 10
-21.1276
 20
4.7077
 30
0.0
 10
-21.1276
 20
4.7077
 30
0.0
 10
-21.1276
 20
4.7077
 30
0.0
 10
-21.7757
 20
4.8047
 30
0.0
 10
-21.7757
 20
4.8047
 30
0.0
 10
-21.7757
 20
4.8047
 30
0.0
 10
-21.7757
 20
4.8047
 30
0.0
 10
-21.7757
 20
5.7671
 30
0.0
 10
-21.7757
 20
5.7671
 30
0.0
 10
-21.7757
 20
5.7671
 30
0.0
 10
-21.7757
 20
5.7671
 30
0.0
 10
-22.0628
 20
5.7671
 30
0.0
 10
-22.0628
 20
5.7671
 30
0.0
  0
SPLINE
  5
8C
330
1F
100
AcDbEntity
  8
DEFAULT_1
 62
   250
100
AcDbSpline
210
0.0
220
0.0
230
1.0
 70
    11
 71
     3
 72
    20
 73
    16
 74
     0
 42
0.0000000001
 43
0.0000000001
 40
0.0
 40
0.0
 40
0.0
 40
0.0
 40
0.2
 40
0.2
 40
0.2
 40
0.2
 40
0.4
 40
0.4
 40
0.4
 40
0.4
 40
0.6
 40
0.6
 40
0.6
 40
0.6
 40
1.0
 40
1.0
 40
1.0
 40
1.0
 10
-20.6426
 20
6.1939
 30
0.0
 10
-20.6426
 20
6.1939
 30
0.0
 10
-20.4097
 20
6.1939
 30
0.0
 10
-20.4097
 20
6.1939
 30
0.0
 10
-20.4097
 20
6.1939
 30
0.0
 10
-20.4097
 20
6.1939
 30
0.0
 10
-20.4097
 20
7.9013
 30
0.0
 10
-20.4097
 20
7.9013
 30
0.0
 10
-20.4097
 20
7.9013
 30
0.0
 10
-20.4097
 20
7.9013
 30
0.0
 10
-20.6426
 20
7.9013
 30
0.0
 10
-20.6426
 20
7.9013
 30
0.0
 10
-20.6426
 20
7.9013
 30
0.0
 10
-20.6426
 20
7.9013
 30
0.0
 10
-20.6426
 20
6.1939
 30
0.0
 10
-20.6426
 20
6.1939
 30
0.0
  0
SPLINE
  5
8D
330
1F
100
AcDbEntity
  8
DEFAULT_1
 62
   250
100
AcDbSpline
210
0.0
220
0.0
230
1.0
 70
    11
 71
     3
 72
   132
 73
   128
 74
     0
 42
0.0000000001
 43
0.0000000001
 40
0.0
 40
0.0
 40
0.0
 40
0.0
 40
0.0303030303030303
 40
0.0303030303030303
 40
0.0303030303030303
 40
0.0303030303030303
 40
0.0606060606060606
 40
0.0606060606060606
 40
0.0606060606060606
 40
0.0606060606060606
 40
0.0909090909090909
 40
0.0909090909090909
 40
0.0909090909090909
 40
0.0909090909090909
 40
0.1212121212121212
 40
0.1212121212121212
 40
0.1212121212121212
 40
0.1212121212121212
 40
0.1515151515151515
 40
0.1515151515151515
 40
0.1515151515151515
 40
0.1515151515151515
 40
0.1818181818181818
 40
0.1818181818181818
 40
0.1818181818181818
 40
0.1818181818181818
 40
0.2121212121212121
 40
0.2121212121212121
 40
0.2121212121212121
 40
0.2121212121212121
 40
0.2424242424242424
 40
0.2424242424242424
 40
0.2424242424242424
 40
0.2424242424242424
 40
0.2727272727272727
 40
0.2727272727272727
 40
0.2727272727272727
 40
0.2727272727272727
 40
0.303030303030303
 40
0.303030303030303
 40
0.303030303030303
 40
0.303030303030303
 40
0.3333333333333333
 40
0.3333333333333333
 40
0.3333333333333333
 40
0.3333333333333333
 40
0.3636363636363636
 40
0.3636363636363636
 40
0.3636363636363636
 40
0.3636363636363636
 40
0.3939393939393939
 40
0.3939393939393939
 40
0.3939393939393939
 40
0.3939393939393939
 40
0.4242424242424243
 40
0.4242424242424243
 40
0.4242424242424243
 40
0.4242424242424243
 40
0.4545454545454545
 40
0.4545454545454545
 40
0.4545454545454545
 40
0.4545454545454545
 40
0.4848484848484849
 40
0.4848484848484849
 40
0.4848484848484849
 40
0.4848484848484849
 40
0.5151515151515151
 40
0.5151515151515151
 40
0.5151515151515151
 40
0.5151515151515151
 40
0.5454545454545454
 40
0.5454545454545454
 40
0.5454545454545454
 40
0.5454545454545454
 40
0.5757575757575758
 40
0.5757575757575758
 40
0.5757575757575758
 40
0.5757575757575758
 40
0.6060606060606061
 40
0.6060606060606061
 40
0.6060606060606061
 40
0.6060606060606061
 40
0.6363636363636364
 40
0.6363636363636364
 40
0.6363636363636364
 40
0.6363636363636364
 40
0.6666666666666666
 40
0.6666666666666666
 40
0.6666666666666666
 40
0.6666666666666666
 40
0.696969696969697
 40
0.696969696969697
 40
0.696969696969697
 40
0.696969696969697
 40
0.7272727272727273
 40
0.7272727272727273
 40
0.7272727272727273
 40
0.7272727272727273
 40
0.7575757575757576
 40
0.7575757575757576
 40
0.7575757575757576
 40
0.7575757575757576
 40
0.7878787878787878
 40
0.7878787878787878
 40
0.7878787878787878
 40
0.7878787878787878
 40
0.8181818181818182
 40
0.8181818181818182
 40
0.8181818181818182
 40
0.8181818181818182
 40
0.8484848484848485
 40
0.8484848484848485
 40
0.8484848484848485
 40
0.8484848484848485
 40
0.8787878787878788
 40
0.8787878787878788
 40
0.8787878787878788
 40
0.8787878787878788
 40
0.9090909090909091
 40
0.9090909090909091
 40
0.9090909090909091
 40
0.9090909090909091
 40
0.9393939393939394
 40
0.9393939393939394
 40
0.9393939393939394
 40
0.9393939393939394
 40
1.0
 40
1.0
 40
1.0
 40
1.0
 10
-22.0628
 20
9.6981
 30
0.0
 10
-22.0628
 20
9.6981
 30
0.0
 10
-22.0628
 20
8.4912
 30
0.0
 10
-22.0628
 20
8.4912
 30
0.0
 10
-22.0628
 20
8.4912
 30
0.0
 10
-22.0628
 20
8.4912
 30
0.0
 10
-20.8521
 20
8.3282
 30
0.0
 10
-20.8521
 20
8.3282
 30
0.0
 10
-20.8521
 20
8.3282
 30
0.0
 10
-20.8586
 20
8.3748
 30
0.0
 10
-20.8638
 20
8.4265
 30
0.0
 10
-20.8683
 20
8.4848
 30
0.0
 10
-20.8683
 20
8.4848
 30
0.0
 10
-20.8728
 20
8.5423
 30
0.0
 10
-20.8754
 20
8.6083
 30
0.0
 10
-20.8754
 20
8.6814
 30
0.0
 10
-20.8754
 20
8.6814
 30
0.0
 10
-20.8747
 20
8.8482
 30
0.0
 10
-20.8508
 20
8.9847
 30
0.0
 10
-20.8042
 20
9.0908
 30
0.0
 10
-20.8042
 20
9.0908
 30
0.0
 10
-20.757
 20
9.1975
 30
0.0
 10
-20.6924
 20
9.2764
 30
0.0
 10
-20.6096
 20
9.3275
 30
0.0
 10
-20.6096
 20
9.3275
 30
0.0
 10
-20.5261
 20
9.3786
 30
0.0
 10
-20.4298
 20
9.4038
 30
0.0
 10
-20.3205
 20
9.4031
 30
0.0
 10
-20.3205
 20
9.4031
 30
0.0
 10
-20.2358
 20
9.4038
 30
0.0
 10
-20.1601
 20
9.3883
 30
0.0
 10
-20.0928
 20
9.3566
 30
0.0
 10
-20.0928
 20
9.3566
 30
0.0
 10
-20.0249
 20
9.3255
 30
0.0
 10
-19.968
 20
9.2822
 30
0.0
 10
-19.9201
 20
9.2272
 30
0.0
 10
-19.9201
 20
9.2272
 30
0.0
 10
-19.8729
 20
9.1722
 30
0.0
 10
-19.8367
 20
9.1089
 30
0.0
 10
-19.8115
 20
9.0371
 30
0.0
 10
-19.8115
 20
9.0371
 30
0.0
 10
-19.7863
 20
8.9653
 30
0.0
 10
-19.7733
 20
8.8896
 30
0.0
 10
-19.7733
 20
8.8094
 30
0.0
 10
-19.7733
 20
8.8094
 30
0.0
 10
-19.774
 20
8.7312
 30
0.0
 10
-19.7811
 20
8.6574
 30
0.0
 10
-19.796
 20
8.5882
 30
0.0
 10
-19.796
 20
8.5882
 30
0.0
 10
-19.8102
 20
8.519
 30
0.0
 10
-19.8277
 20
8.4569
 30
0.0
 10
-19.849
 20
8.402
 30
0.0
 10
-19.849
 20
8.402
 30
0.0
 10
-19.8703
 20
8.347
 30
0.0
 10
-19.8917
 20
8.3017
 30
0.0
 10
-19.913
 20
8.2662
 30
0.0
 10
-19.913
 20
8.2662
 30
0.0
 10
-19.913
 20
8.2662
 30
0.0
 10
-19.653
 20
8.1808
 30
0.0
 10
-19.653
 20
8.1808
 30
0.0
 10
-19.653
 20
8.1808
 30
0.0
 10
-19.6265
 20
8.2228
 30
0.0
 10
-19.6019
 20
8.2752
 30
0.0
 10
-19.578
 20
8.3379
 30
0.0
 10
-19.578
 20
8.3379
 30
0.0
 10
-19.5547
 20
8.4007
 30
0.0
 10
-19.536
 20
8.4718
 30
0.0
 10
-19.5211
 20
8.5514
 30
0.0
 10
-19.5211
 20
8.5514
 30
0.0
 10
-19.5062
 20
8.6316
 30
0.0
 10
-19.4985
 20
8.7176
 30
0.0
 10
-19.4978
 20
8.8094
 30
0.0
 10
-19.4978
 20
8.8094
 30
0.0
 10
-19.4985
 20
8.9472
 30
0.0
 10
-19.5205
 20
9.0726
 30
0.0
 10
-19.5631
 20
9.1871
 30
0.0
 10
-19.5631
 20
9.1871
 30
0.0
 10
-19.6058
 20
9.3016
 30
0.0
 10
-19.666
 20
9.4006
 30
0.0
 10
-19.7436
 20
9.484
 30
0.0
 10
-19.7436
 20
9.484
 30
0.0
 10
-19.8212
 20
9.5681
 30
0.0
 10
-19.9124
 20
9.6327
 30
0.0
 10
-20.0165
 20
9.6787
 30
0.0
 10
-20.0165
 20
9.6787
 30
0.0
 10
-20.1213
 20
9.7246
 30
0.0
 10
-20.2358
 20
9.7479
 30
0.0
 10
-20.3593
 20
9.7485
 30
0.0
 10
-20.3593
 20
9.7485
 30
0.0
 10
-20.4641
 20
9.7479
 30
0.0
 10
-20.5585
 20
9.731
 30
0.0
 10
-20.6419
 20
9.6987
 30
0.0
 10
-20.6419
 20
9.6987
 30
0.0
 10
-20.7253
 20
9.6664
 30
0.0
 10
-20.7971
 20
9.6237
 30
0.0
 10
-20.8579
 20
9.5694
 30
0.0
 10
-20.8579
 20
9.5694
 30
0.0
 10
-20.9187
 20
9.515
 30
0.0
 10
-20.9672
 20
9.4542
 30
0.0
 10
-21.0034
 20
9.3876
 30
0.0
 10
-21.0034
 20
9.3876
 30
0.0
 10
-21.0513
 20
9.3094
 30
0.0
 10
-21.0862
 20
9.2246
 30
0.0
 10
-21.1076
 20
9.1322
 30
0.0
 10
-21.1076
 20
9.1322
 30
0.0
 10
-21.1289
 20
9.0397
 30
0.0
 10
-21.1399
 20
8.9439
 30
0.0
 10
-21.1393
 20
8.8443
 30
0.0
 10
-21.1393
 20
8.8443
 30
0.0
 10
-21.1393
 20
8.7991
 30
0.0
 10
-21.1386
 20
8.7603
 30
0.0
 10
-21.1367
 20
8.7286
 30
0.0
 10
-21.1367
 20
8.7286
 30
0.0
 10
-21.1347
 20
8.6969
 30
0.0
 10
-21.1315
 20
8.6671
 30
0.0
 10
-21.1276
 20
8.6387
 30
0.0
 10
-21.1276
 20
8.6387
 30
0.0
 10
-21.1276
 20
8.6387
 30
0.0
 10
-21.7757
 20
8.7357
 30
0.0
 10
-21.7757
 20
8.7357
 30
0.0
 10
-21.7757
 20
8.7357
 30
0.0
 10
-21.7757
 20
8.7357
 30
0.0
 10
-21.7757
 20
9.6981
 30
0.0
 10
-21.7757
 20
9.6981
 30
0.0
 10
-21.7757
 20
9.6981
 30
0.0
 10
-21.7757
 20
9.6981
 30
0.0
 10
-22.0628
 20
9.6981
 30
0.0
 10
-22.0628
 20
9.6981
 30
0.0
  0
SPLINE
  5
8E
330
1F
100
AcDbEntity
  8
DEFAULT_1
 62
   250
100
AcDbSpline
210
0.0
220
0.0
230
1.0
 70
    11
 71
     3
 72
    56
 73
    52
 74
     0
 42
0.0000000001
 43
0.0000000001
 40
0.0
 40
0.0
 40
0.0
 40
0.0
 40
0.0714285714285714
 40
0.0714285714285714
 40
0.0714285714285714
 40
0.0714285714285714
 40
0.1428571428571428
 40
0.1428571428571428
 40
0.1428571428571428
 40
0.1428571428571428
 40
0.2142857142857143
 40
0.2142857142857143
 40
0.2142857142857143
 40
0.2142857142857143
 40
0.2857142857142857
 40
0.2857142857142857
 40
0.2857142857142857
 40
0.2857142857142857
 40
0.3571428571428572
 40
0.3571428571428572
 40
0.3571428571428572
 40
0.3571428571428572
 40
0.4285714285714285
 40
0.4285714285714285
 40
0.4285714285714285
 40
0.4285714285714285
 40
0.5
 40
0.5
 40
0.5
 40
0.5
 40
0.5714285714285714
 40
0.5714285714285714
 40
0.5714285714285714
 40
0.5714285714285714
 40
0.6428571428571429
 40
0.6428571428571429
 40
0.6428571428571429
 40
0.6428571428571429
 40
0.7142857142857143
 40
0.7142857142857143
 40
0.7142857142857143
 40
0.7142857142857143
 40
0.7857142857142857
 40
0.7857142857142857
 40
0.7857142857142857
 40
0.7857142857142857
 40
0.8571428571428571
 40
0.8571428571428571
 40
0.8571428571428571
 40
0.8571428571428571
 40
1.0
 40
1.0
 40
1.0
 40
1.0
 10
-22.1055
 20
11.0291
 30
0.0
 10
-22.1055
 20
10.9004
 30
0.0
 10
-22.0771
 20
10.7827
 30
0.0
 10
-22.0201
 20
10.6753
 30
0.0
 10
-22.0201
 20
10.6753
 30
0.0
 10
-21.9632
 20
10.5679
 30
0.0
 10
-21.8798
 20
10.4755
 30
0.0
 10
-21.7686
 20
10.3966
 30
0.0
 10
-21.7686
 20
10.3966
 30
0.0
 10
-21.6573
 20
10.3176
 30
0.0
 10
-21.5202
 20
10.2569
 30
0.0
 10
-21.3572
 20
10.2135
 30
0.0
 10
-21.3572
 20
10.2135
 30
0.0
 10
-21.1942
 20
10.1708
 30
0.0
 10
-21.0067
 20
10.1488
 30
0.0
 10
-20.7939
 20
10.1482
 30
0.0
 10
-20.7939
 20
10.1482
 30
0.0
 10
-20.5152
 20
10.1521
 30
0.0
 10
-20.2797
 20
10.1889
 30
0.0
 10
-20.087
 20
10.2594
 30
0.0
 10
-20.087
 20
10.2594
 30
0.0
 10
-19.8943
 20
10.3299
 30
0.0
 10
-19.7481
 20
10.4276
 30
0.0
 10
-19.6485
 20
10.5518
 30
0.0
 10
-19.6485
 20
10.5518
 30
0.0
 10
-19.5489
 20
10.6759
 30
0.0
 10
-19.4985
 20
10.8208
 30
0.0
 10
-19.4978
 20
10.9864
 30
0.0
 10
-19.4978
 20
10.9864
 30
0.0
 10
-19.4985
 20
11.172
 30
0.0
 10
-19.5502
 20
11.3298
 30
0.0
 10
-19.6524
 20
11.4605
 30
0.0
 10
-19.6524
 20
11.4605
 30
0.0
 10
-19.7546
 20
11.5911
 30
0.0
 10
-19.9046
 20
11.6907
 30
0.0
 10
-20.1025
 20
11.7593
 30
0.0
 10
-20.1025
 20
11.7593
 30
0.0
 10
-20.3004
 20
11.8285
 30
0.0
 10
-20.5423
 20
11.8627
 30
0.0
 10
-20.8288
 20
11.8634
 30
0.0
 10
-20.8288
 20
11.8634
 30
0.0
 10
-21.0972
 20
11.8627
 30
0.0
 10
-21.3268
 20
11.8297
 30
0.0
 10
-21.517
 20
11.7644
 30
0.0
 10
-21.517
 20
11.7644
 30
0.0
 10
-21.7071
 20
11.6991
 30
0.0
 10
-21.8526
 20
11.604
 30
0.0
 10
-21.9529
 20
11.4799
 30
0.0
 10
-21.9529
 20
11.4799
 30
0.0
 10
-22.0538
 20
11.3557
 30
0.0
 10
-22.1049
 20
11.2056
 30
0.0
 10
-22.1055
 20
11.0291
 30
0.0
  0
SPLINE
  5
8F
330
1F
100
AcDbEntity
  8
DEFAULT_1
 62
   250
100
AcDbSpline
210
0.0
220
0.0
230
1.0
 70
    11
 71
     3
 72
    56
 73
    52
 74
     0
 42
0.0000000001
 43
0.0000000001
 40
0.0
 40
0.0
 40
0.0
 40
0.0
 40
0.0714285714285714
 40
0.0714285714285714
 40
0.0714285714285714
 40
0.0714285714285714
 40
0.1428571428571428
 40
0.1428571428571428
 40
0.1428571428571428
 40
0.1428571428571428
 40
0.2142857142857143
 40
0.2142857142857143
 40
0.2142857142857143
 40
0.2142857142857143
 40
0.2857142857142857
 40
0.2857142857142857
 40
0.2857142857142857
 40
0.2857142857142857
 40
0.3571428571428572
 40
0.3571428571428572
 40
0.3571428571428572
 40
0.3571428571428572
 40
0.4285714285714285
 40
0.4285714285714285
 40
0.4285714285714285
 40
0.4285714285714285
 40
0.5
 40
0.5
 40
0.5
 40
0.5
 40
0.5714285714285714
 40
0.5714285714285714
 40
0.5714285714285714
 40
0.5714285714285714
 40
0.6428571428571429
 40
0.6428571428571429
 40
0.6428571428571429
 40
0.6428571428571429
 40
0.7142857142857143
 40
0.7142857142857143
 40
0.7142857142857143
 40
0.7142857142857143
 40
0.7857142857142857
 40
0.7857142857142857
 40
0.7857142857142857
 40
0.7857142857142857
 40
0.8571428571428571
 40
0.8571428571428571
 40
0.8571428571428571
 40
0.8571428571428571
 40
1.0
 40
1.0
 40
1.0
 40
1.0
 10
-21.8416
 20
11.0058
 30
0.0
 10
-21.841
 20
11.095
 30
0.0
 10
-21.8171
 20
11.172
 30
0.0
 10
-21.7686
 20
11.2367
 30
0.0
 10
-21.7686
 20
11.2367
 30
0.0
 10
-21.72
 20
11.3014
 30
0.0
 10
-21.6508
 20
11.3544
 30
0.0
 10
-21.5603
 20
11.3958
 30
0.0
 10
-21.5603
 20
11.3958
 30
0.0
 10
-21.4704
 20
11.4372
 30
0.0
 10
-21.3617
 20
11.4682
 30
0.0
 10
-21.2363
 20
11.4883
 30
0.0
 10
-21.2363
 20
11.4883
 30
0.0
 10
-21.1102
 20
11.5083
 30
0.0
 10
-20.9692
 20
11.518
 30
0.0
 10
-20.8133
 20
11.518
 30
0.0
 10
-20.8133
 20
11.518
 30
0.0
 10
-20.5973
 20
11.518
 30
0.0
 10
-20.411
 20
11.4993
 30
0.0
 10
-20.2545
 20
11.4617
 30
0.0
 10
-20.2545
 20
11.4617
 30
0.0
 10
-20.0974
 20
11.4249
 30
0.0
 10
-19.9764
 20
11.368
 30
0.0
 10
-19.891
 20
11.2923
 30
0.0
 10
-19.891
 20
11.2923
 30
0.0
 10
-19.8057
 20
11.2166
 30
0.0
 10
-19.763
 20
11.1209
 30
0.0
 10
-19.7617
 20
11.0058
 30
0.0
 10
-19.7617
 20
11.0058
 30
0.0
 10
-19.7623
 20
10.9017
 30
0.0
 10
-19.8024
 20
10.8118
 30
0.0
 10
-19.8826
 20
10.7348
 30
0.0
 10
-19.8826
 20
10.7348
 30
0.0
 10
-19.9628
 20
10.6585
 30
0.0
 10
-20.0792
 20
10.5996
 30
0.0
 10
-20.2319
 20
10.5576
 30
0.0
 10
-20.2319
 20
10.5576
 30
0.0
 10
-20.3852
 20
10.5156
 30
0.0
 10
-20.5708
 20
10.4942
 30
0.0
 10
-20.79
 20
10.4936
 30
0.0
 10
-20.79
 20
10.4936
 30
0.0
 10
-21.0196
 20
10.4942
 30
0.0
 10
-21.2117
 20
10.5168
 30
0.0
 10
-21.3682
 20
10.5608
 30
0.0
 10
-21.3682
 20
10.5608
 30
0.0
 10
-21.5241
 20
10.6048
 30
0.0
 10
-21.6418
 20
10.665
 30
0.0
 10
-21.722
 20
10.7419
 30
0.0
 10
-21.722
 20
10.7419
 30
0.0
 10
-21.8015
 20
10.8189
 30
0.0
 10
-21.8416
 20
10.9068
 30
0.0
 10
-21.8416
 20
11.0058
 30
0.0
  0
SPLINE
  5
90
330
1F
100
AcDbEntity
  8
DEFAULT_1
 62
   250
100
AcDbSpline
210
0.0
220
0.0
230
1.0
 70
    11
 71
     3
 72
    48
 73
    44
 74
     0
 42
0.0000000001
 43
0.0000000001
 40
0.0
 40
0.0
 40
0.0
 40
0.0
 40
0.0833333333333333
 40
0.0833333333333333
 40
0.0833333333333333
 40
0.0833333333333333
 40
0.1666666666666667
 40
0.1666666666666667
 40
0.1666666666666667
 40
0.1666666666666667
 40
0.25
 40
0.25
 40
0.25
 40
0.25
 40
0.3333333333333333
 40
0.3333333333333333
 40
0.3333333333333333
 40
0.3333333333333333
 40
0.4166666666666667
 40
0.4166666666666667
 40
0.4166666666666667
 40
0.4166666666666667
 40
0.5
 40
0.5
 40
0.5
 40
0.5
 40
0.5833333333333334
 40
0.5833333333333334
 40
0.5833333333333334
 40
0.5833333333333334
 40
0.6666666666666666
 40
0.6666666666666666
 40
0.6666666666666666
 40
0.6666666666666666
 40
0.75
 40
0.75
 40
0.75
 40
0.75
 40
0.8333333333333334
 40
0.8333333333333334
 40
0.8333333333333334
 40
0.8333333333333334
 40
1.0
 40
1.0
 40
1.0
 40
1.0
 10
-19.766
 20
-10.115
 30
0.0
 10
-19.766
 20
-10.115
 30
0.0
 10
-20.4567
 20
-10.115
 30
0.0
 10
-20.4567
 20
-10.115
 30
0.0
 10
-20.4567
 20
-10.115
 30
0.0
 10
-20.4567
 20
-10.115
 30
0.0
 10
-20.4567
 20
-9.7619
 30
0.0
 10
-20.4567
 20
-9.7619
 30
0.0
 10
-20.4567
 20
-9.7619
 30
0.0
 10
-20.4567
 20
-9.7619
 30
0.0
 10
-20.7206
 20
-9.7619
 30
0.0
 10
-20.7206
 20
-9.7619
 30
0.0
 10
-20.7206
 20
-9.7619
 30
0.0
 10
-20.7206
 20
-9.7619
 30
0.0
 10
-20.7206
 20
-10.115
 30
0.0
 10
-20.7206
 20
-10.115
 30
0.0
 10
-20.7206
 20
-10.115
 30
0.0
 10
-20.7206
 20
-10.115
 30
0.0
 10
-22.2883
 20
-10.115
 30
0.0
 10
-22.2883
 20
-10.115
 30
0.0
 10
-22.2883
 20
-10.115
 30
0.0
 10
-22.2883
 20
-10.115
 30
0.0
 10
-22.2883
 20
-10.4836
 30
0.0
 10
-22.2883
 20
-10.4836
 30
0.0
 10
-22.2883
 20
-10.4836
 30
0.0
 10
-22.2883
 20
-10.4836
 30
0.0
 10
-20.6779
 20
-11.609
 30
0.0
 10
-20.6779
 20
-11.609
 30
0.0
 10
-20.6779
 20
-11.609
 30
0.0
 10
-20.6779
 20
-11.609
 30
0.0
 10
-20.4567
 20
-11.609
 30
0.0
 10
-20.4567
 20
-11.609
 30
0.0
 10
-20.4567
 20
-11.609
 30
0.0
 10
-20.4567
 20
-11.609
 30
0.0
 10
-20.4567
 20
-10.4371
 30
0.0
 10
-20.4567
 20
-10.4371
 30
0.0
 10
-20.4567
 20
-10.4371
 30
0.0
 10
-20.4567
 20
-10.4371
 30
0.0
 10
-19.766
 20
-10.4371
 30
0.0
 10
-19.766
 20
-10.4371
 30
0.0
 10
-19.766
 20
-10.4371
 30
0.0
 10
-19.766
 20
-10.4371
 30
0.0
 10
-19.766
 20
-10.115
 30
0.0
 10
-19.766
 20
-10.115
 30
0.0
  0
SPLINE
  5
91
330
1F
100
AcDbEntity
  8
DEFAULT_1
 62
   250
100
AcDbSpline
210
0.0
220
0.0
230
1.0
 70
    11
 71
     3
 72
    36
 73
    32
 74
     0
 42
0.0000000001
 43
0.0000000001
 40
0.0
 40
0.0
 40
0.0
 40
0.0
 40
0.1111111111111111
 40
0.1111111111111111
 40
0.1111111111111111
 40
0.1111111111111111
 40
0.2222222222222222
 40
0.2222222222222222
 40
0.2222222222222222
 40
0.2222222222222222
 40
0.3333333333333333
 40
0.3333333333333333
 40
0.3333333333333333
 40
0.3333333333333333
 40
0.4444444444444444
 40
0.4444444444444444
 40
0.4444444444444444
 40
0.4444444444444444
 40
0.5555555555555556
 40
0.5555555555555556
 40
0.5555555555555556
 40
0.5555555555555556
 40
0.6666666666666666
 40
0.6666666666666666
 40
0.6666666666666666
 40
0.6666666666666666
 40
0.7777777777777778
 40
0.7777777777777778
 40
0.7777777777777778
 40
0.7777777777777778
 40
1.0
 40
1.0
 40
1.0
 40
1.0
 10
-20.7206
 20
-11.2636
 30
0.0
 10
-20.7206
 20
-11.2636
 30
0.0
 10
-20.7284
 20
-11.2636
 30
0.0
 10
-20.7284
 20
-11.2636
 30
0.0
 10
-20.7284
 20
-11.2636
 30
0.0
 10
-20.7284
 20
-11.2636
 30
0.0
 10
-21.586
 20
-10.6466
 30
0.0
 10
-21.586
 20
-10.6466
 30
0.0
 10
-21.586
 20
-10.6466
 30
0.0
 10
-21.6435
 20
-10.6124
 30
0.0
 10
-21.7017
 20
-10.5781
 30
0.0
 10
-21.7606
 20
-10.5444
 30
0.0
 10
-21.7606
 20
-10.5444
 30
0.0
 10
-21.8201
 20
-10.5115
 30
0.0
 10
-21.886
 20
-10.4752
 30
0.0
 10
-21.9585
 20
-10.4371
 30
0.0
 10
-21.9585
 20
-10.4371
 30
0.0
 10
-21.9585
 20
-10.4371
 30
0.0
 10
-21.9585
 20
-10.4254
 30
0.0
 10
-21.9585
 20
-10.4254
 30
0.0
 10
-21.9585
 20
-10.4254
 30
0.0
 10
-21.8265
 20
-10.4332
 30
0.0
 10
-21.6946
 20
-10.4371
 30
0.0
 10
-21.5627
 20
-10.4371
 30
0.0
 10
-21.5627
 20
-10.4371
 30
0.0
 10
-21.5627
 20
-10.4371
 30
0.0
 10
-20.7206
 20
-10.4371
 30
0.0
 10
-20.7206
 20
-10.4371
 30
0.0
 10
-20.7206
 20
-10.4371
 30
0.0
 10
-20.7206
 20
-10.4371
 30
0.0
 10
-20.7206
 20
-11.2636
 30
0.0
 10
-20.7206
 20
-11.2636
 30
0.0
  0
SPLINE
  5
92
330
1F
100
AcDbEntity
  8
DEFAULT_1
 62
   250
100
AcDbSpline
210
0.0
220
0.0
230
1.0
 70
    11
 71
     3
 72
   124
 73
   120
 74
     0
 42
0.0000000001
 43
0.0000000001
 40
0.0
 40
0.0
 40
0.0
 40
0.0
 40
0.032258064516129
 40
0.032258064516129
 40
0.032258064516129
 40
0.032258064516129
 40
0.0645161290322581
 40
0.0645161290322581
 40
0.0645161290322581
 40
0.0645161290322581
 40
0.0967741935483871
 40
0.0967741935483871
 40
0.0967741935483871
 40
0.0967741935483871
 40
0.1290322580645161
 40
0.1290322580645161
 40
0.1290322580645161
 40
0.1290322580645161
 40
0.1612903225806452
 40
0.1612903225806452
 40
0.1612903225806452
 40
0.1612903225806452
 40
0.1935483870967742
 40
0.1935483870967742
 40
0.1935483870967742
 40
0.1935483870967742
 40
0.2258064516129032
 40
0.2258064516129032
 40
0.2258064516129032
 40
0.2258064516129032
 40
0.2580645161290323
 40
0.2580645161290323
 40
0.2580645161290323
 40
0.2580645161290323
 40
0.2903225806451613
 40
0.2903225806451613
 40
0.2903225806451613
 40
0.2903225806451613
 40
0.3225806451612903
 40
0.3225806451612903
 40
0.3225806451612903
 40
0.3225806451612903
 40
0.3548387096774194
 40
0.3548387096774194
 40
0.3548387096774194
 40
0.3548387096774194
 40
0.3870967741935484
 40
0.3870967741935484
 40
0.3870967741935484
 40
0.3870967741935484
 40
0.4193548387096774
 40
0.4193548387096774
 40
0.4193548387096774
 40
0.4193548387096774
 40
0.4516129032258064
 40
0.4516129032258064
 40
0.4516129032258064
 40
0.4516129032258064
 40
0.4838709677419355
 40
0.4838709677419355
 40
0.4838709677419355
 40
0.4838709677419355
 40
0.5161290322580645
 40
0.5161290322580645
 40
0.5161290322580645
 40
0.5161290322580645
 40
0.5483870967741935
 40
0.5483870967741935
 40
0.5483870967741935
 40
0.5483870967741935
 40
0.5806451612903226
 40
0.5806451612903226
 40
0.5806451612903226
 40
0.5806451612903226
 40
0.6129032258064516
 40
0.6129032258064516
 40
0.6129032258064516
 40
0.6129032258064516
 40
0.6451612903225806
 40
0.6451612903225806
 40
0.6451612903225806
 40
0.6451612903225806
 40
0.6774193548387096
 40
0.6774193548387096
 40
0.6774193548387096
 40
0.6774193548387096
 40
0.7096774193548387
 40
0.7096774193548387
 40
0.7096774193548387
 40
0.7096774193548387
 40
0.7419354838709677
 40
0.7419354838709677
 40
0.7419354838709677
 40
0.7419354838709677
 40
0.7741935483870968
 40
0.7741935483870968
 40
0.7741935483870968
 40
0.7741935483870968
 40
0.8064516129032258
 40
0.8064516129032258
 40
0.8064516129032258
 40
0.8064516129032258
 40
0.8387096774193549
 40
0.8387096774193549
 40
0.8387096774193549
 40
0.8387096774193549
 40
0.8709677419354839
 40
0.8709677419354839
 40
0.8709677419354839
 40
0.8709677419354839
 40
0.9032258064516129
 40
0.9032258064516129
 40
0.9032258064516129
 40
0.9032258064516129
 40
0.9354838709677419
 40
0.9354838709677419
 40
0.9354838709677419
 40
0.9354838709677419
 40
1.0
 40
1.0
 40
1.0
 40
1.0
 10
-19.766
 20
-7.8915
 30
0.0
 10
-19.766
 20
-7.8915
 30
0.0
 10
-20.0493
 20
-7.8915
 30
0.0
 10
-20.0493
 20
-7.8915
 30
0.0
 10
-20.0493
 20
-7.8915
 30
0.0
 10
-20.0493
 20
-7.8915
 30
0.0
 10
-20.0493
 20
-9.0207
 30
0.0
 10
-20.0493
 20
-9.0207
 30
0.0
 10
-20.0493
 20
-9.0207
 30
0.0
 10
-20.0493
 20
-9.0207
 30
0.0
 10
-20.057
 20
-9.0207
 30
0.0
 10
-20.057
 20
-9.0207
 30
0.0
 10
-20.057
 20
-9.0207
 30
0.0
 10
-20.057
 20
-9.0207
 30
0.0
 10
-20.2433
 20
-8.8228
 30
0.0
 10
-20.2433
 20
-8.8228
 30
0.0
 10
-20.2433
 20
-8.8228
 30
0.0
 10
-20.3707
 20
-8.6896
 30
0.0
 10
-20.4917
 20
-8.5693
 30
0.0
 10
-20.6055
 20
-8.4626
 30
0.0
 10
-20.6055
 20
-8.4626
 30
0.0
 10
-20.7193
 20
-8.3558
 30
0.0
 10
-20.8306
 20
-8.2646
 30
0.0
 10
-20.9379
 20
-8.189
 30
0.0
 10
-20.9379
 20
-8.189
 30
0.0
 10
-21.0453
 20
-8.1127
 30
0.0
 10
-21.1533
 20
-8.0551
 30
0.0
 10
-21.2619
 20
-8.0144
 30
0.0
 10
-21.2619
 20
-8.0144
 30
0.0
 10
-21.3699
 20
-7.9743
 30
0.0
 10
-21.4818
 20
-7.9542
 30
0.0
 10
-21.5976
 20
-7.9536
 30
0.0
 10
-21.5976
 20
-7.9536
 30
0.0
 10
-21.6888
 20
-7.9536
 30
0.0
 10
-21.778
 20
-7.9678
 30
0.0
 10
-21.8647
 20
-7.9975
 30
0.0
 10
-21.8647
 20
-7.9975
 30
0.0
 10
-21.9514
 20
-8.0273
 30
0.0
 10
-22.0296
 20
-8.0739
 30
0.0
 10
-22.0995
 20
-8.1359
 30
0.0
 10
-22.0995
 20
-8.1359
 30
0.0
 10
-22.17
 20
-8.198
 30
0.0
 10
-22.2256
 20
-8.2782
 30
0.0
 10
-22.267
 20
-8.3759
 30
0.0
 10
-22.267
 20
-8.3759
 30
0.0
 10
-22.309
 20
-8.4735
 30
0.0
 10
-22.3304
 20
-8.59
 30
0.0
 10
-22.331
 20
-8.7258
 30
0.0
 10
-22.331
 20
-8.7258
 30
0.0
 10
-22.3304
 20
-8.8215
 30
0.0
 10
-22.3194
 20
-8.9127
 30
0.0
 10
-22.2967
 20
-8.9994
 30
0.0
 10
-22.2967
 20
-8.9994
 30
0.0
 10
-22.2741
 20
-9.086
 30
0.0
 10
-22.2437
 20
-9.1662
 30
0.0
 10
-22.2049
 20
-9.2399
 30
0.0
 10
-22.2049
 20
-9.2399
 30
0.0
 10
-22.1667
 20
-9.313
 30
0.0
 10
-22.1234
 20
-9.3783
 30
0.0
 10
-22.0749
 20
-9.4359
 30
0.0
 10
-22.0749
 20
-9.4359
 30
0.0
 10
-22.0749
 20
-9.4359
 30
0.0
 10
-21.8343
 20
-9.3273
 30
0.0
 10
-21.8343
 20
-9.3273
 30
0.0
 10
-21.8343
 20
-9.3273
 30
0.0
 10
-21.8673
 20
-9.2884
 30
0.0
 10
-21.9003
 20
-9.2419
 30
0.0
 10
-21.9326
 20
-9.1876
 30
0.0
 10
-21.9326
 20
-9.1876
 30
0.0
 10
-21.9656
 20
-9.1332
 30
0.0
 10
-21.9921
 20
-9.0731
 30
0.0
 10
-22.0141
 20
-9.0065
 30
0.0
 10
-22.0141
 20
-9.0065
 30
0.0
 10
-22.0354
 20
-8.9399
 30
0.0
 10
-22.0471
 20
-8.8681
 30
0.0
 10
-22.0477
 20
-8.7917
 30
0.0
 10
-22.0477
 20
-8.7917
 30
0.0
 10
-22.0471
 20
-8.698
 30
0.0
 10
-22.0335
 20
-8.6191
 30
0.0
 10
-22.007
 20
-8.555
 30
0.0
 10
-22.007
 20
-8.555
 30
0.0
 10
-21.9798
 20
-8.4917
 30
0.0
 10
-21.9436
 20
-8.4406
 30
0.0
 10
-21.8977
 20
-8.4024
 30
0.0
 10
-21.8977
 20
-8.4024
 30
0.0
 10
-21.8511
 20
-8.3642
 30
0.0
 10
-21.7987
 20
-8.3364
 30
0.0
 10
-21.7399
 20
-8.3196
 30
0.0
 10
-21.7399
 20
-8.3196
 30
0.0
 10
-21.681
 20
-8.3028
 30
0.0
 10
-21.6196
 20
-8.2944
 30
0.0
 10
-21.5549
 20
-8.295
 30
0.0
 10
-21.5549
 20
-8.295
 30
0.0
 10
-21.4605
 20
-8.295
 30
0.0
 10
-21.3674
 20
-8.3138
 30
0.0
 10
-21.2749
 20
-8.3513
 30
0.0
 10
-21.2749
 20
-8.3513
 30
0.0
 10
-21.1817
 20
-8.3888
 30
0.0
 10
-21.0847
 20
-8.4457
 30
0.0
 10
-20.9825
 20
-8.5227
 30
0.0
 10
-20.9825
 20
-8.5227
 30
0.0
 10
-20.8804
 20
-8.5997
 30
0.0
 10
-20.7685
 20
-8.6973
 30
0.0
 10
-20.6469
 20
-8.8157
 30
0.0
 10
-20.6469
 20
-8.8157
 30
0.0
 10
-20.5253
 20
-8.9334
 30
0.0
 10
-20.3882
 20
-9.0731
 30
0.0
 10
-20.2355
 20
-9.2341
 30
0.0
 10
-20.2355
 20
-9.2341
 30
0.0
 10
-20.2355
 20
-9.2341
 30
0.0
 10
-19.9755
 20
-9.5019
 30
0.0
 10
-19.9755
 20
-9.5019
 30
0.0
 10
-19.9755
 20
-9.5019
 30
0.0
 10
-19.9755
 20
-9.5019
 30
0.0
 10
-19.766
 20
-9.5019
 30
0.0
 10
-19.766
 20
-9.5019
 30
0.0
 10
-19.766
 20
-9.5019
 30
0.0
 10
-19.766
 20
-9.5019
 30
0.0
 10
-19.766
 20
-7.8915
 30
0.0
 10
-19.766
 20
-7.8915
 30
0.0
  0
SPLINE
  5
93
330
1F
100
AcDbEntity
  8
DEFAULT_1
 62
   250
100
AcDbSpline
210
0.0
220
0.0
230
1.0
 70
    11
 71
     3
 72
    36
 73
    32
 74
     0
 42
0.0000000001
 43
0.0000000001
 40
0.0
 40
0.0
 40
0.0
 40
0.0
 40
0.1111111111111111
 40
0.1111111111111111
 40
0.1111111111111111
 40
0.1111111111111111
 40
0.2222222222222222
 40
0.2222222222222222
 40
0.2222222222222222
 40
0.2222222222222222
 40
0.3333333333333333
 40
0.3333333333333333
 40
0.3333333333333333
 40
0.3333333333333333
 40
0.4444444444444444
 40
0.4444444444444444
 40
0.4444444444444444
 40
0.4444444444444444
 40
0.5555555555555556
 40
0.5555555555555556
 40
0.5555555555555556
 40
0.5555555555555556
 40
0.6666666666666666
 40
0.6666666666666666
 40
0.6666666666666666
 40
0.6666666666666666
 40
0.7777777777777778
 40
0.7777777777777778
 40
0.7777777777777778
 40
0.7777777777777778
 40
1.0
 40
1.0
 40
1.0
 40
1.0
 10
-9.5124
 20
-18.7161
 30
0.0
 10
-9.5124
 20
-18.7161
 30
0.0
 10
-9.5124
 20
-18.3863
 30
0.0
 10
-9.5124
 20
-18.3863
 30
0.0
 10
-9.5124
 20
-18.3863
 30
0.0
 10
-9.5124
 20
-18.3863
 30
0.0
 10
-12.0347
 20
-18.3863
 30
0.0
 10
-12.0347
 20
-18.3863
 30
0.0
 10
-12.0347
 20
-18.3863
 30
0.0
 10
-12.0347
 20
-18.3863
 30
0.0
 10
-12.0347
 20
-18.6773
 30
0.0
 10
-12.0347
 20
-18.6773
 30
0.0
 10
-12.0347
 20
-18.6773
 30
0.0
 10
-12.0347
 20
-18.6773
 30
0.0
 10
-11.7398
 20
-19.2283
 30
0.0
 10
-11.7398
 20
-19.2283
 30
0.0
 10
-11.7398
 20
-19.2283
 30
0.0
 10
-11.7398
 20
-19.2283
 30
0.0
 10
-11.4798
 20
-19.1624
 30
0.0
 10
-11.4798
 20
-19.1624
 30
0.0
 10
-11.4798
 20
-19.1624
 30
0.0
 10
-11.4798
 20
-19.1624
 30
0.0
 10
-11.7165
 20
-18.7239
 30
0.0
 10
-11.7165
 20
-18.7239
 30
0.0
 10
-11.7165
 20
-18.7239
 30
0.0
 10
-11.7165
 20
-18.7239
 30
0.0
 10
-11.7165
 20
-18.7161
 30
0.0
 10
-11.7165
 20
-18.7161
 30
0.0
 10
-11.7165
 20
-18.7161
 30
0.0
 10
-11.7165
 20
-18.7161
 30
0.0
 10
-9.5124
 20
-18.7161
 30
0.0
 10
-9.5124
 20
-18.7161
 30
0.0
  0
SPLINE
  5
94
330
1F
100
AcDbEntity
  8
DEFAULT_1
 62
   250
100
AcDbSpline
210
0.0
220
0.0
230
1.0
 70
    11
 71
     3
 72
   124
 73
   120
 74
     0
 42
0.0000000001
 43
0.0000000001
 40
0.0
 40
0.0
 40
0.0
 40
0.0
 40
0.032258064516129
 40
0.032258064516129
 40
0.032258064516129
 40
0.032258064516129
 40
0.0645161290322581
 40
0.0645161290322581
 40
0.0645161290322581
 40
0.0645161290322581
 40
0.0967741935483871
 40
0.0967741935483871
 40
0.0967741935483871
 40
0.0967741935483871
 40
0.1290322580645161
 40
0.1290322580645161
 40
0.1290322580645161
 40
0.1290322580645161
 40
0.1612903225806452
 40
0.1612903225806452
 40
0.1612903225806452
 40
0.1612903225806452
 40
0.1935483870967742
 40
0.1935483870967742
 40
0.1935483870967742
 40
0.1935483870967742
 40
0.2258064516129032
 40
0.2258064516129032
 40
0.2258064516129032
 40
0.2258064516129032
 40
0.2580645161290323
 40
0.2580645161290323
 40
0.2580645161290323
 40
0.2580645161290323
 40
0.2903225806451613
 40
0.2903225806451613
 40
0.2903225806451613
 40
0.2903225806451613
 40
0.3225806451612903
 40
0.3225806451612903
 40
0.3225806451612903
 40
0.3225806451612903
 40
0.3548387096774194
 40
0.3548387096774194
 40
0.3548387096774194
 40
0.3548387096774194
 40
0.3870967741935484
 40
0.3870967741935484
 40
0.3870967741935484
 40
0.3870967741935484
 40
0.4193548387096774
 40
0.4193548387096774
 40
0.4193548387096774
 40
0.4193548387096774
 40
0.4516129032258064
 40
0.4516129032258064
 40
0.4516129032258064
 40
0.4516129032258064
 40
0.4838709677419355
 40
0.4838709677419355
 40
0.4838709677419355
 40
0.4838709677419355
 40
0.5161290322580645
 40
0.5161290322580645
 40
0.5161290322580645
 40
0.5161290322580645
 40
0.5483870967741935
 40
0.5483870967741935
 40
0.5483870967741935
 40
0.5483870967741935
 40
0.5806451612903226
 40
0.5806451612903226
 40
0.5806451612903226
 40
0.5806451612903226
 40
0.6129032258064516
 40
0.6129032258064516
 40
0.6129032258064516
 40
0.6129032258064516
 40
0.6451612903225806
 40
0.6451612903225806
 40
0.6451612903225806
 40
0.6451612903225806
 40
0.6774193548387096
 40
0.6774193548387096
 40
0.6774193548387096
 40
0.6774193548387096
 40
0.7096774193548387
 40
0.7096774193548387
 40
0.7096774193548387
 40
0.7096774193548387
 40
0.7419354838709677
 40
0.7419354838709677
 40
0.7419354838709677
 40
0.7419354838709677
 40
0.7741935483870968
 40
0.7741935483870968
 40
0.7741935483870968
 40
0.7741935483870968
 40
0.8064516129032258
 40
0.8064516129032258
 40
0.8064516129032258
 40
0.8064516129032258
 40
0.8387096774193549
 40
0.8387096774193549
 40
0.8387096774193549
 40
0.8387096774193549
 40
0.8709677419354839
 40
0.8709677419354839
 40
0.8709677419354839
 40
0.8709677419354839
 40
0.9032258064516129
 40
0.9032258064516129
 40
0.9032258064516129
 40
0.9032258064516129
 40
0.9354838709677419
 40
0.9354838709677419
 40
0.9354838709677419
 40
0.9354838709677419
 40
1.0
 40
1.0
 40
1.0
 40
1.0
 10
-9.5124
 20
-15.8562
 30
0.0
 10
-9.5124
 20
-15.8562
 30
0.0
 10
-9.7957
 20
-15.8562
 30
0.0
 10
-9.7957
 20
-15.8562
 30
0.0
 10
-9.7957
 20
-15.8562
 30
0.0
 10
-9.7957
 20
-15.8562
 30
0.0
 10
-9.7957
 20
-16.9854
 30
0.0
 10
-9.7957
 20
-16.9854
 30
0.0
 10
-9.7957
 20
-16.9854
 30
0.0
 10
-9.7957
 20
-16.9854
 30
0.0
 10
-9.8034
 20
-16.9854
 30
0.0
 10
-9.8034
 20
-16.9854
 30
0.0
 10
-9.8034
 20
-16.9854
 30
0.0
 10
-9.8034
 20
-16.9854
 30
0.0
 10
-9.9897
 20
-16.7875
 30
0.0
 10
-9.9897
 20
-16.7875
 30
0.0
 10
-9.9897
 20
-16.7875
 30
0.0
 10
-10.1171
 20
-16.6543
 30
0.0
 10
-10.2381
 20
-16.534
 30
0.0
 10
-10.3519
 20
-16.4273
 30
0.0
 10
-10.3519
 20
-16.4273
 30
0.0
 10
-10.4657
 20
-16.3205
 30
0.0
 10
-10.577
 20
-16.2293
 30
0.0
 10
-10.6843
 20
-16.1537
 30
0.0
 10
-10.6843
 20
-16.1537
 30
0.0
 10
-10.7917
 20
-16.0774
 30
0.0
 10
-10.8997
 20
-16.0198
 30
0.0
 10
-11.0083
 20
-15.9791
 30
0.0
 10
-11.0083
 20
-15.9791
 30
0.0
 10
-11.1163
 20
-15.939
 30
0.0
 10
-11.2282
 20
-15.9189
 30
0.0
 10
-11.344
 20
-15.9183
 30
0.0
 10
-11.344
 20
-15.9183
 30
0.0
 10
-11.4352
 20
-15.9183
 30
0.0
 10
-11.5244
 20
-15.9325
 30
0.0
 10
-11.6111
 20
-15.9622
 30
0.0
 10
-11.6111
 20
-15.9622
 30
0.0
 10
-11.6978
 20
-15.992
 30
0.0
 10
-11.776
 20
-16.0386
 30
0.0
 10
-11.8459
 20
-16.1006
 30
0.0
 10
-11.8459
 20
-16.1006
 30
0.0
 10
-11.9164
 20
-16.1627
 30
0.0
 10
-11.972
 20
-16.2429
 30
0.0
 10
-12.0134
 20
-16.3406
 30
0.0
 10
-12.0134
 20
-16.3406
 30
0.0
 10
-12.0554
 20
-16.4382
 30
0.0
 10
-12.0768
 20
-16.5547
 30
0.0
 10
-12.0774
 20
-16.6905
 30
0.0
 10
-12.0774
 20
-16.6905
 30
0.0
 10
-12.0768
 20
-16.7862
 30
0.0
 10
-12.0658
 20
-16.8774
 30
0.0
 10
-12.0431
 20
-16.9641
 30
0.0
 10
-12.0431
 20
-16.9641
 30
0.0
 10
-12.0205
 20
-17.0507
 30
0.0
 10
-11.9901
 20
-17.1309
 30
0.0
 10
-11.9513
 20
-17.2046
 30
0.0
 10
-11.9513
 20
-17.2046
 30
0.0
 10
-11.9131
 20
-17.2777
 30
0.0
 10
-11.8698
 20
-17.343
 30
0.0
 10
-11.8213
 20
-17.4006
 30
0.0
 10
-11.8213
 20
-17.4006
 30
0.0
 10
-11.8213
 20
-17.4006
 30
0.0
 10
-11.5807
 20
-17.292
 30
0.0
 10
-11.5807
 20
-17.292
 30
0.0
 10
-11.5807
 20
-17.292
 30
0.0
 10
-11.6137
 20
-17.2531
 30
0.0
 10
-11.6467
 20
-17.2066
 30
0.0
 10
-11.679
 20
-17.1523
 30
0.0
 10
-11.679
 20
-17.1523
 30
0.0
 10
-11.712
 20
-17.0979
 30
0.0
 10
-11.7385
 20
-17.0378
 30
0.0
 10
-11.7605
 20
-16.9712
 30
0.0
 10
-11.7605
 20
-16.9712
 30
0.0
 10
-11.7818
 20
-16.9046
 30
0.0
 10
-11.7935
 20
-16.8328
 30
0.0
 10
-11.7941
 20
-16.7564
 30
0.0
 10
-11.7941
 20
-16.7564
 30
0.0
 10
-11.7935
 20
-16.6627
 30
0.0
 10
-11.7799
 20
-16.5838
 30
0.0
 10
-11.7534
 20
-16.5197
 30
0.0
 10
-11.7534
 20
-16.5197
 30
0.0
 10
-11.7262
 20
-16.4564
 30
0.0
 10
-11.69
 20
-16.4053
 30
0.0
 10
-11.6441
 20
-16.3671
 30
0.0
 10
-11.6441
 20
-16.3671
 30
0.0
 10
-11.5975
 20
-16.3289
 30
0.0
 10
-11.5451
 20
-16.3011
 30
0.0
 10
-11.4863
 20
-16.2843
 30
0.0
 10
-11.4863
 20
-16.2843
 30
0.0
 10
-11.4274
 20
-16.2675
 30
0.0
 10
-11.366
 20
-16.2591
 30
0.0
 10
-11.3013
 20
-16.2597
 30
0.0
 10
-11.3013
 20
-16.2597
 30
0.0
 10
-11.2069
 20
-16.2597
 30
0.0
 10
-11.1138
 20
-16.2785
 30
0.0
 10
-11.0213
 20
-16.316
 30
0.0
 10
-11.0213
 20
-16.316
 30
0.0
 10
-10.9281
 20
-16.3535
 30
0.0
 10
-10.8311
 20
-16.4104
 30
0.0
 10
-10.7289
 20
-16.4874
 30
0.0
 10
-10.7289
 20
-16.4874
 30
0.0
 10
-10.6268
 20
-16.5644
 30
0.0
 10
-10.5149
 20
-16.662
 30
0.0
 10
-10.3933
 20
-16.7804
 30
0.0
 10
-10.3933
 20
-16.7804
 30
0.0
 10
-10.2717
 20
-16.8981
 30
0.0
 10
-10.1346
 20
-17.0378
 30
0.0
 10
-9.9819
 20
-17.1988
 30
0.0
 10
-9.9819
 20
-17.1988
 30
0.0
 10
-9.9819
 20
-17.1988
 30
0.0
 10
-9.7219
 20
-17.4666
 30
0.0
 10
-9.7219
 20
-17.4666
 30
0.0
 10
-9.7219
 20
-17.4666
 30
0.0
 10
-9.7219
 20
-17.4666
 30
0.0
 10
-9.5124
 20
-17.4666
 30
0.0
 10
-9.5124
 20
-17.4666
 30
0.0
 10
-9.5124
 20
-17.4666
 30
0.0
 10
-9.5124
 20
-17.4666
 30
0.0
 10
-9.5124
 20
-15.8562
 30
0.0
 10
-9.5124
 20
-15.8562
 30
0.0
  0
SPLINE
  5
95
330
1F
100
AcDbEntity
  8
DEFAULT_1
 62
   250
100
AcDbSpline
210
0.0
220
0.0
230
1.0
 70
    11
 71
     3
 72
   104
 73
   100
 74
     0
 42
0.0000000001
 43
0.0000000001
 40
0.0
 40
0.0
 40
0.0
 40
0.0
 40
0.0384615384615385
 40
0.0384615384615385
 40
0.0384615384615385
 40
0.0384615384615385
 40
0.0769230769230769
 40
0.0769230769230769
 40
0.0769230769230769
 40
0.0769230769230769
 40
0.1153846153846154
 40
0.1153846153846154
 40
0.1153846153846154
 40
0.1153846153846154
 40
0.1538461538461539
 40
0.1538461538461539
 40
0.1538461538461539
 40
0.1538461538461539
 40
0.1923076923076923
 40
0.1923076923076923
 40
0.1923076923076923
 40
0.1923076923076923
 40
0.2307692307692308
 40
0.2307692307692308
 40
0.2307692307692308
 40
0.2307692307692308
 40
0.2692307692307692
 40
0.2692307692307692
 40
0.2692307692307692
 40
0.2692307692307692
 40
0.3076923076923077
 40
0.3076923076923077
 40
0.3076923076923077
 40
0.3076923076923077
 40
0.3461538461538461
 40
0.3461538461538461
 40
0.3461538461538461
 40
0.3461538461538461
 40
0.3846153846153846
 40
0.3846153846153846
 40
0.3846153846153846
 40
0.3846153846153846
 40
0.4230769230769231
 40
0.4230769230769231
 40
0.4230769230769231
 40
0.4230769230769231
 40
0.4615384615384616
 40
0.4615384615384616
 40
0.4615384615384616
 40
0.4615384615384616
 40
0.5
 40
0.5
 40
0.5
 40
0.5
 40
0.5384615384615384
 40
0.5384615384615384
 40
0.5384615384615384
 40
0.5384615384615384
 40
0.5769230769230769
 40
0.5769230769230769
 40
0.5769230769230769
 40
0.5769230769230769
 40
0.6153846153846154
 40
0.6153846153846154
 40
0.6153846153846154
 40
0.6153846153846154
 40
0.6538461538461539
 40
0.6538461538461539
 40
0.6538461538461539
 40
0.6538461538461539
 40
0.6923076923076923
 40
0.6923076923076923
 40
0.6923076923076923
 40
0.6923076923076923
 40
0.7307692307692307
 40
0.7307692307692307
 40
0.7307692307692307
 40
0.7307692307692307
 40
0.7692307692307693
 40
0.7692307692307693
 40
0.7692307692307693
 40
0.7692307692307693
 40
0.8076923076923077
 40
0.8076923076923077
 40
0.8076923076923077
 40
0.8076923076923077
 40
0.8461538461538461
 40
0.8461538461538461
 40
0.8461538461538461
 40
0.8461538461538461
 40
0.8846153846153846
 40
0.8846153846153846
 40
0.8846153846153846
 40
0.8846153846153846
 40
0.9230769230769231
 40
0.9230769230769231
 40
0.9230769230769231
 40
0.9230769230769231
 40
1.0
 40
1.0
 40
1.0
 40
1.0
 10
3.016
 20
30.6078
 30
0.0
 10
3.016
 20
30.6078
 30
0.0
 10
3.2605
 20
30.9416
 30
0.0
 10
3.2605
 20
30.9416
 30
0.0
 10
3.2605
 20
30.9416
 30
0.0
 10
3.3543
 20
30.8737
 30
0.0
 10
3.4571
 20
30.8213
 30
0.0
 10
3.5683
 20
30.7857
 30
0.0
 10
3.5683
 20
30.7857
 30
0.0
 10
3.6802
 20
30.7501
 30
0.0
 10
3.7973
 20
30.732
 30
0.0
 10
3.9202
 20
30.732
 30
0.0
 10
3.9202
 20
30.732
 30
0.0
 10
4.0463
 20
30.732
 30
0.0
 10
4.1685
 20
30.7508
 30
0.0
 10
4.2856
 20
30.7876
 30
0.0
 10
4.2856
 20
30.7876
 30
0.0
 10
4.4026
 20
30.8245
 30
0.0
 10
4.5113
 20
30.8795
 30
0.0
 10
4.6109
 20
30.9532
 30
0.0
 10
4.6109
 20
30.9532
 30
0.0
 10
4.7111
 20
31.0263
 30
0.0
 10
4.7985
 20
31.1181
 30
0.0
 10
4.8735
 20
31.2281
 30
0.0
 10
4.8735
 20
31.2281
 30
0.0
 10
4.9479
 20
31.338
 30
0.0
 10
5.0061
 20
31.4661
 30
0.0
 10
5.0481
 20
31.6129
 30
0.0
 10
5.0481
 20
31.6129
 30
0.0
 10
5.0895
 20
31.7591
 30
0.0
 10
5.1108
 20
31.9233
 30
0.0
 10
5.1115
 20
32.1057
 30
0.0
 10
5.1115
 20
32.1057
 30
0.0
 10
5.1115
 20
32.2344
 30
0.0
 10
5.0986
 20
32.3567
 30
0.0
 10
5.072
 20
32.4731
 30
0.0
 10
5.072
 20
32.4731
 30
0.0
 10
5.0462
 20
32.5901
 30
0.0
 10
5.008
 20
32.6988
 30
0.0
 10
4.9582
 20
32.799
 30
0.0
 10
4.9582
 20
32.799
 30
0.0
 10
4.9078
 20
32.8993
 30
0.0
 10
4.8463
 20
32.9885
 30
0.0
 10
4.7739
 20
33.0681
 30
0.0
 10
4.7739
 20
33.0681
 30
0.0
 10
4.7739
 20
33.0681
 30
0.0
 10
5.0145
 20
33.4018
 30
0.0
 10
5.0145
 20
33.4018
 30
0.0
 10
5.0145
 20
33.4018
 30
0.0
 10
5.0145
 20
33.4018
 30
0.0
 10
4.8088
 20
33.5415
 30
0.0
 10
4.8088
 20
33.5415
 30
0.0
 10
4.8088
 20
33.5415
 30
0.0
 10
4.8088
 20
33.5415
 30
0.0
 10
4.5799
 20
33.2272
 30
0.0
 10
4.5799
 20
33.2272
 30
0.0
 10
4.5799
 20
33.2272
 30
0.0
 10
4.4861
 20
33.297
 30
0.0
 10
4.3845
 20
33.3494
 30
0.0
 10
4.2746
 20
33.3843
 30
0.0
 10
4.2746
 20
33.3843
 30
0.0
 10
4.164
 20
33.4193
 30
0.0
 10
4.0489
 20
33.4367
 30
0.0
 10
3.9279
 20
33.4367
 30
0.0
 10
3.9279
 20
33.4367
 30
0.0
 10
3.7553
 20
33.4361
 30
0.0
 10
3.5962
 20
33.4037
 30
0.0
 10
3.4493
 20
33.3397
 30
0.0
 10
3.4493
 20
33.3397
 30
0.0
 10
3.3032
 20
33.2757
 30
0.0
 10
3.1758
 20
33.1832
 30
0.0
 10
3.0671
 20
33.0635
 30
0.0
 10
3.0671
 20
33.0635
 30
0.0
 10
2.9578
 20
32.9439
 30
0.0
 10
2.8737
 20
32.8003
 30
0.0
 10
2.8129
 20
32.6328
 30
0.0
 10
2.8129
 20
32.6328
 30
0.0
 10
2.7528
 20
32.4653
 30
0.0
 10
2.7217
 20
32.2784
 30
0.0
 10
2.7211
 20
32.0708
 30
0.0
 10
2.7211
 20
32.0708
 30
0.0
 10
2.7211
 20
31.9401
 30
0.0
 10
2.7353
 20
31.8153
 30
0.0
 10
2.7625
 20
31.6976
 30
0.0
 10
2.7625
 20
31.6976
 30
0.0
 10
2.7897
 20
31.5799
 30
0.0
 10
2.8291
 20
31.4706
 30
0.0
 10
2.8802
 20
31.3704
 30
0.0
 10
2.8802
 20
31.3704
 30
0.0
 10
2.9319
 20
31.2701
 30
0.0
 10
2.994
 20
31.1802
 30
0.0
 10
3.0665
 20
31.1007
 30
0.0
 10
3.0665
 20
31.1007
 30
0.0
 10
3.0665
 20
31.1007
 30
0.0
 10
2.8259
 20
30.7631
 30
0.0
 10
2.8259
 20
30.7631
 30
0.0
 10
2.8259
 20
30.7631
 30
0.0
 10
2.8259
 20
30.7631
 30
0.0
 10
3.016
 20
30.6078
 30
0.0
 10
3.016
 20
30.6078
 30
0.0
  0
SPLINE
  5
96
330
1F
100
AcDbEntity
  8
DEFAULT_1
 62
   250
100
AcDbSpline
210
0.0
220
0.0
230
1.0
 70
    11
 71
     3
 72
    52
 73
    48
 74
     0
 42
0.0000000001
 43
0.0000000001
 40
0.0
 40
0.0
 40
0.0
 40
0.0
 40
0.0769230769230769
 40
0.0769230769230769
 40
0.0769230769230769
 40
0.0769230769230769
 40
0.1538461538461539
 40
0.1538461538461539
 40
0.1538461538461539
 40
0.1538461538461539
 40
0.2307692307692308
 40
0.2307692307692308
 40
0.2307692307692308
 40
0.2307692307692308
 40
0.3076923076923077
 40
0.3076923076923077
 40
0.3076923076923077
 40
0.3076923076923077
 40
0.3846153846153846
 40
0.3846153846153846
 40
0.3846153846153846
 40
0.3846153846153846
 40
0.4615384615384616
 40
0.4615384615384616
 40
0.4615384615384616
 40
0.4615384615384616
 40
0.5384615384615384
 40
0.5384615384615384
 40
0.5384615384615384
 40
0.5384615384615384
 40
0.6153846153846154
 40
0.6153846153846154
 40
0.6153846153846154
 40
0.6153846153846154
 40
0.6923076923076923
 40
0.6923076923076923
 40
0.6923076923076923
 40
0.6923076923076923
 40
0.7692307692307693
 40
0.7692307692307693
 40
0.7692307692307693
 40
0.7692307692307693
 40
0.8461538461538461
 40
0.8461538461538461
 40
0.8461538461538461
 40
0.8461538461538461
 40
1.0
 40
1.0
 40
1.0
 40
1.0
 10
3.2644
 20
31.3878
 30
0.0
 10
3.2644
 20
31.3878
 30
0.0
 10
3.2566
 20
31.3839
 30
0.0
 10
3.2566
 20
31.3839
 30
0.0
 10
3.2566
 20
31.3839
 30
0.0
 10
3.2178
 20
31.4506
 30
0.0
 10
3.1842
 20
31.5198
 30
0.0
 10
3.1557
 20
31.5909
 30
0.0
 10
3.1557
 20
31.5909
 30
0.0
 10
3.1273
 20
31.6627
 30
0.0
 10
3.1053
 20
31.7384
 30
0.0
 10
3.0897
 20
31.8198
 30
0.0
 10
3.0897
 20
31.8198
 30
0.0
 10
3.0742
 20
31.9007
 30
0.0
 10
3.0665
 20
31.9899
 30
0.0
 10
3.0665
 20
32.0863
 30
0.0
 10
3.0665
 20
32.0863
 30
0.0
 10
3.0665
 20
32.1976
 30
0.0
 10
3.0781
 20
32.3049
 30
0.0
 10
3.1007
 20
32.4103
 30
0.0
 10
3.1007
 20
32.4103
 30
0.0
 10
3.124
 20
32.5151
 30
0.0
 10
3.1583
 20
32.6134
 30
0.0
 10
3.2036
 20
32.704
 30
0.0
 10
3.2036
 20
32.704
 30
0.0
 10
3.2495
 20
32.7951
 30
0.0
 10
3.3064
 20
32.8753
 30
0.0
 10
3.375
 20
32.9439
 30
0.0
 10
3.375
 20
32.9439
 30
0.0
 10
3.4435
 20
33.0131
 30
0.0
 10
3.5231
 20
33.0668
 30
0.0
 10
3.6136
 20
33.1056
 30
0.0
 10
3.6136
 20
33.1056
 30
0.0
 10
3.7048
 20
33.145
 30
0.0
 10
3.807
 20
33.1644
 30
0.0
 10
3.9202
 20
33.1651
 30
0.0
 10
3.9202
 20
33.1651
 30
0.0
 10
4.0191
 20
33.1644
 30
0.0
 10
4.1097
 20
33.1483
 30
0.0
 10
4.1912
 20
33.1159
 30
0.0
 10
4.1912
 20
33.1159
 30
0.0
 10
4.2733
 20
33.0842
 30
0.0
 10
4.347
 20
33.0396
 30
0.0
 10
4.413
 20
32.9827
 30
0.0
 10
4.413
 20
32.9827
 30
0.0
 10
4.413
 20
32.9827
 30
0.0
 10
3.2644
 20
31.3878
 30
0.0
 10
3.2644
 20
31.3878
 30
0.0
  0
SPLINE
  5
97
330
1F
100
AcDbEntity
  8
DEFAULT_1
 62
   250
100
AcDbSpline
210
0.0
220
0.0
230
1.0
 70
    11
 71
     3
 72
    48
 73
    44
 74
     0
 42
0.0000000001
 43
0.0000000001
 40
0.0
 40
0.0
 40
0.0
 40
0.0
 40
0.0833333333333333
 40
0.0833333333333333
 40
0.0833333333333333
 40
0.0833333333333333
 40
0.1666666666666667
 40
0.1666666666666667
 40
0.1666666666666667
 40
0.1666666666666667
 40
0.25
 40
0.25
 40
0.25
 40
0.25
 40
0.3333333333333333
 40
0.3333333333333333
 40
0.3333333333333333
 40
0.3333333333333333
 40
0.4166666666666667
 40
0.4166666666666667
 40
0.4166666666666667
 40
0.4166666666666667
 40
0.5
 40
0.5
 40
0.5
 40
0.5
 40
0.5833333333333334
 40
0.5833333333333334
 40
0.5833333333333334
 40
0.5833333333333334
 40
0.6666666666666666
 40
0.6666666666666666
 40
0.6666666666666666
 40
0.6666666666666666
 40
0.75
 40
0.75
 40
0.75
 40
0.75
 40
0.8333333333333334
 40
0.8333333333333334
 40
0.8333333333333334
 40
0.8333333333333334
 40
1.0
 40
1.0
 40
1.0
 40
1.0
 10
4.5721
 20
32.777
 30
0.0
 10
4.5721
 20
32.777
 30
0.0
 10
4.5837
 20
32.777
 30
0.0
 10
4.5837
 20
32.777
 30
0.0
 10
4.5837
 20
32.777
 30
0.0
 10
4.651
 20
32.6645
 30
0.0
 10
4.6982
 20
32.5507
 30
0.0
 10
4.726
 20
32.4356
 30
0.0
 10
4.726
 20
32.4356
 30
0.0
 10
4.7538
 20
32.3211
 30
0.0
 10
4.7674
 20
32.2073
 30
0.0
 10
4.7661
 20
32.0941
 30
0.0
 10
4.7661
 20
32.0941
 30
0.0
 10
4.7661
 20
31.9764
 30
0.0
 10
4.7538
 20
31.8638
 30
0.0
 10
4.7299
 20
31.7558
 30
0.0
 10
4.7299
 20
31.7558
 30
0.0
 10
4.706
 20
31.6478
 30
0.0
 10
4.6704
 20
31.5482
 30
0.0
 10
4.6238
 20
31.457
 30
0.0
 10
4.6238
 20
31.457
 30
0.0
 10
4.5766
 20
31.3658
 30
0.0
 10
4.5191
 20
31.2863
 30
0.0
 10
4.4505
 20
31.219
 30
0.0
 10
4.4505
 20
31.219
 30
0.0
 10
4.3813
 20
31.1511
 30
0.0
 10
4.3024
 20
31.0981
 30
0.0
 10
4.2132
 20
31.0606
 30
0.0
 10
4.2132
 20
31.0606
 30
0.0
 10
4.1239
 20
31.0231
 30
0.0
 10
4.0249
 20
31.0043
 30
0.0
 10
3.9163
 20
31.0036
 30
0.0
 10
3.9163
 20
31.0036
 30
0.0
 10
3.8109
 20
31.0036
 30
0.0
 10
3.7184
 20
31.0198
 30
0.0
 10
3.6401
 20
31.0515
 30
0.0
 10
3.6401
 20
31.0515
 30
0.0
 10
3.5612
 20
31.0832
 30
0.0
 10
3.4907
 20
31.1298
 30
0.0
 10
3.4273
 20
31.1899
 30
0.0
 10
3.4273
 20
31.1899
 30
0.0
 10
3.4273
 20
31.1899
 30
0.0
 10
4.5721
 20
32.777
 30
0.0
 10
4.5721
 20
32.777
 30
0.0
  0
SPLINE
  5
98
330
1F
100
AcDbEntity
  8
DEFAULT_1
 62
   250
100
AcDbSpline
210
0.0
220
0.0
230
1.0
 70
    11
 71
     3
 72
   124
 73
   120
 74
     0
 42
0.0000000001
 43
0.0000000001
 40
0.0
 40
0.0
 40
0.0
 40
0.0
 40
0.032258064516129
 40
0.032258064516129
 40
0.032258064516129
 40
0.032258064516129
 40
0.0645161290322581
 40
0.0645161290322581
 40
0.0645161290322581
 40
0.0645161290322581
 40
0.0967741935483871
 40
0.0967741935483871
 40
0.0967741935483871
 40
0.0967741935483871
 40
0.1290322580645161
 40
0.1290322580645161
 40
0.1290322580645161
 40
0.1290322580645161
 40
0.1612903225806452
 40
0.1612903225806452
 40
0.1612903225806452
 40
0.1612903225806452
 40
0.1935483870967742
 40
0.1935483870967742
 40
0.1935483870967742
 40
0.1935483870967742
 40
0.2258064516129032
 40
0.2258064516129032
 40
0.2258064516129032
 40
0.2258064516129032
 40
0.2580645161290323
 40
0.2580645161290323
 40
0.2580645161290323
 40
0.2580645161290323
 40
0.2903225806451613
 40
0.2903225806451613
 40
0.2903225806451613
 40
0.2903225806451613
 40
0.3225806451612903
 40
0.3225806451612903
 40
0.3225806451612903
 40
0.3225806451612903
 40
0.3548387096774194
 40
0.3548387096774194
 40
0.3548387096774194
 40
0.3548387096774194
 40
0.3870967741935484
 40
0.3870967741935484
 40
0.3870967741935484
 40
0.3870967741935484
 40
0.4193548387096774
 40
0.4193548387096774
 40
0.4193548387096774
 40
0.4193548387096774
 40
0.4516129032258064
 40
0.4516129032258064
 40
0.4516129032258064
 40
0.4516129032258064
 40
0.4838709677419355
 40
0.4838709677419355
 40
0.4838709677419355
 40
0.4838709677419355
 40
0.5161290322580645
 40
0.5161290322580645
 40
0.5161290322580645
 40
0.5161290322580645
 40
0.5483870967741935
 40
0.5483870967741935
 40
0.5483870967741935
 40
0.5483870967741935
 40
0.5806451612903226
 40
0.5806451612903226
 40
0.5806451612903226
 40
0.5806451612903226
 40
0.6129032258064516
 40
0.6129032258064516
 40
0.6129032258064516
 40
0.6129032258064516
 40
0.6451612903225806
 40
0.6451612903225806
 40
0.6451612903225806
 40
0.6451612903225806
 40
0.6774193548387096
 40
0.6774193548387096
 40
0.6774193548387096
 40
0.6774193548387096
 40
0.7096774193548387
 40
0.7096774193548387
 40
0.7096774193548387
 40
0.7096774193548387
 40
0.7419354838709677
 40
0.7419354838709677
 40
0.7419354838709677
 40
0.7419354838709677
 40
0.7741935483870968
 40
0.7741935483870968
 40
0.7741935483870968
 40
0.7741935483870968
 40
0.8064516129032258
 40
0.8064516129032258
 40
0.8064516129032258
 40
0.8064516129032258
 40
0.8387096774193549
 40
0.8387096774193549
 40
0.8387096774193549
 40
0.8387096774193549
 40
0.8709677419354839
 40
0.8709677419354839
 40
0.8709677419354839
 40
0.8709677419354839
 40
0.9032258064516129
 40
0.9032258064516129
 40
0.9032258064516129
 40
0.9032258064516129
 40
0.9354838709677419
 40
0.9354838709677419
 40
0.9354838709677419
 40
0.9354838709677419
 40
1.0
 40
1.0
 40
1.0
 40
1.0
 10
6.8694
 20
33.3358
 30
0.0
 10
6.8383
 20
33.3358
 30
0.0
 10
6.8015
 20
33.3345
 30
0.0
 10
6.7601
 20
33.3319
 30
0.0
 10
6.7601
 20
33.3319
 30
0.0
 10
6.718
 20
33.3294
 30
0.0
 10
6.6715
 20
33.3242
 30
0.0
 10
6.621
 20
33.3164
 30
0.0
 10
6.621
 20
33.3164
 30
0.0
 10
6.4613
 20
33.297
 30
0.0
 10
6.3132
 20
33.2556
 30
0.0
 10
6.1767
 20
33.1929
 30
0.0
 10
6.1767
 20
33.1929
 30
0.0
 10
6.0403
 20
33.1302
 30
0.0
 10
5.9193
 20
33.0474
 30
0.0
 10
5.8139
 20
32.9439
 30
0.0
 10
5.8139
 20
32.9439
 30
0.0
 10
5.7292
 20
32.8611
 30
0.0
 10
5.6548
 20
32.7628
 30
0.0
 10
5.5914
 20
32.649
 30
0.0
 10
5.5914
 20
32.649
 30
0.0
 10
5.5274
 20
32.5358
 30
0.0
 10
5.4776
 20
32.4084
 30
0.0
 10
5.4414
 20
32.2674
 30
0.0
 10
5.4414
 20
32.2674
 30
0.0
 10
5.4058
 20
32.1264
 30
0.0
 10
5.3877
 20
31.9725
 30
0.0
 10
5.387
 20
31.8069
 30
0.0
 10
5.387
 20
31.8069
 30
0.0
 10
5.3877
 20
31.6426
 30
0.0
 10
5.409
 20
31.4945
 30
0.0
 10
5.4504
 20
31.3626
 30
0.0
 10
5.4504
 20
31.3626
 30
0.0
 10
5.4925
 20
31.23
 30
0.0
 10
5.5526
 20
31.1175
 30
0.0
 10
5.6309
 20
31.0237
 30
0.0
 10
5.6309
 20
31.0237
 30
0.0
 10
5.7085
 20
30.9299
 30
0.0
 10
5.8023
 20
30.8575
 30
0.0
 10
5.9109
 20
30.8077
 30
0.0
 10
5.9109
 20
30.8077
 30
0.0
 10
6.0196
 20
30.7579
 30
0.0
 10
6.1411
 20
30.7327
 30
0.0
 10
6.2757
 20
30.732
 30
0.0
 10
6.2757
 20
30.732
 30
0.0
 10
6.4076
 20
30.7333
 30
0.0
 10
6.526
 20
30.7579
 30
0.0
 10
6.6301
 20
30.8057
 30
0.0
 10
6.6301
 20
30.8057
 30
0.0
 10
6.7336
 20
30.8543
 30
0.0
 10
6.8222
 20
30.9202
 30
0.0
 10
6.8946
 20
31.0036
 30
0.0
 10
6.8946
 20
31.0036
 30
0.0
 10
6.967
 20
31.0871
 30
0.0
 10
7.0227
 20
31.1822
 30
0.0
 10
7.0602
 20
31.2889
 30
0.0
 10
7.0602
 20
31.2889
 30
0.0
 10
7.0983
 20
31.3949
 30
0.0
 10
7.1177
 20
31.5068
 30
0.0
 10
7.1177
 20
31.6245
 30
0.0
 10
7.1177
 20
31.6245
 30
0.0
 10
7.1171
 20
31.7474
 30
0.0
 10
7.0983
 20
31.8587
 30
0.0
 10
7.0615
 20
31.9583
 30
0.0
 10
7.0615
 20
31.9583
 30
0.0
 10
7.0246
 20
32.0579
 30
0.0
 10
6.9722
 20
32.1439
 30
0.0
 10
6.905
 20
32.2157
 30
0.0
 10
6.905
 20
32.2157
 30
0.0
 10
6.8371
 20
32.2868
 30
0.0
 10
6.7569
 20
32.3424
 30
0.0
 10
6.6644
 20
32.3806
 30
0.0
 10
6.6644
 20
32.3806
 30
0.0
 10
6.5719
 20
32.4194
 30
0.0
 10
6.469
 20
32.4388
 30
0.0
 10
6.3572
 20
32.4394
 30
0.0
 10
6.3572
 20
32.4394
 30
0.0
 10
6.264
 20
32.4388
 30
0.0
 10
6.1787
 20
32.4252
 30
0.0
 10
6.101
 20
32.3993
 30
0.0
 10
6.101
 20
32.3993
 30
0.0
 10
6.0234
 20
32.3728
 30
0.0
 10
5.9542
 20
32.3379
 30
0.0
 10
5.8941
 20
32.2933
 30
0.0
 10
5.8941
 20
32.2933
 30
0.0
 10
5.8346
 20
32.2493
 30
0.0
 10
5.7841
 20
32.1995
 30
0.0
 10
5.744
 20
32.1445
 30
0.0
 10
5.744
 20
32.1445
 30
0.0
 10
5.744
 20
32.1445
 30
0.0
 10
5.7363
 20
32.1445
 30
0.0
 10
5.7363
 20
32.1445
 30
0.0
 10
5.7363
 20
32.1445
 30
0.0
 10
5.7505
 20
32.2499
 30
0.0
 10
5.779
 20
32.3515
 30
0.0
 10
5.8223
 20
32.4491
 30
0.0
 10
5.8223
 20
32.4491
 30
0.0
 10
5.865
 20
32.5461
 30
0.0
 10
5.9219
 20
32.6354
 30
0.0
 10
5.9943
 20
32.7162
 30
0.0
 10
5.9943
 20
32.7162
 30
0.0
 10
6.0668
 20
32.7964
 30
0.0
 10
6.1541
 20
32.865
 30
0.0
 10
6.2569
 20
32.9206
 30
0.0
 10
6.2569
 20
32.9206
 30
0.0
 10
6.3597
 20
32.9762
 30
0.0
 10
6.4788
 20
33.015
 30
0.0
 10
6.6133
 20
33.037
 30
0.0
 10
6.6133
 20
33.037
 30
0.0
 10
6.6618
 20
33.0448
 30
0.0
 10
6.7083
 20
33.0506
 30
0.0
 10
6.7517
 20
33.0538
 30
0.0
 10
6.7517
 20
33.0538
 30
0.0
 10
6.795
 20
33.0577
 30
0.0
 10
6.8345
 20
33.0584
 30
0.0
 10
6.8694
 20
33.0564
 30
0.0
 10
6.8694
 20
33.0564
 30
0.0
 10
6.8694
 20
33.0564
 30
0.0
 10
6.8694
 20
33.3358
 30
0.0
 10
6.8694
 20
33.3358
 30
0.0
  0
SPLINE
  5
99
330
1F
100
AcDbEntity
  8
DEFAULT_1
 62
   250
100
AcDbSpline
210
0.0
220
0.0
230
1.0
 70
    11
 71
     3
 72
    64
 73
    60
 74
     0
 42
0.0000000001
 43
0.0000000001
 40
0.0
 40
0.0
 40
0.0
 40
0.0
 40
0.0625
 40
0.0625
 40
0.0625
 40
0.0625
 40
0.125
 40
0.125
 40
0.125
 40
0.125
 40
0.1875
 40
0.1875
 40
0.1875
 40
0.1875
 40
0.25
 40
0.25
 40
0.25
 40
0.25
 40
0.3125
 40
0.3125
 40
0.3125
 40
0.3125
 40
0.375
 40
0.375
 40
0.375
 40
0.375
 40
0.4375
 40
0.4375
 40
0.4375
 40
0.4375
 40
0.5
 40
0.5
 40
0.5
 40
0.5
 40
0.5625
 40
0.5625
 40
0.5625
 40
0.5625
 40
0.625
 40
0.625
 40
0.625
 40
0.625
 40
0.6875
 40
0.6875
 40
0.6875
 40
0.6875
 40
0.75
 40
0.75
 40
0.75
 40
0.75
 40
0.8125
 40
0.8125
 40
0.8125
 40
0.8125
 40
0.875
 40
0.875
 40
0.875
 40
0.875
 40
1.0
 40
1.0
 40
1.0
 40
1.0
 10
6.2834
 20
30.9959
 30
0.0
 10
6.1929
 20
30.9965
 30
0.0
 10
6.1133
 20
31.0146
 30
0.0
 10
6.0441
 20
31.0509
 30
0.0
 10
6.0441
 20
31.0509
 30
0.0
 10
5.9756
 20
31.0871
 30
0.0
 10
5.9174
 20
31.1375
 30
0.0
 10
5.8702
 20
31.2028
 30
0.0
 10
5.8702
 20
31.2028
 30
0.0
 10
5.8229
 20
31.2682
 30
0.0
 10
5.7874
 20
31.3451
 30
0.0
 10
5.7628
 20
31.4331
 30
0.0
 10
5.7628
 20
31.4331
 30
0.0
 10
5.7382
 20
31.521
 30
0.0
 10
5.7259
 20
31.6174
 30
0.0
 10
5.7246
 20
31.7215
 30
0.0
 10
5.7246
 20
31.7215
 30
0.0
 10
5.7246
 20
31.7526
 30
0.0
 10
5.7285
 20
31.7797
 30
0.0
 10
5.735
 20
31.8043
 30
0.0
 10
5.735
 20
31.8043
 30
0.0
 10
5.7415
 20
31.8283
 30
0.0
 10
5.7499
 20
31.8496
 30
0.0
 10
5.7596
 20
31.869
 30
0.0
 10
5.7596
 20
31.869
 30
0.0
 10
5.7913
 20
31.9317
 30
0.0
 10
5.832
 20
31.9861
 30
0.0
 10
5.8831
 20
32.0326
 30
0.0
 10
5.8831
 20
32.0326
 30
0.0
 10
5.9335
 20
32.0785
 30
0.0
 10
5.9905
 20
32.1148
 30
0.0
 10
6.0538
 20
32.1406
 30
0.0
 10
6.0538
 20
32.1406
 30
0.0
 10
6.1172
 20
32.1659
 30
0.0
 10
6.1832
 20
32.1794
 30
0.0
 10
6.2524
 20
32.1794
 30
0.0
 10
6.2524
 20
32.1794
 30
0.0
 10
6.3578
 20
32.1788
 30
0.0
 10
6.449
 20
32.1555
 30
0.0
 10
6.5273
 20
32.1096
 30
0.0
 10
6.5273
 20
32.1096
 30
0.0
 10
6.6049
 20
32.0637
 30
0.0
 10
6.665
 20
31.9977
 30
0.0
 10
6.7077
 20
31.9117
 30
0.0
 10
6.7077
 20
31.9117
 30
0.0
 10
6.7504
 20
31.8257
 30
0.0
 10
6.7717
 20
31.7222
 30
0.0
 10
6.7724
 20
31.6012
 30
0.0
 10
6.7724
 20
31.6012
 30
0.0
 10
6.7717
 20
31.4803
 30
0.0
 10
6.751
 20
31.3742
 30
0.0
 10
6.7103
 20
31.2837
 30
0.0
 10
6.7103
 20
31.2837
 30
0.0
 10
6.6695
 20
31.1931
 30
0.0
 10
6.6126
 20
31.1233
 30
0.0
 10
6.5395
 20
31.0729
 30
0.0
 10
6.5395
 20
31.0729
 30
0.0
 10
6.4665
 20
31.0224
 30
0.0
 10
6.3811
 20
30.9965
 30
0.0
 10
6.2834
 20
30.9959
 30
0.0
  0
SPLINE
  5
9A
330
1F
100
AcDbEntity
  8
DEFAULT_1
 62
   250
100
AcDbSpline
210
0.0
220
0.0
230
1.0
 70
    11
 71
     3
 72
   124
 73
   120
 74
     0
 42
0.0000000001
 43
0.0000000001
 40
0.0
 40
0.0
 40
0.0
 40
0.0
 40
0.032258064516129
 40
0.032258064516129
 40
0.032258064516129
 40
0.032258064516129
 40
0.0645161290322581
 40
0.0645161290322581
 40
0.0645161290322581
 40
0.0645161290322581
 40
0.0967741935483871
 40
0.0967741935483871
 40
0.0967741935483871
 40
0.0967741935483871
 40
0.1290322580645161
 40
0.1290322580645161
 40
0.1290322580645161
 40
0.1290322580645161
 40
0.1612903225806452
 40
0.1612903225806452
 40
0.1612903225806452
 40
0.1612903225806452
 40
0.1935483870967742
 40
0.1935483870967742
 40
0.1935483870967742
 40
0.1935483870967742
 40
0.2258064516129032
 40
0.2258064516129032
 40
0.2258064516129032
 40
0.2258064516129032
 40
0.2580645161290323
 40
0.2580645161290323
 40
0.2580645161290323
 40
0.2580645161290323
 40
0.2903225806451613
 40
0.2903225806451613
 40
0.2903225806451613
 40
0.2903225806451613
 40
0.3225806451612903
 40
0.3225806451612903
 40
0.3225806451612903
 40
0.3225806451612903
 40
0.3548387096774194
 40
0.3548387096774194
 40
0.3548387096774194
 40
0.3548387096774194
 40
0.3870967741935484
 40
0.3870967741935484
 40
0.3870967741935484
 40
0.3870967741935484
 40
0.4193548387096774
 40
0.4193548387096774
 40
0.4193548387096774
 40
0.4193548387096774
 40
0.4516129032258064
 40
0.4516129032258064
 40
0.4516129032258064
 40
0.4516129032258064
 40
0.4838709677419355
 40
0.4838709677419355
 40
0.4838709677419355
 40
0.4838709677419355
 40
0.5161290322580645
 40
0.5161290322580645
 40
0.5161290322580645
 40
0.5161290322580645
 40
0.5483870967741935
 40
0.5483870967741935
 40
0.5483870967741935
 40
0.5483870967741935
 40
0.5806451612903226
 40
0.5806451612903226
 40
0.5806451612903226
 40
0.5806451612903226
 40
0.6129032258064516
 40
0.6129032258064516
 40
0.6129032258064516
 40
0.6129032258064516
 40
0.6451612903225806
 40
0.6451612903225806
 40
0.6451612903225806
 40
0.6451612903225806
 40
0.6774193548387096
 40
0.6774193548387096
 40
0.6774193548387096
 40
0.6774193548387096
 40
0.7096774193548387
 40
0.7096774193548387
 40
0.7096774193548387
 40
0.7096774193548387
 40
0.7419354838709677
 40
0.7419354838709677
 40
0.7419354838709677
 40
0.7419354838709677
 40
0.7741935483870968
 40
0.7741935483870968
 40
0.7741935483870968
 40
0.7741935483870968
 40
0.8064516129032258
 40
0.8064516129032258
 40
0.8064516129032258
 40
0.8064516129032258
 40
0.8387096774193549
 40
0.8387096774193549
 40
0.8387096774193549
 40
0.8387096774193549
 40
0.8709677419354839
 40
0.8709677419354839
 40
0.8709677419354839
 40
0.8709677419354839
 40
0.9032258064516129
 40
0.9032258064516129
 40
0.9032258064516129
 40
0.9032258064516129
 40
0.9354838709677419
 40
0.9354838709677419
 40
0.9354838709677419
 40
0.9354838709677419
 40
1.0
 40
1.0
 40
1.0
 40
1.0
 10
8.8601
 20
33.3358
 30
0.0
 10
8.829
 20
33.3358
 30
0.0
 10
8.7922
 20
33.3345
 30
0.0
 10
8.7508
 20
33.3319
 30
0.0
 10
8.7508
 20
33.3319
 30
0.0
 10
8.7087
 20
33.3294
 30
0.0
 10
8.6622
 20
33.3242
 30
0.0
 10
8.6117
 20
33.3164
 30
0.0
 10
8.6117
 20
33.3164
 30
0.0
 10
8.452
 20
33.297
 30
0.0
 10
8.3039
 20
33.2556
 30
0.0
 10
8.1674
 20
33.1929
 30
0.0
 10
8.1674
 20
33.1929
 30
0.0
 10
8.031
 20
33.1302
 30
0.0
 10
7.91
 20
33.0474
 30
0.0
 10
7.8046
 20
32.9439
 30
0.0
 10
7.8046
 20
32.9439
 30
0.0
 10
7.7199
 20
32.8611
 30
0.0
 10
7.6455
 20
32.7628
 30
0.0
 10
7.5821
 20
32.649
 30
0.0
 10
7.5821
 20
32.649
 30
0.0
 10
7.5181
 20
32.5358
 30
0.0
 10
7.4683
 20
32.4084
 30
0.0
 10
7.4321
 20
32.2674
 30
0.0
 10
7.4321
 20
32.2674
 30
0.0
 10
7.3965
 20
32.1264
 30
0.0
 10
7.3784
 20
31.9725
 30
0.0
 10
7.3777
 20
31.8069
 30
0.0
 10
7.3777
 20
31.8069
 30
0.0
 10
7.3784
 20
31.6426
 30
0.0
 10
7.3997
 20
31.4945
 30
0.0
 10
7.4411
 20
31.3626
 30
0.0
 10
7.4411
 20
31.3626
 30
0.0
 10
7.4832
 20
31.23
 30
0.0
 10
7.5433
 20
31.1175
 30
0.0
 10
7.6216
 20
31.0237
 30
0.0
 10
7.6216
 20
31.0237
 30
0.0
 10
7.6992
 20
30.9299
 30
0.0
 10
7.793
 20
30.8575
 30
0.0
 10
7.9016
 20
30.8077
 30
0.0
 10
7.9016
 20
30.8077
 30
0.0
 10
8.0103
 20
30.7579
 30
0.0
 10
8.1318
 20
30.7327
 30
0.0
 10
8.2664
 20
30.732
 30
0.0
 10
8.2664
 20
30.732
 30
0.0
 10
8.3983
 20
30.7333
 30
0.0
 10
8.5167
 20
30.7579
 30
0.0
 10
8.6208
 20
30.8057
 30
0.0
 10
8.6208
 20
30.8057
 30
0.0
 10
8.7243
 20
30.8543
 30
0.0
 10
8.8129
 20
30.9202
 30
0.0
 10
8.8853
 20
31.0036
 30
0.0
 10
8.8853
 20
31.0036
 30
0.0
 10
8.9577
 20
31.0871
 30
0.0
 10
9.0134
 20
31.1822
 30
0.0
 10
9.0509
 20
31.2889
 30
0.0
 10
9.0509
 20
31.2889
 30
0.0
 10
9.089
 20
31.3949
 30
0.0
 10
9.1084
 20
31.5068
 30
0.0
 10
9.1084
 20
31.6245
 30
0.0
 10
9.1084
 20
31.6245
 30
0.0
 10
9.1078
 20
31.7474
 30
0.0
 10
9.089
 20
31.8587
 30
0.0
 10
9.0522
 20
31.9583
 30
0.0
 10
9.0522
 20
31.9583
 30
0.0
 10
9.0153
 20
32.0579
 30
0.0
 10
8.9629
 20
32.1439
 30
0.0
 10
8.8957
 20
32.2157
 30
0.0
 10
8.8957
 20
32.2157
 30
0.0
 10
8.8278
 20
32.2868
 30
0.0
 10
8.7476
 20
32.3424
 30
0.0
 10
8.6551
 20
32.3806
 30
0.0
 10
8.6551
 20
32.3806
 30
0.0
 10
8.5626
 20
32.4194
 30
0.0
 10
8.4597
 20
32.4388
 30
0.0
 10
8.3479
 20
32.4394
 30
0.0
 10
8.3479
 20
32.4394
 30
0.0
 10
8.2547
 20
32.4388
 30
0.0
 10
8.1694
 20
32.4252
 30
0.0
 10
8.0917
 20
32.3993
 30
0.0
 10
8.0917
 20
32.3993
 30
0.0
 10
8.0141
 20
32.3728
 30
0.0
 10
7.9449
 20
32.3379
 30
0.0
 10
7.8848
 20
32.2933
 30
0.0
 10
7.8848
 20
32.2933
 30
0.0
 10
7.8253
 20
32.2493
 30
0.0
 10
7.7748
 20
32.1995
 30
0.0
 10
7.7347
 20
32.1445
 30
0.0
 10
7.7347
 20
32.1445
 30
0.0
 10
7.7347
 20
32.1445
 30
0.0
 10
7.727
 20
32.1445
 30
0.0
 10
7.727
 20
32.1445
 30
0.0
 10
7.727
 20
32.1445
 30
0.0
 10
7.7412
 20
32.2499
 30
0.0
 10
7.7697
 20
32.3515
 30
0.0
 10
7.813
 20
32.4491
 30
0.0
 10
7.813
 20
32.4491
 30
0.0
 10
7.8557
 20
32.5461
 30
0.0
 10
7.9126
 20
32.6354
 30
0.0
 10
7.985
 20
32.7162
 30
0.0
 10
7.985
 20
32.7162
 30
0.0
 10
8.0575
 20
32.7964
 30
0.0
 10
8.1448
 20
32.865
 30
0.0
 10
8.2476
 20
32.9206
 30
0.0
 10
8.2476
 20
32.9206
 30
0.0
 10
8.3504
 20
32.9762
 30
0.0
 10
8.4695
 20
33.015
 30
0.0
 10
8.604
 20
33.037
 30
0.0
 10
8.604
 20
33.037
 30
0.0
 10
8.6525
 20
33.0448
 30
0.0
 10
8.699
 20
33.0506
 30
0.0
 10
8.7424
 20
33.0538
 30
0.0
 10
8.7424
 20
33.0538
 30
0.0
 10
8.7857
 20
33.0577
 30
0.0
 10
8.8252
 20
33.0584
 30
0.0
 10
8.8601
 20
33.0564
 30
0.0
 10
8.8601
 20
33.0564
 30
0.0
 10
8.8601
 20
33.0564
 30
0.0
 10
8.8601
 20
33.3358
 30
0.0
 10
8.8601
 20
33.3358
 30
0.0
  0
SPLINE
  5
9B
330
1F
100
AcDbEntity
  8
DEFAULT_1
 62
   250
100
AcDbSpline
210
0.0
220
0.0
230
1.0
 70
    11
 71
     3
 72
    64
 73
    60
 74
     0
 42
0.0000000001
 43
0.0000000001
 40
0.0
 40
0.0
 40
0.0
 40
0.0
 40
0.0625
 40
0.0625
 40
0.0625
 40
0.0625
 40
0.125
 40
0.125
 40
0.125
 40
0.125
 40
0.1875
 40
0.1875
 40
0.1875
 40
0.1875
 40
0.25
 40
0.25
 40
0.25
 40
0.25
 40
0.3125
 40
0.3125
 40
0.3125
 40
0.3125
 40
0.375
 40
0.375
 40
0.375
 40
0.375
 40
0.4375
 40
0.4375
 40
0.4375
 40
0.4375
 40
0.5
 40
0.5
 40
0.5
 40
0.5
 40
0.5625
 40
0.5625
 40
0.5625
 40
0.5625
 40
0.625
 40
0.625
 40
0.625
 40
0.625
 40
0.6875
 40
0.6875
 40
0.6875
 40
0.6875
 40
0.75
 40
0.75
 40
0.75
 40
0.75
 40
0.8125
 40
0.8125
 40
0.8125
 40
0.8125
 40
0.875
 40
0.875
 40
0.875
 40
0.875
 40
1.0
 40
1.0
 40
1.0
 40
1.0
 10
8.2741
 20
30.9959
 30
0.0
 10
8.1836
 20
30.9965
 30
0.0
 10
8.104
 20
31.0146
 30
0.0
 10
8.0348
 20
31.0509
 30
0.0
 10
8.0348
 20
31.0509
 30
0.0
 10
7.9663
 20
31.0871
 30
0.0
 10
7.9081
 20
31.1375
 30
0.0
 10
7.8609
 20
31.2028
 30
0.0
 10
7.8609
 20
31.2028
 30
0.0
 10
7.8136
 20
31.2682
 30
0.0
 10
7.7781
 20
31.3451
 30
0.0
 10
7.7535
 20
31.4331
 30
0.0
 10
7.7535
 20
31.4331
 30
0.0
 10
7.7289
 20
31.521
 30
0.0
 10
7.7166
 20
31.6174
 30
0.0
 10
7.7153
 20
31.7215
 30
0.0
 10
7.7153
 20
31.7215
 30
0.0
 10
7.7153
 20
31.7526
 30
0.0
 10
7.7192
 20
31.7797
 30
0.0
 10
7.7257
 20
31.8043
 30
0.0
 10
7.7257
 20
31.8043
 30
0.0
 10
7.7322
 20
31.8283
 30
0.0
 10
7.7406
 20
31.8496
 30
0.0
 10
7.7503
 20
31.869
 30
0.0
 10
7.7503
 20
31.869
 30
0.0
 10
7.782
 20
31.9317
 30
0.0
 10
7.8227
 20
31.9861
 30
0.0
 10
7.8738
 20
32.0326
 30
0.0
 10
7.8738
 20
32.0326
 30
0.0
 10
7.9242
 20
32.0785
 30
0.0
 10
7.9812
 20
32.1148
 30
0.0
 10
8.0445
 20
32.1406
 30
0.0
 10
8.0445
 20
32.1406
 30
0.0
 10
8.1079
 20
32.1659
 30
0.0
 10
8.1739
 20
32.1794
 30
0.0
 10
8.2431
 20
32.1794
 30
0.0
 10
8.2431
 20
32.1794
 30
0.0
 10
8.3485
 20
32.1788
 30
0.0
 10
8.4397
 20
32.1555
 30
0.0
 10
8.518
 20
32.1096
 30
0.0
 10
8.518
 20
32.1096
 30
0.0
 10
8.5956
 20
32.0637
 30
0.0
 10
8.6557
 20
31.9977
 30
0.0
 10
8.6984
 20
31.9117
 30
0.0
 10
8.6984
 20
31.9117
 30
0.0
 10
8.7411
 20
31.8257
 30
0.0
 10
8.7624
 20
31.7222
 30
0.0
 10
8.7631
 20
31.6012
 30
0.0
 10
8.7631
 20
31.6012
 30
0.0
 10
8.7624
 20
31.4803
 30
0.0
 10
8.7417
 20
31.3742
 30
0.0
 10
8.701
 20
31.2837
 30
0.0
 10
8.701
 20
31.2837
 30
0.0
 10
8.6602
 20
31.1931
 30
0.0
 10
8.6033
 20
31.1233
 30
0.0
 10
8.5302
 20
31.0729
 30
0.0
 10
8.5302
 20
31.0729
 30
0.0
 10
8.4572
 20
31.0224
 30
0.0
 10
8.3718
 20
30.9965
 30
0.0
 10
8.2741
 20
30.9959
 30
0.0
  0
SPLINE
  5
9C
330
1F
100
AcDbEntity
  8
DEFAULT_1
 62
   250
100
AcDbSpline
210
0.0
220
0.0
230
1.0
 70
    11
 71
     3
 72
   104
 73
   100
 74
     0
 42
0.0000000001
 43
0.0000000001
 40
0.0
 40
0.0
 40
0.0
 40
0.0
 40
0.0384615384615385
 40
0.0384615384615385
 40
0.0384615384615385
 40
0.0384615384615385
 40
0.0769230769230769
 40
0.0769230769230769
 40
0.0769230769230769
 40
0.0769230769230769
 40
0.1153846153846154
 40
0.1153846153846154
 40
0.1153846153846154
 40
0.1153846153846154
 40
0.1538461538461539
 40
0.1538461538461539
 40
0.1538461538461539
 40
0.1538461538461539
 40
0.1923076923076923
 40
0.1923076923076923
 40
0.1923076923076923
 40
0.1923076923076923
 40
0.2307692307692308
 40
0.2307692307692308
 40
0.2307692307692308
 40
0.2307692307692308
 40
0.2692307692307692
 40
0.2692307692307692
 40
0.2692307692307692
 40
0.2692307692307692
 40
0.3076923076923077
 40
0.3076923076923077
 40
0.3076923076923077
 40
0.3076923076923077
 40
0.3461538461538461
 40
0.3461538461538461
 40
0.3461538461538461
 40
0.3461538461538461
 40
0.3846153846153846
 40
0.3846153846153846
 40
0.3846153846153846
 40
0.3846153846153846
 40
0.4230769230769231
 40
0.4230769230769231
 40
0.4230769230769231
 40
0.4230769230769231
 40
0.4615384615384616
 40
0.4615384615384616
 40
0.4615384615384616
 40
0.4615384615384616
 40
0.5
 40
0.5
 40
0.5
 40
0.5
 40
0.5384615384615384
 40
0.5384615384615384
 40
0.5384615384615384
 40
0.5384615384615384
 40
0.5769230769230769
 40
0.5769230769230769
 40
0.5769230769230769
 40
0.5769230769230769
 40
0.6153846153846154
 40
0.6153846153846154
 40
0.6153846153846154
 40
0.6153846153846154
 40
0.6538461538461539
 40
0.6538461538461539
 40
0.6538461538461539
 40
0.6538461538461539
 40
0.6923076923076923
 40
0.6923076923076923
 40
0.6923076923076923
 40
0.6923076923076923
 40
0.7307692307692307
 40
0.7307692307692307
 40
0.7307692307692307
 40
0.7307692307692307
 40
0.7692307692307693
 40
0.7692307692307693
 40
0.7692307692307693
 40
0.7692307692307693
 40
0.8076923076923077
 40
0.8076923076923077
 40
0.8076923076923077
 40
0.8076923076923077
 40
0.8461538461538461
 40
0.8461538461538461
 40
0.8461538461538461
 40
0.8461538461538461
 40
0.8846153846153846
 40
0.8846153846153846
 40
0.8846153846153846
 40
0.8846153846153846
 40
0.9230769230769231
 40
0.9230769230769231
 40
0.9230769230769231
 40
0.9230769230769231
 40
1.0
 40
1.0
 40
1.0
 40
1.0
 10
3.3858
 20
-32.2579
 30
0.0
 10
3.3858
 20
-32.2579
 30
0.0
 10
3.6303
 20
-31.9241
 30
0.0
 10
3.6303
 20
-31.9241
 30
0.0
 10
3.6303
 20
-31.9241
 30
0.0
 10
3.7241
 20
-31.992
 30
0.0
 10
3.8269
 20
-32.0444
 30
0.0
 10
3.9381
 20
-32.08
 30
0.0
 10
3.9381
 20
-32.08
 30
0.0
 10
4.05
 20
-32.1156
 30
0.0
 10
4.1671
 20
-32.1337
 30
0.0
 10
4.29
 20
-32.1337
 30
0.0
 10
4.29
 20
-32.1337
 30
0.0
 10
4.4161
 20
-32.1337
 30
0.0
 10
4.5383
 20
-32.1149
 30
0.0
 10
4.6554
 20
-32.0781
 30
0.0
 10
4.6554
 20
-32.0781
 30
0.0
 10
4.7724
 20
-32.0412
 30
0.0
 10
4.8811
 20
-31.9862
 30
0.0
 10
4.9807
 20
-31.9125
 30
0.0
 10
4.9807
 20
-31.9125
 30
0.0
 10
5.0809
 20
-31.8394
 30
0.0
 10
5.1683
 20
-31.7476
 30
0.0
 10
5.2433
 20
-31.6376
 30
0.0
 10
5.2433
 20
-31.6376
 30
0.0
 10
5.3177
 20
-31.5277
 30
0.0
 10
5.3759
 20
-31.3996
 30
0.0
 10
5.4179
 20
-31.2528
 30
0.0
 10
5.4179
 20
-31.2528
 30
0.0
 10
5.4593
 20
-31.1066
 30
0.0
 10
5.4806
 20
-30.9424
 30
0.0
 10
5.4813
 20
-30.76
 30
0.0
 10
5.4813
 20
-30.76
 30
0.0
 10
5.4813
 20
-30.6313
 30
0.0
 10
5.4684
 20
-30.509
 30
0.0
 10
5.4418
 20
-30.3926
 30
0.0
 10
5.4418
 20
-30.3926
 30
0.0
 10
5.416
 20
-30.2756
 30
0.0
 10
5.3778
 20
-30.1669
 30
0.0
 10
5.328
 20
-30.0667
 30
0.0
 10
5.328
 20
-30.0667
 30
0.0
 10
5.2776
 20
-29.9664
 30
0.0
 10
5.2161
 20
-29.8772
 30
0.0
 10
5.1437
 20
-29.7976
 30
0.0
 10
5.1437
 20
-29.7976
 30
0.0
 10
5.1437
 20
-29.7976
 30
0.0
 10
5.3843
 20
-29.4639
 30
0.0
 10
5.3843
 20
-29.4639
 30
0.0
 10
5.3843
 20
-29.4639
 30
0.0
 10
5.3843
 20
-29.4639
 30
0.0
 10
5.1786
 20
-29.3242
 30
0.0
 10
5.1786
 20
-29.3242
 30
0.0
 10
5.1786
 20
-29.3242
 30
0.0
 10
5.1786
 20
-29.3242
 30
0.0
 10
4.9497
 20
-29.6385
 30
0.0
 10
4.9497
 20
-29.6385
 30
0.0
 10
4.9497
 20
-29.6385
 30
0.0
 10
4.8559
 20
-29.5687
 30
0.0
 10
4.7543
 20
-29.5163
 30
0.0
 10
4.6444
 20
-29.4814
 30
0.0
 10
4.6444
 20
-29.4814
 30
0.0
 10
4.5338
 20
-29.4464
 30
0.0
 10
4.4187
 20
-29.429
 30
0.0
 10
4.2977
 20
-29.429
 30
0.0
 10
4.2977
 20
-29.429
 30
0.0
 10
4.1251
 20
-29.4296
 30
0.0
 10
3.966
 20
-29.462
 30
0.0
 10
3.8191
 20
-29.526
 30
0.0
 10
3.8191
 20
-29.526
 30
0.0
 10
3.673
 20
-29.59
 30
0.0
 10
3.5456
 20
-29.6825
 30
0.0
 10
3.4369
 20
-29.8022
 30
0.0
 10
3.4369
 20
-29.8022
 30
0.0
 10
3.3276
 20
-29.9218
 30
0.0
 10
3.2435
 20
-30.0654
 30
0.0
 10
3.1827
 20
-30.2329
 30
0.0
 10
3.1827
 20
-30.2329
 30
0.0
 10
3.1226
 20
-30.4004
 30
0.0
 10
3.0915
 20
-30.5873
 30
0.0
 10
3.0909
 20
-30.7949
 30
0.0
 10
3.0909
 20
-30.7949
 30
0.0
 10
3.0909
 20
-30.9256
 30
0.0
 10
3.1051
 20
-31.0504
 30
0.0
 10
3.1323
 20
-31.1681
 30
0.0
 10
3.1323
 20
-31.1681
 30
0.0
 10
3.1595
 20
-31.2858
 30
0.0
 10
3.1989
 20
-31.3951
 30
0.0
 10
3.25
 20
-31.4953
 30
0.0
 10
3.25
 20
-31.4953
 30
0.0
 10
3.3017
 20
-31.5956
 30
0.0
 10
3.3638
 20
-31.6855
 30
0.0
 10
3.4363
 20
-31.765
 30
0.0
 10
3.4363
 20
-31.765
 30
0.0
 10
3.4363
 20
-31.765
 30
0.0
 10
3.1957
 20
-32.1026
 30
0.0
 10
3.1957
 20
-32.1026
 30
0.0
 10
3.1957
 20
-32.1026
 30
0.0
 10
3.1957
 20
-32.1026
 30
0.0
 10
3.3858
 20
-32.2579
 30
0.0
 10
3.3858
 20
-32.2579
 30
0.0
  0
SPLINE
  5
9D
330
1F
100
AcDbEntity
  8
DEFAULT_1
 62
   250
100
AcDbSpline
210
0.0
220
0.0
230
1.0
 70
    11
 71
     3
 72
    52
 73
    48
 74
     0
 42
0.0000000001
 43
0.0000000001
 40
0.0
 40
0.0
 40
0.0
 40
0.0
 40
0.0769230769230769
 40
0.0769230769230769
 40
0.0769230769230769
 40
0.0769230769230769
 40
0.1538461538461539
 40
0.1538461538461539
 40
0.1538461538461539
 40
0.1538461538461539
 40
0.2307692307692308
 40
0.2307692307692308
 40
0.2307692307692308
 40
0.2307692307692308
 40
0.3076923076923077
 40
0.3076923076923077
 40
0.3076923076923077
 40
0.3076923076923077
 40
0.3846153846153846
 40
0.3846153846153846
 40
0.3846153846153846
 40
0.3846153846153846
 40
0.4615384615384616
 40
0.4615384615384616
 40
0.4615384615384616
 40
0.4615384615384616
 40
0.5384615384615384
 40
0.5384615384615384
 40
0.5384615384615384
 40
0.5384615384615384
 40
0.6153846153846154
 40
0.6153846153846154
 40
0.6153846153846154
 40
0.6153846153846154
 40
0.6923076923076923
 40
0.6923076923076923
 40
0.6923076923076923
 40
0.6923076923076923
 40
0.7692307692307693
 40
0.7692307692307693
 40
0.7692307692307693
 40
0.7692307692307693
 40
0.8461538461538461
 40
0.8461538461538461
 40
0.8461538461538461
 40
0.8461538461538461
 40
1.0
 40
1.0
 40
1.0
 40
1.0
 10
3.6342
 20
-31.4779
 30
0.0
 10
3.6342
 20
-31.4779
 30
0.0
 10
3.6264
 20
-31.4818
 30
0.0
 10
3.6264
 20
-31.4818
 30
0.0
 10
3.6264
 20
-31.4818
 30
0.0
 10
3.5876
 20
-31.4151
 30
0.0
 10
3.554
 20
-31.3459
 30
0.0
 10
3.5255
 20
-31.2748
 30
0.0
 10
3.5255
 20
-31.2748
 30
0.0
 10
3.4971
 20
-31.203
 30
0.0
 10
3.4751
 20
-31.1273
 30
0.0
 10
3.4595
 20
-31.0459
 30
0.0
 10
3.4595
 20
-31.0459
 30
0.0
 10
3.444
 20
-30.965
 30
0.0
 10
3.4363
 20
-30.8758
 30
0.0
 10
3.4363
 20
-30.7794
 30
0.0
 10
3.4363
 20
-30.7794
 30
0.0
 10
3.4363
 20
-30.6681
 30
0.0
 10
3.4479
 20
-30.5608
 30
0.0
 10
3.4705
 20
-30.4554
 30
0.0
 10
3.4705
 20
-30.4554
 30
0.0
 10
3.4938
 20
-30.3506
 30
0.0
 10
3.5281
 20
-30.2523
 30
0.0
 10
3.5734
 20
-30.1617
 30
0.0
 10
3.5734
 20
-30.1617
 30
0.0
 10
3.6193
 20
-30.0706
 30
0.0
 10
3.6762
 20
-29.9904
 30
0.0
 10
3.7448
 20
-29.9218
 30
0.0
 10
3.7448
 20
-29.9218
 30
0.0
 10
3.8133
 20
-29.8526
 30
0.0
 10
3.8929
 20
-29.7989
 30
0.0
 10
3.9834
 20
-29.7601
 30
0.0
 10
3.9834
 20
-29.7601
 30
0.0
 10
4.0746
 20
-29.7207
 30
0.0
 10
4.1768
 20
-29.7013
 30
0.0
 10
4.29
 20
-29.7006
 30
0.0
 10
4.29
 20
-29.7006
 30
0.0
 10
4.3889
 20
-29.7013
 30
0.0
 10
4.4795
 20
-29.7174
 30
0.0
 10
4.561
 20
-29.7498
 30
0.0
 10
4.561
 20
-29.7498
 30
0.0
 10
4.6431
 20
-29.7815
 30
0.0
 10
4.7168
 20
-29.8261
 30
0.0
 10
4.7828
 20
-29.883
 30
0.0
 10
4.7828
 20
-29.883
 30
0.0
 10
4.7828
 20
-29.883
 30
0.0
 10
3.6342
 20
-31.4779
 30
0.0
 10
3.6342
 20
-31.4779
 30
0.0
  0
SPLINE
  5
9E
330
1F
100
AcDbEntity
  8
DEFAULT_1
 62
   250
100
AcDbSpline
210
0.0
220
0.0
230
1.0
 70
    11
 71
     3
 72
    48
 73
    44
 74
     0
 42
0.0000000001
 43
0.0000000001
 40
0.0
 40
0.0
 40
0.0
 40
0.0
 40
0.0833333333333333
 40
0.0833333333333333
 40
0.0833333333333333
 40
0.0833333333333333
 40
0.1666666666666667
 40
0.1666666666666667
 40
0.1666666666666667
 40
0.1666666666666667
 40
0.25
 40
0.25
 40
0.25
 40
0.25
 40
0.3333333333333333
 40
0.3333333333333333
 40
0.3333333333333333
 40
0.3333333333333333
 40
0.4166666666666667
 40
0.4166666666666667
 40
0.4166666666666667
 40
0.4166666666666667
 40
0.5
 40
0.5
 40
0.5
 40
0.5
 40
0.5833333333333334
 40
0.5833333333333334
 40
0.5833333333333334
 40
0.5833333333333334
 40
0.6666666666666666
 40
0.6666666666666666
 40
0.6666666666666666
 40
0.6666666666666666
 40
0.75
 40
0.75
 40
0.75
 40
0.75
 40
0.8333333333333334
 40
0.8333333333333334
 40
0.8333333333333334
 40
0.8333333333333334
 40
1.0
 40
1.0
 40
1.0
 40
1.0
 10
4.9419
 20
-30.0887
 30
0.0
 10
4.9419
 20
-30.0887
 30
0.0
 10
4.9535
 20
-30.0887
 30
0.0
 10
4.9535
 20
-30.0887
 30
0.0
 10
4.9535
 20
-30.0887
 30
0.0
 10
5.0208
 20
-30.2012
 30
0.0
 10
5.068
 20
-30.315
 30
0.0
 10
5.0958
 20
-30.4301
 30
0.0
 10
5.0958
 20
-30.4301
 30
0.0
 10
5.1236
 20
-30.5446
 30
0.0
 10
5.1372
 20
-30.6584
 30
0.0
 10
5.1359
 20
-30.7716
 30
0.0
 10
5.1359
 20
-30.7716
 30
0.0
 10
5.1359
 20
-30.8893
 30
0.0
 10
5.1236
 20
-31.0019
 30
0.0
 10
5.0997
 20
-31.1099
 30
0.0
 10
5.0997
 20
-31.1099
 30
0.0
 10
5.0758
 20
-31.2179
 30
0.0
 10
5.0402
 20
-31.3175
 30
0.0
 10
4.9936
 20
-31.4087
 30
0.0
 10
4.9936
 20
-31.4087
 30
0.0
 10
4.9464
 20
-31.4999
 30
0.0
 10
4.8889
 20
-31.5794
 30
0.0
 10
4.8203
 20
-31.6467
 30
0.0
 10
4.8203
 20
-31.6467
 30
0.0
 10
4.7511
 20
-31.7146
 30
0.0
 10
4.6722
 20
-31.7676
 30
0.0
 10
4.583
 20
-31.8051
 30
0.0
 10
4.583
 20
-31.8051
 30
0.0
 10
4.4937
 20
-31.8426
 30
0.0
 10
4.3947
 20
-31.8614
 30
0.0
 10
4.2861
 20
-31.8621
 30
0.0
 10
4.2861
 20
-31.8621
 30
0.0
 10
4.1807
 20
-31.8621
 30
0.0
 10
4.0882
 20
-31.8459
 30
0.0
 10
4.0099
 20
-31.8142
 30
0.0
 10
4.0099
 20
-31.8142
 30
0.0
 10
3.931
 20
-31.7825
 30
0.0
 10
3.8605
 20
-31.7359
 30
0.0
 10
3.7971
 20
-31.6758
 30
0.0
 10
3.7971
 20
-31.6758
 30
0.0
 10
3.7971
 20
-31.6758
 30
0.0
 10
4.9419
 20
-30.0887
 30
0.0
 10
4.9419
 20
-30.0887
 30
0.0
  0
SPLINE
  5
9F
330
1F
100
AcDbEntity
  8
DEFAULT_1
 62
   250
100
AcDbSpline
210
0.0
220
0.0
230
1.0
 70
    11
 71
     3
 72
    48
 73
    44
 74
     0
 42
0.0000000001
 43
0.0000000001
 40
0.0
 40
0.0
 40
0.0
 40
0.0
 40
0.0833333333333333
 40
0.0833333333333333
 40
0.0833333333333333
 40
0.0833333333333333
 40
0.1666666666666667
 40
0.1666666666666667
 40
0.1666666666666667
 40
0.1666666666666667
 40
0.25
 40
0.25
 40
0.25
 40
0.25
 40
0.3333333333333333
 40
0.3333333333333333
 40
0.3333333333333333
 40
0.3333333333333333
 40
0.4166666666666667
 40
0.4166666666666667
 40
0.4166666666666667
 40
0.4166666666666667
 40
0.5
 40
0.5
 40
0.5
 40
0.5
 40
0.5833333333333334
 40
0.5833333333333334
 40
0.5833333333333334
 40
0.5833333333333334
 40
0.6666666666666666
 40
0.6666666666666666
 40
0.6666666666666666
 40
0.6666666666666666
 40
0.75
 40
0.75
 40
0.75
 40
0.75
 40
0.8333333333333334
 40
0.8333333333333334
 40
0.8333333333333334
 40
0.8333333333333334
 40
1.0
 40
1.0
 40
1.0
 40
1.0
 10
7.1771
 20
-32.091
 30
0.0
 10
7.1771
 20
-32.091
 30
0.0
 10
7.1771
 20
-31.4003
 30
0.0
 10
7.1771
 20
-31.4003
 30
0.0
 10
7.1771
 20
-31.4003
 30
0.0
 10
7.1771
 20
-31.4003
 30
0.0
 10
7.5302
 20
-31.4003
 30
0.0
 10
7.5302
 20
-31.4003
 30
0.0
 10
7.5302
 20
-31.4003
 30
0.0
 10
7.5302
 20
-31.4003
 30
0.0
 10
7.5302
 20
-31.1364
 30
0.0
 10
7.5302
 20
-31.1364
 30
0.0
 10
7.5302
 20
-31.1364
 30
0.0
 10
7.5302
 20
-31.1364
 30
0.0
 10
7.1771
 20
-31.1364
 30
0.0
 10
7.1771
 20
-31.1364
 30
0.0
 10
7.1771
 20
-31.1364
 30
0.0
 10
7.1771
 20
-31.1364
 30
0.0
 10
7.1771
 20
-29.5687
 30
0.0
 10
7.1771
 20
-29.5687
 30
0.0
 10
7.1771
 20
-29.5687
 30
0.0
 10
7.1771
 20
-29.5687
 30
0.0
 10
6.8085
 20
-29.5687
 30
0.0
 10
6.8085
 20
-29.5687
 30
0.0
 10
6.8085
 20
-29.5687
 30
0.0
 10
6.8085
 20
-29.5687
 30
0.0
 10
5.6831
 20
-31.1791
 30
0.0
 10
5.6831
 20
-31.1791
 30
0.0
 10
5.6831
 20
-31.1791
 30
0.0
 10
5.6831
 20
-31.1791
 30
0.0
 10
5.6831
 20
-31.4003
 30
0.0
 10
5.6831
 20
-31.4003
 30
0.0
 10
5.6831
 20
-31.4003
 30
0.0
 10
5.6831
 20
-31.4003
 30
0.0
 10
6.855
 20
-31.4003
 30
0.0
 10
6.855
 20
-31.4003
 30
0.0
 10
6.855
 20
-31.4003
 30
0.0
 10
6.855
 20
-31.4003
 30
0.0
 10
6.855
 20
-32.091
 30
0.0
 10
6.855
 20
-32.091
 30
0.0
 10
6.855
 20
-32.091
 30
0.0
 10
6.855
 20
-32.091
 30
0.0
 10
7.1771
 20
-32.091
 30
0.0
 10
7.1771
 20
-32.091
 30
0.0
  0
SPLINE
  5
A0
330
1F
100
AcDbEntity
  8
DEFAULT_1
 62
   250
100
AcDbSpline
210
0.0
220
0.0
230
1.0
 70
    11
 71
     3
 72
    36
 73
    32
 74
     0
 42
0.0000000001
 43
0.0000000001
 40
0.0
 40
0.0
 40
0.0
 40
0.0
 40
0.1111111111111111
 40
0.1111111111111111
 40
0.1111111111111111
 40
0.1111111111111111
 40
0.2222222222222222
 40
0.2222222222222222
 40
0.2222222222222222
 40
0.2222222222222222
 40
0.3333333333333333
 40
0.3333333333333333
 40
0.3333333333333333
 40
0.3333333333333333
 40
0.4444444444444444
 40
0.4444444444444444
 40
0.4444444444444444
 40
0.4444444444444444
 40
0.5555555555555556
 40
0.5555555555555556
 40
0.5555555555555556
 40
0.5555555555555556
 40
0.6666666666666666
 40
0.6666666666666666
 40
0.6666666666666666
 40
0.6666666666666666
 40
0.7777777777777778
 40
0.7777777777777778
 40
0.7777777777777778
 40
0.7777777777777778
 40
1.0
 40
1.0
 40
1.0
 40
1.0
 10
6.0285
 20
-31.1364
 30
0.0
 10
6.0285
 20
-31.1364
 30
0.0
 10
6.0285
 20
-31.1286
 30
0.0
 10
6.0285
 20
-31.1286
 30
0.0
 10
6.0285
 20
-31.1286
 30
0.0
 10
6.0285
 20
-31.1286
 30
0.0
 10
6.6455
 20
-30.271
 30
0.0
 10
6.6455
 20
-30.271
 30
0.0
 10
6.6455
 20
-30.271
 30
0.0
 10
6.6797
 20
-30.2135
 30
0.0
 10
6.714
 20
-30.1553
 30
0.0
 10
6.7477
 20
-30.0964
 30
0.0
 10
6.7477
 20
-30.0964
 30
0.0
 10
6.7806
 20
-30.0369
 30
0.0
 10
6.8169
 20
-29.971
 30
0.0
 10
6.855
 20
-29.8985
 30
0.0
 10
6.855
 20
-29.8985
 30
0.0
 10
6.855
 20
-29.8985
 30
0.0
 10
6.8667
 20
-29.8985
 30
0.0
 10
6.8667
 20
-29.8985
 30
0.0
 10
6.8667
 20
-29.8985
 30
0.0
 10
6.8589
 20
-30.0305
 30
0.0
 10
6.855
 20
-30.1624
 30
0.0
 10
6.855
 20
-30.2943
 30
0.0
 10
6.855
 20
-30.2943
 30
0.0
 10
6.855
 20
-30.2943
 30
0.0
 10
6.855
 20
-31.1364
 30
0.0
 10
6.855
 20
-31.1364
 30
0.0
 10
6.855
 20
-31.1364
 30
0.0
 10
6.855
 20
-31.1364
 30
0.0
 10
6.0285
 20
-31.1364
 30
0.0
 10
6.0285
 20
-31.1364
 30
0.0
  0
SPLINE
  5
A1
330
1F
100
AcDbEntity
  8
DEFAULT_1
 62
   250
100
AcDbSpline
210
0.0
220
0.0
230
1.0
 70
    11
 71
     3
 72
   132
 73
   128
 74
     0
 42
0.0000000001
 43
0.0000000001
 40
0.0
 40
0.0
 40
0.0
 40
0.0
 40
0.0303030303030303
 40
0.0303030303030303
 40
0.0303030303030303
 40
0.0303030303030303
 40
0.0606060606060606
 40
0.0606060606060606
 40
0.0606060606060606
 40
0.0606060606060606
 40
0.0909090909090909
 40
0.0909090909090909
 40
0.0909090909090909
 40
0.0909090909090909
 40
0.1212121212121212
 40
0.1212121212121212
 40
0.1212121212121212
 40
0.1212121212121212
 40
0.1515151515151515
 40
0.1515151515151515
 40
0.1515151515151515
 40
0.1515151515151515
 40
0.1818181818181818
 40
0.1818181818181818
 40
0.1818181818181818
 40
0.1818181818181818
 40
0.2121212121212121
 40
0.2121212121212121
 40
0.2121212121212121
 40
0.2121212121212121
 40
0.2424242424242424
 40
0.2424242424242424
 40
0.2424242424242424
 40
0.2424242424242424
 40
0.2727272727272727
 40
0.2727272727272727
 40
0.2727272727272727
 40
0.2727272727272727
 40
0.303030303030303
 40
0.303030303030303
 40
0.303030303030303
 40
0.303030303030303
 40
0.3333333333333333
 40
0.3333333333333333
 40
0.3333333333333333
 40
0.3333333333333333
 40
0.3636363636363636
 40
0.3636363636363636
 40
0.3636363636363636
 40
0.3636363636363636
 40
0.3939393939393939
 40
0.3939393939393939
 40
0.3939393939393939
 40
0.3939393939393939
 40
0.4242424242424243
 40
0.4242424242424243
 40
0.4242424242424243
 40
0.4242424242424243
 40
0.4545454545454545
 40
0.4545454545454545
 40
0.4545454545454545
 40
0.4545454545454545
 40
0.4848484848484849
 40
0.4848484848484849
 40
0.4848484848484849
 40
0.4848484848484849
 40
0.5151515151515151
 40
0.5151515151515151
 40
0.5151515151515151
 40
0.5151515151515151
 40
0.5454545454545454
 40
0.5454545454545454
 40
0.5454545454545454
 40
0.5454545454545454
 40
0.5757575757575758
 40
0.5757575757575758
 40
0.5757575757575758
 40
0.5757575757575758
 40
0.6060606060606061
 40
0.6060606060606061
 40
0.6060606060606061
 40
0.6060606060606061
 40
0.6363636363636364
 40
0.6363636363636364
 40
0.6363636363636364
 40
0.6363636363636364
 40
0.6666666666666666
 40
0.6666666666666666
 40
0.6666666666666666
 40
0.6666666666666666
 40
0.696969696969697
 40
0.696969696969697
 40
0.696969696969697
 40
0.696969696969697
 40
0.7272727272727273
 40
0.7272727272727273
 40
0.7272727272727273
 40
0.7272727272727273
 40
0.7575757575757576
 40
0.7575757575757576
 40
0.7575757575757576
 40
0.7575757575757576
 40
0.7878787878787878
 40
0.7878787878787878
 40
0.7878787878787878
 40
0.7878787878787878
 40
0.8181818181818182
 40
0.8181818181818182
 40
0.8181818181818182
 40
0.8181818181818182
 40
0.8484848484848485
 40
0.8484848484848485
 40
0.8484848484848485
 40
0.8484848484848485
 40
0.8787878787878788
 40
0.8787878787878788
 40
0.8787878787878788
 40
0.8787878787878788
 40
0.9090909090909091
 40
0.9090909090909091
 40
0.9090909090909091
 40
0.9090909090909091
 40
0.9393939393939394
 40
0.9393939393939394
 40
0.9393939393939394
 40
0.9393939393939394
 40
1.0
 40
1.0
 40
1.0
 40
1.0
 10
9.2959
 20
-29.5687
 30
0.0
 10
9.2959
 20
-29.5687
 30
0.0
 10
8.089
 20
-29.5687
 30
0.0
 10
8.089
 20
-29.5687
 30
0.0
 10
8.089
 20
-29.5687
 30
0.0
 10
8.089
 20
-29.5687
 30
0.0
 10
7.926
 20
-30.7794
 30
0.0
 10
7.926
 20
-30.7794
 30
0.0
 10
7.926
 20
-30.7794
 30
0.0
 10
7.9726
 20
-30.7729
 30
0.0
 10
8.0243
 20
-30.7677
 30
0.0
 10
8.0826
 20
-30.7632
 30
0.0
 10
8.0826
 20
-30.7632
 30
0.0
 10
8.1401
 20
-30.7587
 30
0.0
 10
8.2061
 20
-30.7561
 30
0.0
 10
8.2792
 20
-30.7561
 30
0.0
 10
8.2792
 20
-30.7561
 30
0.0
 10
8.446
 20
-30.7568
 30
0.0
 10
8.5825
 20
-30.7807
 30
0.0
 10
8.6886
 20
-30.8273
 30
0.0
 10
8.6886
 20
-30.8273
 30
0.0
 10
8.7953
 20
-30.8745
 30
0.0
 10
8.8742
 20
-30.9391
 30
0.0
 10
8.9253
 20
-31.0219
 30
0.0
 10
8.9253
 20
-31.0219
 30
0.0
 10
8.9764
 20
-31.1054
 30
0.0
 10
9.0016
 20
-31.2017
 30
0.0
 10
9.0009
 20
-31.311
 30
0.0
 10
9.0009
 20
-31.311
 30
0.0
 10
9.0016
 20
-31.3957
 30
0.0
 10
8.9861
 20
-31.4714
 30
0.0
 10
8.9544
 20
-31.5387
 30
0.0
 10
8.9544
 20
-31.5387
 30
0.0
 10
8.9233
 20
-31.6066
 30
0.0
 10
8.88
 20
-31.6635
 30
0.0
 10
8.825
 20
-31.7114
 30
0.0
 10
8.825
 20
-31.7114
 30
0.0
 10
8.77
 20
-31.7586
 30
0.0
 10
8.7067
 20
-31.7948
 30
0.0
 10
8.6349
 20
-31.82
 30
0.0
 10
8.6349
 20
-31.82
 30
0.0
 10
8.5631
 20
-31.8452
 30
0.0
 10
8.4874
 20
-31.8582
 30
0.0
 10
8.4072
 20
-31.8582
 30
0.0
 10
8.4072
 20
-31.8582
 30
0.0
 10
8.329
 20
-31.8575
 30
0.0
 10
8.2552
 20
-31.8504
 30
0.0
 10
8.186
 20
-31.8355
 30
0.0
 10
8.186
 20
-31.8355
 30
0.0
 10
8.1168
 20
-31.8213
 30
0.0
 10
8.0547
 20
-31.8038
 30
0.0
 10
7.9998
 20
-31.7825
 30
0.0
 10
7.9998
 20
-31.7825
 30
0.0
 10
7.9448
 20
-31.7612
 30
0.0
 10
7.8995
 20
-31.7398
 30
0.0
 10
7.864
 20
-31.7185
 30
0.0
 10
7.864
 20
-31.7185
 30
0.0
 10
7.864
 20
-31.7185
 30
0.0
 10
7.7786
 20
-31.9785
 30
0.0
 10
7.7786
 20
-31.9785
 30
0.0
 10
7.7786
 20
-31.9785
 30
0.0
 10
7.8206
 20
-32.005
 30
0.0
 10
7.873
 20
-32.0296
 30
0.0
 10
7.9357
 20
-32.0535
 30
0.0
 10
7.9357
 20
-32.0535
 30
0.0
 10
7.9985
 20
-32.0768
 30
0.0
 10
8.0696
 20
-32.0955
 30
0.0
 10
8.1492
 20
-32.1104
 30
0.0
 10
8.1492
 20
-32.1104
 30
0.0
 10
8.2294
 20
-32.1253
 30
0.0
 10
8.3154
 20
-32.133
 30
0.0
 10
8.4072
 20
-32.1337
 30
0.0
 10
8.4072
 20
-32.1337
 30
0.0
 10
8.545
 20
-32.133
 30
0.0
 10
8.6704
 20
-32.111
 30
0.0
 10
8.7849
 20
-32.0684
 30
0.0
 10
8.7849
 20
-32.0684
 30
0.0
 10
8.8994
 20
-32.0257
 30
0.0
 10
8.9984
 20
-31.9655
 30
0.0
 10
9.0818
 20
-31.8879
 30
0.0
 10
9.0818
 20
-31.8879
 30
0.0
 10
9.1659
 20
-31.8103
 30
0.0
 10
9.2305
 20
-31.7191
 30
0.0
 10
9.2765
 20
-31.615
 30
0.0
 10
9.2765
 20
-31.615
 30
0.0
 10
9.3224
 20
-31.5102
 30
0.0
 10
9.3457
 20
-31.3957
 30
0.0
 10
9.3463
 20
-31.2722
 30
0.0
 10
9.3463
 20
-31.2722
 30
0.0
 10
9.3457
 20
-31.1674
 30
0.0
 10
9.3288
 20
-31.073
 30
0.0
 10
9.2965
 20
-30.9896
 30
0.0
 10
9.2965
 20
-30.9896
 30
0.0
 10
9.2642
 20
-30.9062
 30
0.0
 10
9.2215
 20
-30.8344
 30
0.0
 10
9.1672
 20
-30.7736
 30
0.0
 10
9.1672
 20
-30.7736
 30
0.0
 10
9.1128
 20
-30.7128
 30
0.0
 10
9.052
 20
-30.6643
 30
0.0
 10
8.9854
 20
-30.6281
 30
0.0
 10
8.9854
 20
-30.6281
 30
0.0
 10
8.9072
 20
-30.5802
 30
0.0
 10
8.8224
 20
-30.5453
 30
0.0
 10
8.73
 20
-30.5239
 30
0.0
 10
8.73
 20
-30.5239
 30
0.0
 10
8.6375
 20
-30.5026
 30
0.0
 10
8.5417
 20
-30.4916
 30
0.0
 10
8.4421
 20
-30.4922
 30
0.0
 10
8.4421
 20
-30.4922
 30
0.0
 10
8.3969
 20
-30.4922
 30
0.0
 10
8.3581
 20
-30.4929
 30
0.0
 10
8.3264
 20
-30.4948
 30
0.0
 10
8.3264
 20
-30.4948
 30
0.0
 10
8.2947
 20
-30.4968
 30
0.0
 10
8.2649
 20
-30.5
 30
0.0
 10
8.2365
 20
-30.5039
 30
0.0
 10
8.2365
 20
-30.5039
 30
0.0
 10
8.2365
 20
-30.5039
 30
0.0
 10
8.3335
 20
-29.8558
 30
0.0
 10
8.3335
 20
-29.8558
 30
0.0
 10
8.3335
 20
-29.8558
 30
0.0
 10
8.3335
 20
-29.8558
 30
0.0
 10
9.2959
 20
-29.8558
 30
0.0
 10
9.2959
 20
-29.8558
 30
0.0
 10
9.2959
 20
-29.8558
 30
0.0
 10
9.2959
 20
-29.8558
 30
0.0
 10
9.2959
 20
-29.5687
 30
0.0
 10
9.2959
 20
-29.5687
 30
0.0
  0
SPLINE
  5
A2
330
1F
100
AcDbEntity
  8
DEFAULT_1
 62
   250
370
    15
100
AcDbSpline
210
0.0
220
0.0
230
1.0
 70
    24
 71
     3
 72
     8
 73
     4
 74
     0
 42
0.0000000001
 43
0.0000000001
 40
0.0
 40
0.0
 40
0.0
 40
0.0
 40
1.0
 40
1.0
 40
1.0
 40
1.0
 10
-7.6678
 20
30.2379
 30
0.0
 10
-7.6678
 20
30.2379
 30
0.0
 10
19.9281
 20
30.2379
 30
0.0
 10
19.9281
 20
30.2379
 30
0.0
  0
SPLINE
  5
A3
330
1F
100
AcDbEntity
  8
DEFAULT_1
 62
   250
370
     9
100
AcDbSpline
210
0.0
220
0.0
230
1.0
 70
    11
 71
     3
 72
    32
 73
    28
 74
     0
 42
0.0000000001
 43
0.0000000001
 40
0.0
 40
0.0
 40
0.0
 40
0.0
 40
0.125
 40
0.125
 40
0.125
 40
0.125
 40
0.25
 40
0.25
 40
0.25
 40
0.25
 40
0.375
 40
0.375
 40
0.375
 40
0.375
 40
0.5
 40
0.5
 40
0.5
 40
0.5
 40
0.625
 40
0.625
 40
0.625
 40
0.625
 40
0.75
 40
0.75
 40
0.75
 40
0.75
 40
1.0
 40
1.0
 40
1.0
 40
1.0
 10
-8.07
 20
30.6791
 30
0.0
 10
-8.07
 20
30.6791
 30
0.0
 10
-8.07
 20
30.6791
 30
0.0
 10
-8.07
 20
30.6791
 30
0.0
 10
-8.07
 20
30.6791
 30
0.0
 10
-8.07
 20
30.6791
 30
0.0
 10
-8.07
 20
30.6791
 30
0.0
 10
-8.07
 20
30.6791
 30
0.0
 10
-8.07
 20
30.6791
 30
0.0
 10
-8.07
 20
30.6791
 30
0.0
 10
-9.3428
 20
30.2357
 30
0.0
 10
-9.3428
 20
30.2357
 30
0.0
 10
-9.3428
 20
30.2357
 30
0.0
 10
-9.3428
 20
30.2357
 30
0.0
 10
-8.07
 20
29.7923
 30
0.0
 10
-8.07
 20
29.7923
 30
0.0
 10
-8.07
 20
29.7923
 30
0.0
 10
-8.07
 20
29.7923
 30
0.0
 10
-8.07
 20
29.7923
 30
0.0
 10
-8.07
 20
29.7923
 30
0.0
 10
-8.07
 20
29.7923
 30
0.0
 10
-8.07
 20
29.7923
 30
0.0
 10
-8.07
 20
29.7923
 30
0.0
 10
-8.07
 20
29.7923
 30
0.0
 10
-8.07
 20
29.7923
 30
0.0
 10
-8.07
 20
29.7923
 30
0.0
 10
-8.07
 20
30.6791
 30
0.0
 10
-8.07
 20
30.6791
 30
0.0
  0
SPLINE
  5
A4
330
1F
100
AcDbEntity
  8
DEFAULT_1
 62
   250
370
     9
100
AcDbSpline
210
0.0
220
0.0
230
1.0
 70
    11
 71
     3
 72
    32
 73
    28
 74
     0
 42
0.0000000001
 43
0.0000000001
 40
0.0
 40
0.0
 40
0.0
 40
0.0
 40
0.125
 40
0.125
 40
0.125
 40
0.125
 40
0.25
 40
0.25
 40
0.25
 40
0.25
 40
0.375
 40
0.375
 40
0.375
 40
0.375
 40
0.5
 40
0.5
 40
0.5
 40
0.5
 40
0.625
 40
0.625
 40
0.625
 40
0.625
 40
0.75
 40
0.75
 40
0.75
 40
0.75
 40
1.0
 40
1.0
 40
1.0
 40
1.0
 10
-2.0749
 20
-26.1559
 30
0.0
 10
-2.0749
 20
-26.1559
 30
0.0
 10
-2.0749
 20
-26.1559
 30
0.0
 10
-2.0749
 20
-26.1559
 30
0.0
 10
-2.0749
 20
-26.1559
 30
0.0
 10
-2.0749
 20
-26.1559
 30
0.0
 10
-2.0749
 20
-26.1559
 30
0.0
 10
-2.0749
 20
-26.1559
 30
0.0
 10
-2.0749
 20
-26.1559
 30
0.0
 10
-2.0749
 20
-26.1559
 30
0.0
 10
-3.3477
 20
-26.5993
 30
0.0
 10
-3.3477
 20
-26.5993
 30
0.0
 10
-3.3477
 20
-26.5993
 30
0.0
 10
-3.3477
 20
-26.5993
 30
0.0
 10
-2.0749
 20
-27.0427
 30
0.0
 10
-2.0749
 20
-27.0427
 30
0.0
 10
-2.0749
 20
-27.0427
 30
0.0
 10
-2.0749
 20
-27.0427
 30
0.0
 10
-2.0749
 20
-27.0427
 30
0.0
 10
-2.0749
 20
-27.0427
 30
0.0
 10
-2.0749
 20
-27.0427
 30
0.0
 10
-2.0749
 20
-27.0427
 30
0.0
 10
-2.0749
 20
-27.0427
 30
0.0
 10
-2.0749
 20
-27.0427
 30
0.0
 10
-2.0749
 20
-27.0427
 30
0.0
 10
-2.0749
 20
-27.0427
 30
0.0
 10
-2.0749
 20
-26.1559
 30
0.0
 10
-2.0749
 20
-26.1559
 30
0.0
  0
SPLINE
  5
A5
330
1F
100
AcDbEntity
  8
DEFAULT_1
 62
   250
370
     9
100
AcDbSpline
210
0.0
220
0.0
230
1.0
 70
    11
 71
     3
 72
    32
 73
    28
 74
     0
 42
0.0000000001
 43
0.0000000001
 40
0.0
 40
0.0
 40
0.0
 40
0.0
 40
0.125
 40
0.125
 40
0.125
 40
0.125
 40
0.25
 40
0.25
 40
0.25
 40
0.25
 40
0.375
 40
0.375
 40
0.375
 40
0.375
 40
0.5
 40
0.5
 40
0.5
 40
0.5
 40
0.625
 40
0.625
 40
0.625
 40
0.625
 40
0.75
 40
0.75
 40
0.75
 40
0.75
 40
1.0
 40
1.0
 40
1.0
 40
1.0
 10
-3.1328
 20
-32.2243
 30
0.0
 10
-3.1328
 20
-32.2243
 30
0.0
 10
-3.1328
 20
-32.2243
 30
0.0
 10
-3.1328
 20
-32.2243
 30
0.0
 10
-3.1328
 20
-32.2243
 30
0.0
 10
-3.1328
 20
-32.2243
 30
0.0
 10
-3.1328
 20
-32.2243
 30
0.0
 10
-3.1328
 20
-32.2243
 30
0.0
 10
-3.1328
 20
-32.2243
 30
0.0
 10
-3.1328
 20
-32.2243
 30
0.0
 10
-4.4056
 20
-32.6677
 30
0.0
 10
-4.4056
 20
-32.6677
 30
0.0
 10
-4.4056
 20
-32.6677
 30
0.0
 10
-4.4056
 20
-32.6677
 30
0.0
 10
-3.1328
 20
-33.1111
 30
0.0
 10
-3.1328
 20
-33.1111
 30
0.0
 10
-3.1328
 20
-33.1111
 30
0.0
 10
-3.1328
 20
-33.1111
 30
0.0
 10
-3.1328
 20
-33.1111
 30
0.0
 10
-3.1328
 20
-33.1111
 30
0.0
 10
-3.1328
 20
-33.1111
 30
0.0
 10
-3.1328
 20
-33.1111
 30
0.0
 10
-3.1328
 20
-33.1111
 30
0.0
 10
-3.1328
 20
-33.1111
 30
0.0
 10
-3.1328
 20
-33.1111
 30
0.0
 10
-3.1328
 20
-33.1111
 30
0.0
 10
-3.1328
 20
-32.2243
 30
0.0
 10
-3.1328
 20
-32.2243
 30
0.0
  0
SPLINE
  5
A6
330
1F
100
AcDbEntity
  8
DEFAULT_1
 62
   250
370
     9
100
AcDbSpline
210
0.0
220
0.0
230
1.0
 70
    11
 71
     3
 72
    32
 73
    28
 74
     0
 42
0.0000000001
 43
0.0000000001
 40
0.0
 40
0.0
 40
0.0
 40
0.0
 40
0.125
 40
0.125
 40
0.125
 40
0.125
 40
0.25
 40
0.25
 40
0.25
 40
0.25
 40
0.375
 40
0.375
 40
0.375
 40
0.375
 40
0.5
 40
0.5
 40
0.5
 40
0.5
 40
0.625
 40
0.625
 40
0.625
 40
0.625
 40
0.75
 40
0.75
 40
0.75
 40
0.75
 40
1.0
 40
1.0
 40
1.0
 40
1.0
 10
20.0308
 20
30.6849
 30
0.0
 10
20.0308
 20
30.6849
 30
0.0
 10
20.0308
 20
30.6849
 30
0.0
 10
20.0308
 20
30.6849
 30
0.0
 10
20.0308
 20
30.6849
 30
0.0
 10
20.0308
 20
30.6849
 30
0.0
 10
20.0308
 20
30.6849
 30
0.0
 10
20.0308
 20
30.6849
 30
0.0
 10
20.0308
 20
30.6849
 30
0.0
 10
20.0308
 20
30.6849
 30
0.0
 10
21.3036
 20
30.2415
 30
0.0
 10
21.3036
 20
30.2415
 30
0.0
 10
21.3036
 20
30.2415
 30
0.0
 10
21.3036
 20
30.2415
 30
0.0
 10
20.0308
 20
29.7981
 30
0.0
 10
20.0308
 20
29.7981
 30
0.0
 10
20.0308
 20
29.7981
 30
0.0
 10
20.0308
 20
29.7981
 30
0.0
 10
20.0308
 20
29.7981
 30
0.0
 10
20.0308
 20
29.7981
 30
0.0
 10
20.0308
 20
29.7981
 30
0.0
 10
20.0308
 20
29.7981
 30
0.0
 10
20.0308
 20
29.7981
 30
0.0
 10
20.0308
 20
29.7981
 30
0.0
 10
20.0308
 20
29.7981
 30
0.0
 10
20.0308
 20
29.7981
 30
0.0
 10
20.0308
 20
30.6849
 30
0.0
 10
20.0308
 20
30.6849
 30
0.0
  0
SPLINE
  5
A7
330
1F
100
AcDbEntity
  8
DEFAULT_1
 62
   250
370
     9
100
AcDbSpline
210
0.0
220
0.0
230
1.0
 70
    11
 71
     3
 72
    32
 73
    28
 74
     0
 42
0.0000000001
 43
0.0000000001
 40
0.0
 40
0.0
 40
0.0
 40
0.0
 40
0.125
 40
0.125
 40
0.125
 40
0.125
 40
0.25
 40
0.25
 40
0.25
 40
0.25
 40
0.375
 40
0.375
 40
0.375
 40
0.375
 40
0.5
 40
0.5
 40
0.5
 40
0.5
 40
0.625
 40
0.625
 40
0.625
 40
0.625
 40
0.75
 40
0.75
 40
0.75
 40
0.75
 40
1.0
 40
1.0
 40
1.0
 40
1.0
 10
14.2364
 20
-26.128
 30
0.0
 10
14.2364
 20
-26.128
 30
0.0
 10
14.2364
 20
-26.128
 30
0.0
 10
14.2364
 20
-26.128
 30
0.0
 10
14.2364
 20
-26.128
 30
0.0
 10
14.2364
 20
-26.128
 30
0.0
 10
14.2364
 20
-26.128
 30
0.0
 10
14.2364
 20
-26.128
 30
0.0
 10
14.2364
 20
-26.128
 30
0.0
 10
14.2364
 20
-26.128
 30
0.0
 10
15.5092
 20
-26.5714
 30
0.0
 10
15.5092
 20
-26.5714
 30
0.0
 10
15.5092
 20
-26.5714
 30
0.0
 10
15.5092
 20
-26.5714
 30
0.0
 10
14.2364
 20
-27.0148
 30
0.0
 10
14.2364
 20
-27.0148
 30
0.0
 10
14.2364
 20
-27.0148
 30
0.0
 10
14.2364
 20
-27.0148
 30
0.0
 10
14.2364
 20
-27.0148
 30
0.0
 10
14.2364
 20
-27.0148
 30
0.0
 10
14.2364
 20
-27.0148
 30
0.0
 10
14.2364
 20
-27.0148
 30
0.0
 10
14.2364
 20
-27.0148
 30
0.0
 10
14.2364
 20
-27.0148
 30
0.0
 10
14.2364
 20
-27.0148
 30
0.0
 10
14.2364
 20
-27.0148
 30
0.0
 10
14.2364
 20
-26.128
 30
0.0
 10
14.2364
 20
-26.128
 30
0.0
  0
SPLINE
  5
A8
330
1F
100
AcDbEntity
  8
DEFAULT_1
 62
   250
370
     9
100
AcDbSpline
210
0.0
220
0.0
230
1.0
 70
    11
 71
     3
 72
    32
 73
    28
 74
     0
 42
0.0000000001
 43
0.0000000001
 40
0.0
 40
0.0
 40
0.0
 40
0.0
 40
0.125
 40
0.125
 40
0.125
 40
0.125
 40
0.25
 40
0.25
 40
0.25
 40
0.25
 40
0.375
 40
0.375
 40
0.375
 40
0.375
 40
0.5
 40
0.5
 40
0.5
 40
0.5
 40
0.625
 40
0.625
 40
0.625
 40
0.625
 40
0.75
 40
0.75
 40
0.75
 40
0.75
 40
1.0
 40
1.0
 40
1.0
 40
1.0
 10
15.1629
 20
-32.1854
 30
0.0
 10
15.1629
 20
-32.1854
 30
0.0
 10
15.1629
 20
-32.1854
 30
0.0
 10
15.1629
 20
-32.1854
 30
0.0
 10
15.1629
 20
-32.1854
 30
0.0
 10
15.1629
 20
-32.1854
 30
0.0
 10
15.1629
 20
-32.1854
 30
0.0
 10
15.1629
 20
-32.1854
 30
0.0
 10
15.1629
 20
-32.1854
 30
0.0
 10
15.1629
 20
-32.1854
 30
0.0
 10
16.4357
 20
-32.6288
 30
0.0
 10
16.4357
 20
-32.6288
 30
0.0
 10
16.4357
 20
-32.6288
 30
0.0
 10
16.4357
 20
-32.6288
 30
0.0
 10
15.1629
 20
-33.0722
 30
0.0
 10
15.1629
 20
-33.0722
 30
0.0
 10
15.1629
 20
-33.0722
 30
0.0
 10
15.1629
 20
-33.0722
 30
0.0
 10
15.1629
 20
-33.0722
 30
0.0
 10
15.1629
 20
-33.0722
 30
0.0
 10
15.1629
 20
-33.0722
 30
0.0
 10
15.1629
 20
-33.0722
 30
0.0
 10
15.1629
 20
-33.0722
 30
0.0
 10
15.1629
 20
-33.0722
 30
0.0
 10
15.1629
 20
-33.0722
 30
0.0
 10
15.1629
 20
-33.0722
 30
0.0
 10
15.1629
 20
-32.1854
 30
0.0
 10
15.1629
 20
-32.1854
 30
0.0
  0
SPLINE
  5
A9
330
1F
100
AcDbEntity
  8
DEFAULT_1
 62
   250
370
     9
100
AcDbSpline
210
0.0
220
0.0
230
1.0
 70
    11
 71
     3
 72
    32
 73
    28
 74
     0
 42
0.0000000001
 43
0.0000000001
 40
0.0
 40
0.0
 40
0.0
 40
0.0
 40
0.125
 40
0.125
 40
0.125
 40
0.125
 40
0.25
 40
0.25
 40
0.25
 40
0.25
 40
0.375
 40
0.375
 40
0.375
 40
0.375
 40
0.5
 40
0.5
 40
0.5
 40
0.5
 40
0.625
 40
0.625
 40
0.625
 40
0.625
 40
0.75
 40
0.75
 40
0.75
 40
0.75
 40
1.0
 40
1.0
 40
1.0
 40
1.0
 10
-18.5828
 20
12.856
 30
0.0
 10
-18.5828
 20
12.856
 30
0.0
 10
-18.5828
 20
12.856
 30
0.0
 10
-18.5828
 20
12.856
 30
0.0
 10
-18.5828
 20
12.856
 30
0.0
 10
-18.5828
 20
12.856
 30
0.0
 10
-18.5828
 20
12.856
 30
0.0
 10
-18.5828
 20
12.856
 30
0.0
 10
-18.5828
 20
12.856
 30
0.0
 10
-18.5828
 20
12.856
 30
0.0
 10
-19.0262
 20
14.1288
 30
0.0
 10
-19.0262
 20
14.1288
 30
0.0
 10
-19.0262
 20
14.1288
 30
0.0
 10
-19.0262
 20
14.1288
 30
0.0
 10
-19.4696
 20
12.856
 30
0.0
 10
-19.4696
 20
12.856
 30
0.0
 10
-19.4696
 20
12.856
 30
0.0
 10
-19.4696
 20
12.856
 30
0.0
 10
-19.4696
 20
12.856
 30
0.0
 10
-19.4696
 20
12.856
 30
0.0
 10
-19.4696
 20
12.856
 30
0.0
 10
-19.4696
 20
12.856
 30
0.0
 10
-19.4696
 20
12.856
 30
0.0
 10
-19.4696
 20
12.856
 30
0.0
 10
-19.4696
 20
12.856
 30
0.0
 10
-19.4696
 20
12.856
 30
0.0
 10
-18.5828
 20
12.856
 30
0.0
 10
-18.5828
 20
12.856
 30
0.0
  0
SPLINE
  5
AA
330
1F
100
AcDbEntity
  8
DEFAULT_1
 62
   250
370
     9
100
AcDbSpline
210
0.0
220
0.0
230
1.0
 70
    11
 71
     3
 72
    32
 73
    28
 74
     0
 42
0.0000000001
 43
0.0000000001
 40
0.0
 40
0.0
 40
0.0
 40
0.0
 40
0.125
 40
0.125
 40
0.125
 40
0.125
 40
0.25
 40
0.25
 40
0.25
 40
0.25
 40
0.375
 40
0.375
 40
0.375
 40
0.375
 40
0.5
 40
0.5
 40
0.5
 40
0.5
 40
0.625
 40
0.625
 40
0.625
 40
0.625
 40
0.75
 40
0.75
 40
0.75
 40
0.75
 40
1.0
 40
1.0
 40
1.0
 40
1.0
 10
-8.5057
 20
-21.6112
 30
0.0
 10
-8.5057
 20
-21.6112
 30
0.0
 10
-8.5057
 20
-21.6112
 30
0.0
 10
-8.5057
 20
-21.6112
 30
0.0
 10
-8.5057
 20
-21.6112
 30
0.0
 10
-8.5057
 20
-21.6112
 30
0.0
 10
-8.5057
 20
-21.6112
 30
0.0
 10
-8.5057
 20
-21.6112
 30
0.0
 10
-8.5057
 20
-21.6112
 30
0.0
 10
-8.5057
 20
-21.6112
 30
0.0
 10
-8.9491
 20
-20.3384
 30
0.0
 10
-8.9491
 20
-20.3384
 30
0.0
 10
-8.9491
 20
-20.3384
 30
0.0
 10
-8.9491
 20
-20.3384
 30
0.0
 10
-9.3925
 20
-21.6112
 30
0.0
 10
-9.3925
 20
-21.6112
 30
0.0
 10
-9.3925
 20
-21.6112
 30
0.0
 10
-9.3925
 20
-21.6112
 30
0.0
 10
-9.3925
 20
-21.6112
 30
0.0
 10
-9.3925
 20
-21.6112
 30
0.0
 10
-9.3925
 20
-21.6112
 30
0.0
 10
-9.3925
 20
-21.6112
 30
0.0
 10
-9.3925
 20
-21.6112
 30
0.0
 10
-9.3925
 20
-21.6112
 30
0.0
 10
-9.3925
 20
-21.6112
 30
0.0
 10
-9.3925
 20
-21.6112
 30
0.0
 10
-8.5057
 20
-21.6112
 30
0.0
 10
-8.5057
 20
-21.6112
 30
0.0
  0
SPLINE
  5
AB
330
1F
100
AcDbEntity
  8
DEFAULT_1
 62
   250
370
     9
100
AcDbSpline
210
0.0
220
0.0
230
1.0
 70
    11
 71
     3
 72
    32
 73
    28
 74
     0
 42
0.0000000001
 43
0.0000000001
 40
0.0
 40
0.0
 40
0.0
 40
0.0
 40
0.125
 40
0.125
 40
0.125
 40
0.125
 40
0.25
 40
0.25
 40
0.25
 40
0.25
 40
0.375
 40
0.375
 40
0.375
 40
0.375
 40
0.5
 40
0.5
 40
0.5
 40
0.5
 40
0.625
 40
0.625
 40
0.625
 40
0.625
 40
0.75
 40
0.75
 40
0.75
 40
0.75
 40
1.0
 40
1.0
 40
1.0
 40
1.0
 10
-18.5776
 20
0.7064
 30
0.0
 10
-18.5776
 20
0.7064
 30
0.0
 10
-18.5776
 20
0.7064
 30
0.0
 10
-18.5776
 20
0.7064
 30
0.0
 10
-18.5776
 20
0.7064
 30
0.0
 10
-18.5776
 20
0.7064
 30
0.0
 10
-18.5776
 20
0.7064
 30
0.0
 10
-18.5776
 20
0.7064
 30
0.0
 10
-18.5776
 20
0.7064
 30
0.0
 10
-18.5776
 20
0.7064
 30
0.0
 10
-19.021
 20
-0.5664
 30
0.0
 10
-19.021
 20
-0.5664
 30
0.0
 10
-19.021
 20
-0.5664
 30
0.0
 10
-19.021
 20
-0.5664
 30
0.0
 10
-19.4644
 20
0.7064
 30
0.0
 10
-19.4644
 20
0.7064
 30
0.0
 10
-19.4644
 20
0.7064
 30
0.0
 10
-19.4644
 20
0.7064
 30
0.0
 10
-19.4644
 20
0.7064
 30
0.0
 10
-19.4644
 20
0.7064
 30
0.0
 10
-19.4644
 20
0.7064
 30
0.0
 10
-19.4644
 20
0.7064
 30
0.0
 10
-19.4644
 20
0.7064
 30
0.0
 10
-19.4644
 20
0.7064
 30
0.0
 10
-19.4644
 20
0.7064
 30
0.0
 10
-19.4644
 20
0.7064
 30
0.0
 10
-18.5776
 20
0.7064
 30
0.0
 10
-18.5776
 20
0.7064
 30
0.0
  0
SPLINE
  5
AC
330
1F
100
AcDbEntity
  8
DEFAULT_1
 62
   250
370
     9
100
AcDbSpline
210
0.0
220
0.0
230
1.0
 70
    11
 71
     3
 72
    32
 73
    28
 74
     0
 42
0.0000000001
 43
0.0000000001
 40
0.0
 40
0.0
 40
0.0
 40
0.0
 40
0.125
 40
0.125
 40
0.125
 40
0.125
 40
0.25
 40
0.25
 40
0.25
 40
0.25
 40
0.375
 40
0.375
 40
0.375
 40
0.375
 40
0.5
 40
0.5
 40
0.5
 40
0.5
 40
0.625
 40
0.625
 40
0.625
 40
0.625
 40
0.75
 40
0.75
 40
0.75
 40
0.75
 40
1.0
 40
1.0
 40
1.0
 40
1.0
 10
-18.5606
 20
-18.9331
 30
0.0
 10
-18.5606
 20
-18.9331
 30
0.0
 10
-18.5606
 20
-18.9331
 30
0.0
 10
-18.5606
 20
-18.9331
 30
0.0
 10
-18.5606
 20
-18.9331
 30
0.0
 10
-18.5606
 20
-18.9331
 30
0.0
 10
-18.5606
 20
-18.9331
 30
0.0
 10
-18.5606
 20
-18.9331
 30
0.0
 10
-18.5606
 20
-18.9331
 30
0.0
 10
-18.5606
 20
-18.9331
 30
0.0
 10
-19.004
 20
-20.2059
 30
0.0
 10
-19.004
 20
-20.2059
 30
0.0
 10
-19.004
 20
-20.2059
 30
0.0
 10
-19.004
 20
-20.2059
 30
0.0
 10
-19.4474
 20
-18.9331
 30
0.0
 10
-19.4474
 20
-18.9331
 30
0.0
 10
-19.4474
 20
-18.9331
 30
0.0
 10
-19.4474
 20
-18.9331
 30
0.0
 10
-19.4474
 20
-18.9331
 30
0.0
 10
-19.4474
 20
-18.9331
 30
0.0
 10
-19.4474
 20
-18.9331
 30
0.0
 10
-19.4474
 20
-18.9331
 30
0.0
 10
-19.4474
 20
-18.9331
 30
0.0
 10
-19.4474
 20
-18.9331
 30
0.0
 10
-19.4474
 20
-18.9331
 30
0.0
 10
-19.4474
 20
-18.9331
 30
0.0
 10
-18.5606
 20
-18.9331
 30
0.0
 10
-18.5606
 20
-18.9331
 30
0.0
  0
SPLINE
  5
AD
330
1F
100
AcDbEntity
  8
DEFAULT_1
 62
   250
370
     9
100
AcDbSpline
210
0.0
220
0.0
230
1.0
 70
    11
 71
     3
 72
    32
 73
    28
 74
     0
 42
0.0000000001
 43
0.0000000001
 40
0.0
 40
0.0
 40
0.0
 40
0.0
 40
0.125
 40
0.125
 40
0.125
 40
0.125
 40
0.25
 40
0.25
 40
0.25
 40
0.25
 40
0.375
 40
0.375
 40
0.375
 40
0.375
 40
0.5
 40
0.5
 40
0.5
 40
0.5
 40
0.625
 40
0.625
 40
0.625
 40
0.625
 40
0.75
 40
0.75
 40
0.75
 40
0.75
 40
1.0
 40
1.0
 40
1.0
 40
1.0
 10
-18.5821
 20
-1.9712
 30
0.0
 10
-18.5821
 20
-1.9712
 30
0.0
 10
-18.5821
 20
-1.9712
 30
0.0
 10
-18.5821
 20
-1.9712
 30
0.0
 10
-18.5821
 20
-1.9712
 30
0.0
 10
-18.5821
 20
-1.9712
 30
0.0
 10
-18.5821
 20
-1.9712
 30
0.0
 10
-18.5821
 20
-1.9712
 30
0.0
 10
-18.5821
 20
-1.9712
 30
0.0
 10
-18.5821
 20
-1.9712
 30
0.0
 10
-19.0255
 20
-0.6984
 30
0.0
 10
-19.0255
 20
-0.6984
 30
0.0
 10
-19.0255
 20
-0.6984
 30
0.0
 10
-19.0255
 20
-0.6984
 30
0.0
 10
-19.4689
 20
-1.9712
 30
0.0
 10
-19.4689
 20
-1.9712
 30
0.0
 10
-19.4689
 20
-1.9712
 30
0.0
 10
-19.4689
 20
-1.9712
 30
0.0
 10
-19.4689
 20
-1.9712
 30
0.0
 10
-19.4689
 20
-1.9712
 30
0.0
 10
-19.4689
 20
-1.9712
 30
0.0
 10
-19.4689
 20
-1.9712
 30
0.0
 10
-19.4689
 20
-1.9712
 30
0.0
 10
-19.4689
 20
-1.9712
 30
0.0
 10
-19.4689
 20
-1.9712
 30
0.0
 10
-19.4689
 20
-1.9712
 30
0.0
 10
-18.5821
 20
-1.9712
 30
0.0
 10
-18.5821
 20
-1.9712
 30
0.0
  0
SPLINE
  5
AE
330
1F
100
AcDbEntity
  8
DEFAULT_1
 62
   250
370
     9
100
AcDbSpline
210
0.0
220
0.0
230
1.0
 70
    11
 71
     3
 72
    32
 73
    28
 74
     0
 42
0.0000000001
 43
0.0000000001
 40
0.0
 40
0.0
 40
0.0
 40
0.0
 40
0.125
 40
0.125
 40
0.125
 40
0.125
 40
0.25
 40
0.25
 40
0.25
 40
0.25
 40
0.375
 40
0.375
 40
0.375
 40
0.375
 40
0.5
 40
0.5
 40
0.5
 40
0.5
 40
0.625
 40
0.625
 40
0.625
 40
0.625
 40
0.75
 40
0.75
 40
0.75
 40
0.75
 40
1.0
 40
1.0
 40
1.0
 40
1.0
 10
-8.4723
 20
-13.8338
 30
0.0
 10
-8.4723
 20
-13.8338
 30
0.0
 10
-8.4723
 20
-13.8338
 30
0.0
 10
-8.4723
 20
-13.8338
 30
0.0
 10
-8.4723
 20
-13.8338
 30
0.0
 10
-8.4723
 20
-13.8338
 30
0.0
 10
-8.4723
 20
-13.8338
 30
0.0
 10
-8.4723
 20
-13.8338
 30
0.0
 10
-8.4723
 20
-13.8338
 30
0.0
 10
-8.4723
 20
-13.8338
 30
0.0
 10
-8.9157
 20
-15.1066
 30
0.0
 10
-8.9157
 20
-15.1066
 30
0.0
 10
-8.9157
 20
-15.1066
 30
0.0
 10
-8.9157
 20
-15.1066
 30
0.0
 10
-9.3591
 20
-13.8338
 30
0.0
 10
-9.3591
 20
-13.8338
 30
0.0
 10
-9.3591
 20
-13.8338
 30
0.0
 10
-9.3591
 20
-13.8338
 30
0.0
 10
-9.3591
 20
-13.8338
 30
0.0
 10
-9.3591
 20
-13.8338
 30
0.0
 10
-9.3591
 20
-13.8338
 30
0.0
 10
-9.3591
 20
-13.8338
 30
0.0
 10
-9.3591
 20
-13.8338
 30
0.0
 10
-9.3591
 20
-13.8338
 30
0.0
 10
-9.3591
 20
-13.8338
 30
0.0
 10
-9.3591
 20
-13.8338
 30
0.0
 10
-8.4723
 20
-13.8338
 30
0.0
 10
-8.4723
 20
-13.8338
 30
0.0
  0
SPLINE
  5
AF
330
1F
100
AcDbEntity
  8
DEFAULT_1
 62
   250
370
    40
100
AcDbSpline
210
0.0
220
0.0
230
1.0
 70
    24
 71
     3
 72
     8
 73
     4
 74
     0
 42
0.0000000001
 43
0.0000000001
 40
0.0
 40
0.0
 40
0.0
 40
0.0
 40
1.0
 40
1.0
 40
1.0
 40
1.0
 10
20.4147
 20
9.4603
 30
0.0
 10
20.4147
 20
9.4603
 30
0.0
 10
20.4147
 20
12.6465
 30
0.0
 10
20.4147
 20
12.6465
 30
0.0
  0
SPLINE
  5
B0
330
1F
100
AcDbEntity
  8
DEFAULT_1
 62
   250
370
    35
100
AcDbSpline
210
0.0
220
0.0
230
1.0
 70
    24
 71
     3
 72
     8
 73
     4
 74
     0
 42
0.0000000001
 43
0.0000000001
 40
0.0
 40
0.0
 40
0.0
 40
0.0
 40
1.0
 40
1.0
 40
1.0
 40
1.0
 10
-8.4789
 20
9.2453
 30
0.0
 10
-8.4789
 20
9.2453
 30
0.0
 10
-8.4789
 20
13.0106
 30
0.0
 10
-8.4789
 20
13.0106
 30
0.0
  0
SPLINE
  5
B1
330
1F
100
AcDbEntity
  8
DEFAULT_1
 62
   250
100
AcDbSpline
210
0.0
220
0.0
230
1.0
 70
    11
 71
     3
 72
   104
 73
   100
 74
     0
 42
0.0000000001
 43
0.0000000001
 40
0.0
 40
0.0
 40
0.0
 40
0.0
 40
0.0384615384615385
 40
0.0384615384615385
 40
0.0384615384615385
 40
0.0384615384615385
 40
0.0769230769230769
 40
0.0769230769230769
 40
0.0769230769230769
 40
0.0769230769230769
 40
0.1153846153846154
 40
0.1153846153846154
 40
0.1153846153846154
 40
0.1153846153846154
 40
0.1538461538461539
 40
0.1538461538461539
 40
0.1538461538461539
 40
0.1538461538461539
 40
0.1923076923076923
 40
0.1923076923076923
 40
0.1923076923076923
 40
0.1923076923076923
 40
0.2307692307692308
 40
0.2307692307692308
 40
0.2307692307692308
 40
0.2307692307692308
 40
0.2692307692307692
 40
0.2692307692307692
 40
0.2692307692307692
 40
0.2692307692307692
 40
0.3076923076923077
 40
0.3076923076923077
 40
0.3076923076923077
 40
0.3076923076923077
 40
0.3461538461538461
 40
0.3461538461538461
 40
0.3461538461538461
 40
0.3461538461538461
 40
0.3846153846153846
 40
0.3846153846153846
 40
0.3846153846153846
 40
0.3846153846153846
 40
0.4230769230769231
 40
0.4230769230769231
 40
0.4230769230769231
 40
0.4230769230769231
 40
0.4615384615384616
 40
0.4615384615384616
 40
0.4615384615384616
 40
0.4615384615384616
 40
0.5
 40
0.5
 40
0.5
 40
0.5
 40
0.5384615384615384
 40
0.5384615384615384
 40
0.5384615384615384
 40
0.5384615384615384
 40
0.5769230769230769
 40
0.5769230769230769
 40
0.5769230769230769
 40
0.5769230769230769
 40
0.6153846153846154
 40
0.6153846153846154
 40
0.6153846153846154
 40
0.6153846153846154
 40
0.6538461538461539
 40
0.6538461538461539
 40
0.6538461538461539
 40
0.6538461538461539
 40
0.6923076923076923
 40
0.6923076923076923
 40
0.6923076923076923
 40
0.6923076923076923
 40
0.7307692307692307
 40
0.7307692307692307
 40
0.7307692307692307
 40
0.7307692307692307
 40
0.7692307692307693
 40
0.7692307692307693
 40
0.7692307692307693
 40
0.7692307692307693
 40
0.8076923076923077
 40
0.8076923076923077
 40
0.8076923076923077
 40
0.8076923076923077
 40
0.8461538461538461
 40
0.8461538461538461
 40
0.8461538461538461
 40
0.8461538461538461
 40
0.8846153846153846
 40
0.8846153846153846
 40
0.8846153846153846
 40
0.8846153846153846
 40
0.9230769230769231
 40
0.9230769230769231
 40
0.9230769230769231
 40
0.9230769230769231
 40
1.0
 40
1.0
 40
1.0
 40
1.0
 10
-16.084
 20
10.2078
 30
0.0
 10
-16.084
 20
10.2078
 30
0.0
 10
-15.8395
 20
10.5416
 30
0.0
 10
-15.8395
 20
10.5416
 30
0.0
 10
-15.8395
 20
10.5416
 30
0.0
 10
-15.7457
 20
10.4737
 30
0.0
 10
-15.6429
 20
10.4213
 30
0.0
 10
-15.5317
 20
10.3857
 30
0.0
 10
-15.5317
 20
10.3857
 30
0.0
 10
-15.4198
 20
10.3501
 30
0.0
 10
-15.3027
 20
10.332
 30
0.0
 10
-15.1798
 20
10.332
 30
0.0
 10
-15.1798
 20
10.332
 30
0.0
 10
-15.0537
 20
10.332
 30
0.0
 10
-14.9315
 20
10.3508
 30
0.0
 10
-14.8144
 20
10.3876
 30
0.0
 10
-14.8144
 20
10.3876
 30
0.0
 10
-14.6974
 20
10.4245
 30
0.0
 10
-14.5887
 20
10.4795
 30
0.0
 10
-14.4891
 20
10.5532
 30
0.0
 10
-14.4891
 20
10.5532
 30
0.0
 10
-14.3889
 20
10.6263
 30
0.0
 10
-14.3015
 20
10.7181
 30
0.0
 10
-14.2265
 20
10.8281
 30
0.0
 10
-14.2265
 20
10.8281
 30
0.0
 10
-14.1521
 20
10.938
 30
0.0
 10
-14.0939
 20
11.0661
 30
0.0
 10
-14.0519
 20
11.2129
 30
0.0
 10
-14.0519
 20
11.2129
 30
0.0
 10
-14.0105
 20
11.3591
 30
0.0
 10
-13.9892
 20
11.5233
 30
0.0
 10
-13.9885
 20
11.7057
 30
0.0
 10
-13.9885
 20
11.7057
 30
0.0
 10
-13.9885
 20
11.8344
 30
0.0
 10
-14.0014
 20
11.9567
 30
0.0
 10
-14.028
 20
12.0731
 30
0.0
 10
-14.028
 20
12.0731
 30
0.0
 10
-14.0538
 20
12.1901
 30
0.0
 10
-14.092
 20
12.2988
 30
0.0
 10
-14.1418
 20
12.399
 30
0.0
 10
-14.1418
 20
12.399
 30
0.0
 10
-14.1922
 20
12.4993
 30
0.0
 10
-14.2537
 20
12.5885
 30
0.0
 10
-14.3261
 20
12.6681
 30
0.0
 10
-14.3261
 20
12.6681
 30
0.0
 10
-14.3261
 20
12.6681
 30
0.0
 10
-14.0855
 20
13.0018
 30
0.0
 10
-14.0855
 20
13.0018
 30
0.0
 10
-14.0855
 20
13.0018
 30
0.0
 10
-14.0855
 20
13.0018
 30
0.0
 10
-14.2912
 20
13.1415
 30
0.0
 10
-14.2912
 20
13.1415
 30
0.0
 10
-14.2912
 20
13.1415
 30
0.0
 10
-14.2912
 20
13.1415
 30
0.0
 10
-14.5201
 20
12.8272
 30
0.0
 10
-14.5201
 20
12.8272
 30
0.0
 10
-14.5201
 20
12.8272
 30
0.0
 10
-14.6139
 20
12.897
 30
0.0
 10
-14.7155
 20
12.9494
 30
0.0
 10
-14.8254
 20
12.9843
 30
0.0
 10
-14.8254
 20
12.9843
 30
0.0
 10
-14.936
 20
13.0193
 30
0.0
 10
-15.0511
 20
13.0367
 30
0.0
 10
-15.1721
 20
13.0367
 30
0.0
 10
-15.1721
 20
13.0367
 30
0.0
 10
-15.3447
 20
13.0361
 30
0.0
 10
-15.5038
 20
13.0037
 30
0.0
 10
-15.6507
 20
12.9397
 30
0.0
 10
-15.6507
 20
12.9397
 30
0.0
 10
-15.7968
 20
12.8757
 30
0.0
 10
-15.9242
 20
12.7832
 30
0.0
 10
-16.0329
 20
12.6635
 30
0.0
 10
-16.0329
 20
12.6635
 30
0.0
 10
-16.1422
 20
12.5439
 30
0.0
 10
-16.2263
 20
12.4003
 30
0.0
 10
-16.2871
 20
12.2328
 30
0.0
 10
-16.2871
 20
12.2328
 30
0.0
 10
-16.3472
 20
12.0653
 30
0.0
 10
-16.3783
 20
11.8784
 30
0.0
 10
-16.3789
 20
11.6708
 30
0.0
 10
-16.3789
 20
11.6708
 30
0.0
 10
-16.3789
 20
11.5401
 30
0.0
 10
-16.3647
 20
11.4153
 30
0.0
 10
-16.3375
 20
11.2976
 30
0.0
 10
-16.3375
 20
11.2976
 30
0.0
 10
-16.3103
 20
11.1799
 30
0.0
 10
-16.2709
 20
11.0706
 30
0.0
 10
-16.2198
 20
10.9704
 30
0.0
 10
-16.2198
 20
10.9704
 30
0.0
 10
-16.1681
 20
10.8701
 30
0.0
 10
-16.106
 20
10.7802
 30
0.0
 10
-16.0335
 20
10.7007
 30
0.0
 10
-16.0335
 20
10.7007
 30
0.0
 10
-16.0335
 20
10.7007
 30
0.0
 10
-16.2741
 20
10.3631
 30
0.0
 10
-16.2741
 20
10.3631
 30
0.0
 10
-16.2741
 20
10.3631
 30
0.0
 10
-16.2741
 20
10.3631
 30
0.0
 10
-16.084
 20
10.2078
 30
0.0
 10
-16.084
 20
10.2078
 30
0.0
  0
SPLINE
  5
B2
330
1F
100
AcDbEntity
  8
DEFAULT_1
 62
   250
100
AcDbSpline
210
0.0
220
0.0
230
1.0
 70
    11
 71
     3
 72
    52
 73
    48
 74
     0
 42
0.0000000001
 43
0.0000000001
 40
0.0
 40
0.0
 40
0.0
 40
0.0
 40
0.0769230769230769
 40
0.0769230769230769
 40
0.0769230769230769
 40
0.0769230769230769
 40
0.1538461538461539
 40
0.1538461538461539
 40
0.1538461538461539
 40
0.1538461538461539
 40
0.2307692307692308
 40
0.2307692307692308
 40
0.2307692307692308
 40
0.2307692307692308
 40
0.3076923076923077
 40
0.3076923076923077
 40
0.3076923076923077
 40
0.3076923076923077
 40
0.3846153846153846
 40
0.3846153846153846
 40
0.3846153846153846
 40
0.3846153846153846
 40
0.4615384615384616
 40
0.4615384615384616
 40
0.4615384615384616
 40
0.4615384615384616
 40
0.5384615384615384
 40
0.5384615384615384
 40
0.5384615384615384
 40
0.5384615384615384
 40
0.6153846153846154
 40
0.6153846153846154
 40
0.6153846153846154
 40
0.6153846153846154
 40
0.6923076923076923
 40
0.6923076923076923
 40
0.6923076923076923
 40
0.6923076923076923
 40
0.7692307692307693
 40
0.7692307692307693
 40
0.7692307692307693
 40
0.7692307692307693
 40
0.8461538461538461
 40
0.8461538461538461
 40
0.8461538461538461
 40
0.8461538461538461
 40
1.0
 40
1.0
 40
1.0
 40
1.0
 10
-15.8356
 20
10.9878
 30
0.0
 10
-15.8356
 20
10.9878
 30
0.0
 10
-15.8434
 20
10.9839
 30
0.0
 10
-15.8434
 20
10.9839
 30
0.0
 10
-15.8434
 20
10.9839
 30
0.0
 10
-15.8822
 20
11.0506
 30
0.0
 10
-15.9158
 20
11.1198
 30
0.0
 10
-15.9443
 20
11.1909
 30
0.0
 10
-15.9443
 20
11.1909
 30
0.0
 10
-15.9727
 20
11.2627
 30
0.0
 10
-15.9947
 20
11.3384
 30
0.0
 10
-16.0103
 20
11.4198
 30
0.0
 10
-16.0103
 20
11.4198
 30
0.0
 10
-16.0258
 20
11.5007
 30
0.0
 10
-16.0335
 20
11.5899
 30
0.0
 10
-16.0335
 20
11.6863
 30
0.0
 10
-16.0335
 20
11.6863
 30
0.0
 10
-16.0335
 20
11.7976
 30
0.0
 10
-16.0219
 20
11.9049
 30
0.0
 10
-15.9993
 20
12.0103
 30
0.0
 10
-15.9993
 20
12.0103
 30
0.0
 10
-15.976
 20
12.1151
 30
0.0
 10
-15.9417
 20
12.2134
 30
0.0
 10
-15.8964
 20
12.304
 30
0.0
 10
-15.8964
 20
12.304
 30
0.0
 10
-15.8505
 20
12.3951
 30
0.0
 10
-15.7936
 20
12.4753
 30
0.0
 10
-15.725
 20
12.5439
 30
0.0
 10
-15.725
 20
12.5439
 30
0.0
 10
-15.6565
 20
12.6131
 30
0.0
 10
-15.5769
 20
12.6668
 30
0.0
 10
-15.4864
 20
12.7056
 30
0.0
 10
-15.4864
 20
12.7056
 30
0.0
 10
-15.3952
 20
12.745
 30
0.0
 10
-15.293
 20
12.7644
 30
0.0
 10
-15.1798
 20
12.7651
 30
0.0
 10
-15.1798
 20
12.7651
 30
0.0
 10
-15.0809
 20
12.7644
 30
0.0
 10
-14.9903
 20
12.7483
 30
0.0
 10
-14.9088
 20
12.7159
 30
0.0
 10
-14.9088
 20
12.7159
 30
0.0
 10
-14.8267
 20
12.6842
 30
0.0
 10
-14.753
 20
12.6396
 30
0.0
 10
-14.687
 20
12.5827
 30
0.0
 10
-14.687
 20
12.5827
 30
0.0
 10
-14.687
 20
12.5827
 30
0.0
 10
-15.8356
 20
10.9878
 30
0.0
 10
-15.8356
 20
10.9878
 30
0.0
  0
SPLINE
  5
B3
330
1F
100
AcDbEntity
  8
DEFAULT_1
 62
   250
100
AcDbSpline
210
0.0
220
0.0
230
1.0
 70
    11
 71
     3
 72
    48
 73
    44
 74
     0
 42
0.0000000001
 43
0.0000000001
 40
0.0
 40
0.0
 40
0.0
 40
0.0
 40
0.0833333333333333
 40
0.0833333333333333
 40
0.0833333333333333
 40
0.0833333333333333
 40
0.1666666666666667
 40
0.1666666666666667
 40
0.1666666666666667
 40
0.1666666666666667
 40
0.25
 40
0.25
 40
0.25
 40
0.25
 40
0.3333333333333333
 40
0.3333333333333333
 40
0.3333333333333333
 40
0.3333333333333333
 40
0.4166666666666667
 40
0.4166666666666667
 40
0.4166666666666667
 40
0.4166666666666667
 40
0.5
 40
0.5
 40
0.5
 40
0.5
 40
0.5833333333333334
 40
0.5833333333333334
 40
0.5833333333333334
 40
0.5833333333333334
 40
0.6666666666666666
 40
0.6666666666666666
 40
0.6666666666666666
 40
0.6666666666666666
 40
0.75
 40
0.75
 40
0.75
 40
0.75
 40
0.8333333333333334
 40
0.8333333333333334
 40
0.8333333333333334
 40
0.8333333333333334
 40
1.0
 40
1.0
 40
1.0
 40
1.0
 10
-14.5279
 20
12.377
 30
0.0
 10
-14.5279
 20
12.377
 30
0.0
 10
-14.5163
 20
12.377
 30
0.0
 10
-14.5163
 20
12.377
 30
0.0
 10
-14.5163
 20
12.377
 30
0.0
 10
-14.449
 20
12.2645
 30
0.0
 10
-14.4018
 20
12.1507
 30
0.0
 10
-14.374
 20
12.0356
 30
0.0
 10
-14.374
 20
12.0356
 30
0.0
 10
-14.3462
 20
11.9211
 30
0.0
 10
-14.3326
 20
11.8073
 30
0.0
 10
-14.3339
 20
11.6941
 30
0.0
 10
-14.3339
 20
11.6941
 30
0.0
 10
-14.3339
 20
11.5764
 30
0.0
 10
-14.3462
 20
11.4638
 30
0.0
 10
-14.3701
 20
11.3558
 30
0.0
 10
-14.3701
 20
11.3558
 30
0.0
 10
-14.394
 20
11.2478
 30
0.0
 10
-14.4296
 20
11.1482
 30
0.0
 10
-14.4762
 20
11.057
 30
0.0
 10
-14.4762
 20
11.057
 30
0.0
 10
-14.5234
 20
10.9658
 30
0.0
 10
-14.5809
 20
10.8863
 30
0.0
 10
-14.6495
 20
10.819
 30
0.0
 10
-14.6495
 20
10.819
 30
0.0
 10
-14.7187
 20
10.7511
 30
0.0
 10
-14.7976
 20
10.6981
 30
0.0
 10
-14.8868
 20
10.6606
 30
0.0
 10
-14.8868
 20
10.6606
 30
0.0
 10
-14.9761
 20
10.6231
 30
0.0
 10
-15.0751
 20
10.6043
 30
0.0
 10
-15.1837
 20
10.6036
 30
0.0
 10
-15.1837
 20
10.6036
 30
0.0
 10
-15.2891
 20
10.6036
 30
0.0
 10
-15.3816
 20
10.6198
 30
0.0
 10
-15.4599
 20
10.6515
 30
0.0
 10
-15.4599
 20
10.6515
 30
0.0
 10
-15.5388
 20
10.6832
 30
0.0
 10
-15.6093
 20
10.7298
 30
0.0
 10
-15.6727
 20
10.7899
 30
0.0
 10
-15.6727
 20
10.7899
 30
0.0
 10
-15.6727
 20
10.7899
 30
0.0
 10
-14.5279
 20
12.377
 30
0.0
 10
-14.5279
 20
12.377
 30
0.0
  0
SPLINE
  5
B4
330
1F
100
AcDbEntity
  8
DEFAULT_1
 62
   250
100
AcDbSpline
210
0.0
220
0.0
230
1.0
 70
    11
 71
     3
 72
   124
 73
   120
 74
     0
 42
0.0000000001
 43
0.0000000001
 40
0.0
 40
0.0
 40
0.0
 40
0.0
 40
0.032258064516129
 40
0.032258064516129
 40
0.032258064516129
 40
0.032258064516129
 40
0.0645161290322581
 40
0.0645161290322581
 40
0.0645161290322581
 40
0.0645161290322581
 40
0.0967741935483871
 40
0.0967741935483871
 40
0.0967741935483871
 40
0.0967741935483871
 40
0.1290322580645161
 40
0.1290322580645161
 40
0.1290322580645161
 40
0.1290322580645161
 40
0.1612903225806452
 40
0.1612903225806452
 40
0.1612903225806452
 40
0.1612903225806452
 40
0.1935483870967742
 40
0.1935483870967742
 40
0.1935483870967742
 40
0.1935483870967742
 40
0.2258064516129032
 40
0.2258064516129032
 40
0.2258064516129032
 40
0.2258064516129032
 40
0.2580645161290323
 40
0.2580645161290323
 40
0.2580645161290323
 40
0.2580645161290323
 40
0.2903225806451613
 40
0.2903225806451613
 40
0.2903225806451613
 40
0.2903225806451613
 40
0.3225806451612903
 40
0.3225806451612903
 40
0.3225806451612903
 40
0.3225806451612903
 40
0.3548387096774194
 40
0.3548387096774194
 40
0.3548387096774194
 40
0.3548387096774194
 40
0.3870967741935484
 40
0.3870967741935484
 40
0.3870967741935484
 40
0.3870967741935484
 40
0.4193548387096774
 40
0.4193548387096774
 40
0.4193548387096774
 40
0.4193548387096774
 40
0.4516129032258064
 40
0.4516129032258064
 40
0.4516129032258064
 40
0.4516129032258064
 40
0.4838709677419355
 40
0.4838709677419355
 40
0.4838709677419355
 40
0.4838709677419355
 40
0.5161290322580645
 40
0.5161290322580645
 40
0.5161290322580645
 40
0.5161290322580645
 40
0.5483870967741935
 40
0.5483870967741935
 40
0.5483870967741935
 40
0.5483870967741935
 40
0.5806451612903226
 40
0.5806451612903226
 40
0.5806451612903226
 40
0.5806451612903226
 40
0.6129032258064516
 40
0.6129032258064516
 40
0.6129032258064516
 40
0.6129032258064516
 40
0.6451612903225806
 40
0.6451612903225806
 40
0.6451612903225806
 40
0.6451612903225806
 40
0.6774193548387096
 40
0.6774193548387096
 40
0.6774193548387096
 40
0.6774193548387096
 40
0.7096774193548387
 40
0.7096774193548387
 40
0.7096774193548387
 40
0.7096774193548387
 40
0.7419354838709677
 40
0.7419354838709677
 40
0.7419354838709677
 40
0.7419354838709677
 40
0.7741935483870968
 40
0.7741935483870968
 40
0.7741935483870968
 40
0.7741935483870968
 40
0.8064516129032258
 40
0.8064516129032258
 40
0.8064516129032258
 40
0.8064516129032258
 40
0.8387096774193549
 40
0.8387096774193549
 40
0.8387096774193549
 40
0.8387096774193549
 40
0.8709677419354839
 40
0.8709677419354839
 40
0.8709677419354839
 40
0.8709677419354839
 40
0.9032258064516129
 40
0.9032258064516129
 40
0.9032258064516129
 40
0.9032258064516129
 40
0.9354838709677419
 40
0.9354838709677419
 40
0.9354838709677419
 40
0.9354838709677419
 40
1.0
 40
1.0
 40
1.0
 40
1.0
 10
-12.2306
 20
12.9358
 30
0.0
 10
-12.2617
 20
12.9358
 30
0.0
 10
-12.2985
 20
12.9345
 30
0.0
 10
-12.3399
 20
12.9319
 30
0.0
 10
-12.3399
 20
12.9319
 30
0.0
 10
-12.382
 20
12.9294
 30
0.0
 10
-12.4285
 20
12.9242
 30
0.0
 10
-12.479
 20
12.9164
 30
0.0
 10
-12.479
 20
12.9164
 30
0.0
 10
-12.6387
 20
12.897
 30
0.0
 10
-12.7868
 20
12.8556
 30
0.0
 10
-12.9233
 20
12.7929
 30
0.0
 10
-12.9233
 20
12.7929
 30
0.0
 10
-13.0597
 20
12.7302
 30
0.0
 10
-13.1807
 20
12.6474
 30
0.0
 10
-13.2861
 20
12.5439
 30
0.0
 10
-13.2861
 20
12.5439
 30
0.0
 10
-13.3708
 20
12.4611
 30
0.0
 10
-13.4452
 20
12.3628
 30
0.0
 10
-13.5086
 20
12.249
 30
0.0
 10
-13.5086
 20
12.249
 30
0.0
 10
-13.5726
 20
12.1358
 30
0.0
 10
-13.6224
 20
12.0084
 30
0.0
 10
-13.6586
 20
11.8674
 30
0.0
 10
-13.6586
 20
11.8674
 30
0.0
 10
-13.6942
 20
11.7264
 30
0.0
 10
-13.7123
 20
11.5725
 30
0.0
 10
-13.713
 20
11.4069
 30
0.0
 10
-13.713
 20
11.4069
 30
0.0
 10
-13.7123
 20
11.2426
 30
0.0
 10
-13.691
 20
11.0945
 30
0.0
 10
-13.6496
 20
10.9626
 30
0.0
 10
-13.6496
 20
10.9626
 30
0.0
 10
-13.6075
 20
10.83
 30
0.0
 10
-13.5474
 20
10.7175
 30
0.0
 10
-13.4691
 20
10.6237
 30
0.0
 10
-13.4691
 20
10.6237
 30
0.0
 10
-13.3915
 20
10.5299
 30
0.0
 10
-13.2977
 20
10.4575
 30
0.0
 10
-13.1891
 20
10.4077
 30
0.0
 10
-13.1891
 20
10.4077
 30
0.0
 10
-13.0804
 20
10.3579
 30
0.0
 10
-12.9589
 20
10.3327
 30
0.0
 10
-12.8243
 20
10.332
 30
0.0
 10
-12.8243
 20
10.332
 30
0.0
 10
-12.6924
 20
10.3333
 30
0.0
 10
-12.574
 20
10.3579
 30
0.0
 10
-12.4699
 20
10.4057
 30
0.0
 10
-12.4699
 20
10.4057
 30
0.0
 10
-12.3664
 20
10.4543
 30
0.0
 10
-12.2778
 20
10.5202
 30
0.0
 10
-12.2054
 20
10.6036
 30
0.0
 10
-12.2054
 20
10.6036
 30
0.0
 10
-12.133
 20
10.6871
 30
0.0
 10
-12.0773
 20
10.7822
 30
0.0
 10
-12.0398
 20
10.8889
 30
0.0
 10
-12.0398
 20
10.8889
 30
0.0
 10
-12.0017
 20
10.9949
 30
0.0
 10
-11.9823
 20
11.1068
 30
0.0
 10
-11.9823
 20
11.2245
 30
0.0
 10
-11.9823
 20
11.2245
 30
0.0
 10
-11.9829
 20
11.3474
 30
0.0
 10
-12.0017
 20
11.4587
 30
0.0
 10
-12.0385
 20
11.5583
 30
0.0
 10
-12.0385
 20
11.5583
 30
0.0
 10
-12.0754
 20
11.6579
 30
0.0
 10
-12.1278
 20
11.7439
 30
0.0
 10
-12.195
 20
11.8157
 30
0.0
 10
-12.195
 20
11.8157
 30
0.0
 10
-12.2629
 20
11.8868
 30
0.0
 10
-12.3431
 20
11.9424
 30
0.0
 10
-12.4356
 20
11.9806
 30
0.0
 10
-12.4356
 20
11.9806
 30
0.0
 10
-12.5281
 20
12.0194
 30
0.0
 10
-12.631
 20
12.0388
 30
0.0
 10
-12.7428
 20
12.0394
 30
0.0
 10
-12.7428
 20
12.0394
 30
0.0
 10
-12.836
 20
12.0388
 30
0.0
 10
-12.9213
 20
12.0252
 30
0.0
 10
-12.999
 20
11.9993
 30
0.0
 10
-12.999
 20
11.9993
 30
0.0
 10
-13.0766
 20
11.9728
 30
0.0
 10
-13.1458
 20
11.9379
 30
0.0
 10
-13.2059
 20
11.8933
 30
0.0
 10
-13.2059
 20
11.8933
 30
0.0
 10
-13.2654
 20
11.8493
 30
0.0
 10
-13.3159
 20
11.7995
 30
0.0
 10
-13.356
 20
11.7445
 30
0.0
 10
-13.356
 20
11.7445
 30
0.0
 10
-13.356
 20
11.7445
 30
0.0
 10
-13.3637
 20
11.7445
 30
0.0
 10
-13.3637
 20
11.7445
 30
0.0
 10
-13.3637
 20
11.7445
 30
0.0
 10
-13.3495
 20
11.8499
 30
0.0
 10
-13.321
 20
11.9515
 30
0.0
 10
-13.2777
 20
12.0491
 30
0.0
 10
-13.2777
 20
12.0491
 30
0.0
 10
-13.235
 20
12.1461
 30
0.0
 10
-13.1781
 20
12.2354
 30
0.0
 10
-13.1057
 20
12.3162
 30
0.0
 10
-13.1057
 20
12.3162
 30
0.0
 10
-13.0332
 20
12.3964
 30
0.0
 10
-12.9459
 20
12.465
 30
0.0
 10
-12.8431
 20
12.5206
 30
0.0
 10
-12.8431
 20
12.5206
 30
0.0
 10
-12.7403
 20
12.5762
 30
0.0
 10
-12.6212
 20
12.615
 30
0.0
 10
-12.4867
 20
12.637
 30
0.0
 10
-12.4867
 20
12.637
 30
0.0
 10
-12.4382
 20
12.6448
 30
0.0
 10
-12.3917
 20
12.6506
 30
0.0
 10
-12.3483
 20
12.6538
 30
0.0
 10
-12.3483
 20
12.6538
 30
0.0
 10
-12.305
 20
12.6577
 30
0.0
 10
-12.2655
 20
12.6584
 30
0.0
 10
-12.2306
 20
12.6564
 30
0.0
 10
-12.2306
 20
12.6564
 30
0.0
 10
-12.2306
 20
12.6564
 30
0.0
 10
-12.2306
 20
12.9358
 30
0.0
 10
-12.2306
 20
12.9358
 30
0.0
  0
SPLINE
  5
B5
330
1F
100
AcDbEntity
  8
DEFAULT_1
 62
   250
100
AcDbSpline
210
0.0
220
0.0
230
1.0
 70
    11
 71
     3
 72
    64
 73
    60
 74
     0
 42
0.0000000001
 43
0.0000000001
 40
0.0
 40
0.0
 40
0.0
 40
0.0
 40
0.0625
 40
0.0625
 40
0.0625
 40
0.0625
 40
0.125
 40
0.125
 40
0.125
 40
0.125
 40
0.1875
 40
0.1875
 40
0.1875
 40
0.1875
 40
0.25
 40
0.25
 40
0.25
 40
0.25
 40
0.3125
 40
0.3125
 40
0.3125
 40
0.3125
 40
0.375
 40
0.375
 40
0.375
 40
0.375
 40
0.4375
 40
0.4375
 40
0.4375
 40
0.4375
 40
0.5
 40
0.5
 40
0.5
 40
0.5
 40
0.5625
 40
0.5625
 40
0.5625
 40
0.5625
 40
0.625
 40
0.625
 40
0.625
 40
0.625
 40
0.6875
 40
0.6875
 40
0.6875
 40
0.6875
 40
0.75
 40
0.75
 40
0.75
 40
0.75
 40
0.8125
 40
0.8125
 40
0.8125
 40
0.8125
 40
0.875
 40
0.875
 40
0.875
 40
0.875
 40
1.0
 40
1.0
 40
1.0
 40
1.0
 10
-12.8166
 20
10.5959
 30
0.0
 10
-12.9071
 20
10.5965
 30
0.0
 10
-12.9867
 20
10.6146
 30
0.0
 10
-13.0559
 20
10.6509
 30
0.0
 10
-13.0559
 20
10.6509
 30
0.0
 10
-13.1244
 20
10.6871
 30
0.0
 10
-13.1826
 20
10.7375
 30
0.0
 10
-13.2298
 20
10.8028
 30
0.0
 10
-13.2298
 20
10.8028
 30
0.0
 10
-13.2771
 20
10.8682
 30
0.0
 10
-13.3126
 20
10.9451
 30
0.0
 10
-13.3372
 20
11.0331
 30
0.0
 10
-13.3372
 20
11.0331
 30
0.0
 10
-13.3618
 20
11.121
 30
0.0
 10
-13.3741
 20
11.2174
 30
0.0
 10
-13.3754
 20
11.3215
 30
0.0
 10
-13.3754
 20
11.3215
 30
0.0
 10
-13.3754
 20
11.3526
 30
0.0
 10
-13.3715
 20
11.3797
 30
0.0
 10
-13.365
 20
11.4043
 30
0.0
 10
-13.365
 20
11.4043
 30
0.0
 10
-13.3585
 20
11.4283
 30
0.0
 10
-13.3501
 20
11.4496
 30
0.0
 10
-13.3404
 20
11.469
 30
0.0
 10
-13.3404
 20
11.469
 30
0.0
 10
-13.3087
 20
11.5317
 30
0.0
 10
-13.268
 20
11.5861
 30
0.0
 10
-13.2169
 20
11.6326
 30
0.0
 10
-13.2169
 20
11.6326
 30
0.0
 10
-13.1665
 20
11.6785
 30
0.0
 10
-13.1095
 20
11.7148
 30
0.0
 10
-13.0462
 20
11.7406
 30
0.0
 10
-13.0462
 20
11.7406
 30
0.0
 10
-12.9828
 20
11.7659
 30
0.0
 10
-12.9168
 20
11.7794
 30
0.0
 10
-12.8476
 20
11.7794
 30
0.0
 10
-12.8476
 20
11.7794
 30
0.0
 10
-12.7422
 20
11.7788
 30
0.0
 10
-12.651
 20
11.7555
 30
0.0
 10
-12.5727
 20
11.7096
 30
0.0
 10
-12.5727
 20
11.7096
 30
0.0
 10
-12.4951
 20
11.6637
 30
0.0
 10
-12.435
 20
11.5977
 30
0.0
 10
-12.3923
 20
11.5117
 30
0.0
 10
-12.3923
 20
11.5117
 30
0.0
 10
-12.3496
 20
11.4257
 30
0.0
 10
-12.3283
 20
11.3222
 30
0.0
 10
-12.3276
 20
11.2012
 30
0.0
 10
-12.3276
 20
11.2012
 30
0.0
 10
-12.3283
 20
11.0803
 30
0.0
 10
-12.349
 20
10.9742
 30
0.0
 10
-12.3897
 20
10.8837
 30
0.0
 10
-12.3897
 20
10.8837
 30
0.0
 10
-12.4305
 20
10.7931
 30
0.0
 10
-12.4874
 20
10.7233
 30
0.0
 10
-12.5605
 20
10.6729
 30
0.0
 10
-12.5605
 20
10.6729
 30
0.0
 10
-12.6335
 20
10.6224
 30
0.0
 10
-12.7189
 20
10.5965
 30
0.0
 10
-12.8166
 20
10.5959
 30
0.0
  0
SPLINE
  5
B6
330
1F
100
AcDbEntity
  8
DEFAULT_1
 62
   250
100
AcDbSpline
210
0.0
220
0.0
230
1.0
 70
    11
 71
     3
 72
   124
 73
   120
 74
     0
 42
0.0000000001
 43
0.0000000001
 40
0.0
 40
0.0
 40
0.0
 40
0.0
 40
0.032258064516129
 40
0.032258064516129
 40
0.032258064516129
 40
0.032258064516129
 40
0.0645161290322581
 40
0.0645161290322581
 40
0.0645161290322581
 40
0.0645161290322581
 40
0.0967741935483871
 40
0.0967741935483871
 40
0.0967741935483871
 40
0.0967741935483871
 40
0.1290322580645161
 40
0.1290322580645161
 40
0.1290322580645161
 40
0.1290322580645161
 40
0.1612903225806452
 40
0.1612903225806452
 40
0.1612903225806452
 40
0.1612903225806452
 40
0.1935483870967742
 40
0.1935483870967742
 40
0.1935483870967742
 40
0.1935483870967742
 40
0.2258064516129032
 40
0.2258064516129032
 40
0.2258064516129032
 40
0.2258064516129032
 40
0.2580645161290323
 40
0.2580645161290323
 40
0.2580645161290323
 40
0.2580645161290323
 40
0.2903225806451613
 40
0.2903225806451613
 40
0.2903225806451613
 40
0.2903225806451613
 40
0.3225806451612903
 40
0.3225806451612903
 40
0.3225806451612903
 40
0.3225806451612903
 40
0.3548387096774194
 40
0.3548387096774194
 40
0.3548387096774194
 40
0.3548387096774194
 40
0.3870967741935484
 40
0.3870967741935484
 40
0.3870967741935484
 40
0.3870967741935484
 40
0.4193548387096774
 40
0.4193548387096774
 40
0.4193548387096774
 40
0.4193548387096774
 40
0.4516129032258064
 40
0.4516129032258064
 40
0.4516129032258064
 40
0.4516129032258064
 40
0.4838709677419355
 40
0.4838709677419355
 40
0.4838709677419355
 40
0.4838709677419355
 40
0.5161290322580645
 40
0.5161290322580645
 40
0.5161290322580645
 40
0.5161290322580645
 40
0.5483870967741935
 40
0.5483870967741935
 40
0.5483870967741935
 40
0.5483870967741935
 40
0.5806451612903226
 40
0.5806451612903226
 40
0.5806451612903226
 40
0.5806451612903226
 40
0.6129032258064516
 40
0.6129032258064516
 40
0.6129032258064516
 40
0.6129032258064516
 40
0.6451612903225806
 40
0.6451612903225806
 40
0.6451612903225806
 40
0.6451612903225806
 40
0.6774193548387096
 40
0.6774193548387096
 40
0.6774193548387096
 40
0.6774193548387096
 40
0.7096774193548387
 40
0.7096774193548387
 40
0.7096774193548387
 40
0.7096774193548387
 40
0.7419354838709677
 40
0.7419354838709677
 40
0.7419354838709677
 40
0.7419354838709677
 40
0.7741935483870968
 40
0.7741935483870968
 40
0.7741935483870968
 40
0.7741935483870968
 40
0.8064516129032258
 40
0.8064516129032258
 40
0.8064516129032258
 40
0.8064516129032258
 40
0.8387096774193549
 40
0.8387096774193549
 40
0.8387096774193549
 40
0.8387096774193549
 40
0.8709677419354839
 40
0.8709677419354839
 40
0.8709677419354839
 40
0.8709677419354839
 40
0.9032258064516129
 40
0.9032258064516129
 40
0.9032258064516129
 40
0.9032258064516129
 40
0.9354838709677419
 40
0.9354838709677419
 40
0.9354838709677419
 40
0.9354838709677419
 40
1.0
 40
1.0
 40
1.0
 40
1.0
 10
-10.0692
 20
10.3747
 30
0.0
 10
-10.0692
 20
10.3747
 30
0.0
 10
-10.0692
 20
10.658
 30
0.0
 10
-10.0692
 20
10.658
 30
0.0
 10
-10.0692
 20
10.658
 30
0.0
 10
-10.0692
 20
10.658
 30
0.0
 10
-11.1984
 20
10.658
 30
0.0
 10
-11.1984
 20
10.658
 30
0.0
 10
-11.1984
 20
10.658
 30
0.0
 10
-11.1984
 20
10.658
 30
0.0
 10
-11.1984
 20
10.6657
 30
0.0
 10
-11.1984
 20
10.6657
 30
0.0
 10
-11.1984
 20
10.6657
 30
0.0
 10
-11.1984
 20
10.6657
 30
0.0
 10
-11.0005
 20
10.852
 30
0.0
 10
-11.0005
 20
10.852
 30
0.0
 10
-11.0005
 20
10.852
 30
0.0
 10
-10.8673
 20
10.9794
 30
0.0
 10
-10.747
 20
11.1004
 30
0.0
 10
-10.6403
 20
11.2142
 30
0.0
 10
-10.6403
 20
11.2142
 30
0.0
 10
-10.5335
 20
11.328
 30
0.0
 10
-10.4423
 20
11.4393
 30
0.0
 10
-10.3667
 20
11.5466
 30
0.0
 10
-10.3667
 20
11.5466
 30
0.0
 10
-10.2904
 20
11.654
 30
0.0
 10
-10.2328
 20
11.762
 30
0.0
 10
-10.1921
 20
11.8706
 30
0.0
 10
-10.1921
 20
11.8706
 30
0.0
 10
-10.152
 20
11.9786
 30
0.0
 10
-10.1319
 20
12.0905
 30
0.0
 10
-10.1313
 20
12.2063
 30
0.0
 10
-10.1313
 20
12.2063
 30
0.0
 10
-10.1313
 20
12.2975
 30
0.0
 10
-10.1455
 20
12.3867
 30
0.0
 10
-10.1752
 20
12.4734
 30
0.0
 10
-10.1752
 20
12.4734
 30
0.0
 10
-10.205
 20
12.5601
 30
0.0
 10
-10.2516
 20
12.6383
 30
0.0
 10
-10.3136
 20
12.7082
 30
0.0
 10
-10.3136
 20
12.7082
 30
0.0
 10
-10.3757
 20
12.7787
 30
0.0
 10
-10.4559
 20
12.8343
 30
0.0
 10
-10.5536
 20
12.8757
 30
0.0
 10
-10.5536
 20
12.8757
 30
0.0
 10
-10.6512
 20
12.9177
 30
0.0
 10
-10.7677
 20
12.9391
 30
0.0
 10
-10.9035
 20
12.9397
 30
0.0
 10
-10.9035
 20
12.9397
 30
0.0
 10
-10.9992
 20
12.9391
 30
0.0
 10
-11.0904
 20
12.9281
 30
0.0
 10
-11.1771
 20
12.9054
 30
0.0
 10
-11.1771
 20
12.9054
 30
0.0
 10
-11.2637
 20
12.8828
 30
0.0
 10
-11.3439
 20
12.8524
 30
0.0
 10
-11.4176
 20
12.8136
 30
0.0
 10
-11.4176
 20
12.8136
 30
0.0
 10
-11.4907
 20
12.7754
 30
0.0
 10
-11.556
 20
12.7321
 30
0.0
 10
-11.6136
 20
12.6836
 30
0.0
 10
-11.6136
 20
12.6836
 30
0.0
 10
-11.6136
 20
12.6836
 30
0.0
 10
-11.505
 20
12.443
 30
0.0
 10
-11.505
 20
12.443
 30
0.0
 10
-11.505
 20
12.443
 30
0.0
 10
-11.4661
 20
12.476
 30
0.0
 10
-11.4196
 20
12.509
 30
0.0
 10
-11.3653
 20
12.5413
 30
0.0
 10
-11.3653
 20
12.5413
 30
0.0
 10
-11.3109
 20
12.5743
 30
0.0
 10
-11.2508
 20
12.6008
 30
0.0
 10
-11.1842
 20
12.6228
 30
0.0
 10
-11.1842
 20
12.6228
 30
0.0
 10
-11.1176
 20
12.6441
 30
0.0
 10
-11.0458
 20
12.6558
 30
0.0
 10
-10.9694
 20
12.6564
 30
0.0
 10
-10.9694
 20
12.6564
 30
0.0
 10
-10.8757
 20
12.6558
 30
0.0
 10
-10.7968
 20
12.6422
 30
0.0
 10
-10.7327
 20
12.6157
 30
0.0
 10
-10.7327
 20
12.6157
 30
0.0
 10
-10.6694
 20
12.5885
 30
0.0
 10
-10.6183
 20
12.5523
 30
0.0
 10
-10.5801
 20
12.5064
 30
0.0
 10
-10.5801
 20
12.5064
 30
0.0
 10
-10.5419
 20
12.4598
 30
0.0
 10
-10.5141
 20
12.4074
 30
0.0
 10
-10.4973
 20
12.3486
 30
0.0
 10
-10.4973
 20
12.3486
 30
0.0
 10
-10.4805
 20
12.2897
 30
0.0
 10
-10.4721
 20
12.2283
 30
0.0
 10
-10.4727
 20
12.1636
 30
0.0
 10
-10.4727
 20
12.1636
 30
0.0
 10
-10.4727
 20
12.0692
 30
0.0
 10
-10.4915
 20
11.9761
 30
0.0
 10
-10.529
 20
11.8836
 30
0.0
 10
-10.529
 20
11.8836
 30
0.0
 10
-10.5665
 20
11.7904
 30
0.0
 10
-10.6234
 20
11.6934
 30
0.0
 10
-10.7004
 20
11.5912
 30
0.0
 10
-10.7004
 20
11.5912
 30
0.0
 10
-10.7774
 20
11.4891
 30
0.0
 10
-10.875
 20
11.3772
 30
0.0
 10
-10.9934
 20
11.2556
 30
0.0
 10
-10.9934
 20
11.2556
 30
0.0
 10
-11.1111
 20
11.134
 30
0.0
 10
-11.2508
 20
10.9969
 30
0.0
 10
-11.4118
 20
10.8442
 30
0.0
 10
-11.4118
 20
10.8442
 30
0.0
 10
-11.4118
 20
10.8442
 30
0.0
 10
-11.6796
 20
10.5842
 30
0.0
 10
-11.6796
 20
10.5842
 30
0.0
 10
-11.6796
 20
10.5842
 30
0.0
 10
-11.6796
 20
10.5842
 30
0.0
 10
-11.6796
 20
10.3747
 30
0.0
 10
-11.6796
 20
10.3747
 30
0.0
 10
-11.6796
 20
10.3747
 30
0.0
 10
-11.6796
 20
10.3747
 30
0.0
 10
-10.0692
 20
10.3747
 30
0.0
 10
-10.0692
 20
10.3747
 30
0.0
  0
SPLINE
  5
B7
330
1F
100
AcDbEntity
  8
DEFAULT_1
 62
   250
370
    15
100
AcDbSpline
210
0.0
220
0.0
230
1.0
 70
    24
 71
     3
 72
     8
 73
     4
 74
     0
 42
0.0000000001
 43
0.0000000001
 40
0.0
 40
0.0
 40
0.0
 40
0.0
 40
1.0
 40
1.0
 40
1.0
 40
1.0
 10
-16.8937
 20
9.8379
 30
0.0
 10
-16.8937
 20
9.8379
 30
0.0
 10
22.3309
 20
9.8379
 30
0.0
 10
22.3309
 20
9.8379
 30
0.0
  0
SPLINE
  5
B8
330
1F
100
AcDbEntity
  8
DEFAULT_1
 62
   250
370
     9
100
AcDbSpline
210
0.0
220
0.0
230
1.0
 70
    11
 71
     3
 72
    32
 73
    28
 74
     0
 42
0.0000000001
 43
0.0000000001
 40
0.0
 40
0.0
 40
0.0
 40
0.0
 40
0.125
 40
0.125
 40
0.125
 40
0.125
 40
0.25
 40
0.25
 40
0.25
 40
0.25
 40
0.375
 40
0.375
 40
0.375
 40
0.375
 40
0.5
 40
0.5
 40
0.5
 40
0.5
 40
0.625
 40
0.625
 40
0.625
 40
0.625
 40
0.75
 40
0.75
 40
0.75
 40
0.75
 40
1.0
 40
1.0
 40
1.0
 40
1.0
 10
21.6625
 20
10.3121
 30
0.0
 10
21.6625
 20
10.3121
 30
0.0
 10
21.6625
 20
10.3121
 30
0.0
 10
21.6625
 20
10.3121
 30
0.0
 10
21.6625
 20
10.3121
 30
0.0
 10
21.6625
 20
10.3121
 30
0.0
 10
21.6625
 20
10.3121
 30
0.0
 10
21.6625
 20
10.3121
 30
0.0
 10
21.6625
 20
10.3121
 30
0.0
 10
21.6625
 20
10.3121
 30
0.0
 10
20.3897
 20
9.8687
 30
0.0
 10
20.3897
 20
9.8687
 30
0.0
 10
20.3897
 20
9.8687
 30
0.0
 10
20.3897
 20
9.8687
 30
0.0
 10
21.6625
 20
9.4253
 30
0.0
 10
21.6625
 20
9.4253
 30
0.0
 10
21.6625
 20
9.4253
 30
0.0
 10
21.6625
 20
9.4253
 30
0.0
 10
21.6625
 20
9.4253
 30
0.0
 10
21.6625
 20
9.4253
 30
0.0
 10
21.6625
 20
9.4253
 30
0.0
 10
21.6625
 20
9.4253
 30
0.0
 10
21.6625
 20
9.4253
 30
0.0
 10
21.6625
 20
9.4253
 30
0.0
 10
21.6625
 20
9.4253
 30
0.0
 10
21.6625
 20
9.4253
 30
0.0
 10
21.6625
 20
10.3121
 30
0.0
 10
21.6625
 20
10.3121
 30
0.0
  0
SPLINE
  5
B9
330
1F
100
AcDbEntity
  8
DEFAULT_1
 62
   250
370
     9
100
AcDbSpline
210
0.0
220
0.0
230
1.0
 70
    11
 71
     3
 72
    32
 73
    28
 74
     0
 42
0.0000000001
 43
0.0000000001
 40
0.0
 40
0.0
 40
0.0
 40
0.0
 40
0.125
 40
0.125
 40
0.125
 40
0.125
 40
0.25
 40
0.25
 40
0.25
 40
0.25
 40
0.375
 40
0.375
 40
0.375
 40
0.375
 40
0.5
 40
0.5
 40
0.5
 40
0.5
 40
0.625
 40
0.625
 40
0.625
 40
0.625
 40
0.75
 40
0.75
 40
0.75
 40
0.75
 40
1.0
 40
1.0
 40
1.0
 40
1.0
 10
-9.8176
 20
10.2849
 30
0.0
 10
-9.8176
 20
10.2849
 30
0.0
 10
-9.8176
 20
10.2849
 30
0.0
 10
-9.8176
 20
10.2849
 30
0.0
 10
-9.8176
 20
10.2849
 30
0.0
 10
-9.8176
 20
10.2849
 30
0.0
 10
-9.8176
 20
10.2849
 30
0.0
 10
-9.8176
 20
10.2849
 30
0.0
 10
-9.8176
 20
10.2849
 30
0.0
 10
-9.8176
 20
10.2849
 30
0.0
 10
-8.5448
 20
9.8415
 30
0.0
 10
-8.5448
 20
9.8415
 30
0.0
 10
-8.5448
 20
9.8415
 30
0.0
 10
-8.5448
 20
9.8415
 30
0.0
 10
-9.8176
 20
9.3981
 30
0.0
 10
-9.8176
 20
9.3981
 30
0.0
 10
-9.8176
 20
9.3981
 30
0.0
 10
-9.8176
 20
9.3981
 30
0.0
 10
-9.8176
 20
9.3981
 30
0.0
 10
-9.8176
 20
9.3981
 30
0.0
 10
-9.8176
 20
9.3981
 30
0.0
 10
-9.8176
 20
9.3981
 30
0.0
 10
-9.8176
 20
9.3981
 30
0.0
 10
-9.8176
 20
9.3981
 30
0.0
 10
-9.8176
 20
9.3981
 30
0.0
 10
-9.8176
 20
9.3981
 30
0.0
 10
-9.8176
 20
10.2849
 30
0.0
 10
-9.8176
 20
10.2849
 30
0.0
  0
ENDSEC
  0
SECTION
  2
OBJECTS
  0
DICTIONARY
  5
C
330
0
100
AcDbDictionary
281
     1
  3
ACAD_GROUP
350
D
  3
ACAD_LAYOUT
350
1A
  3
ACAD_MATERIAL
350
3B
  3
ACAD_MLEADERSTYLE
350
BC
  3
ACAD_MLINESTYLE
350
17
  3
ACAD_PLOTSETTINGS
350
19
  3
ACAD_PLOTSTYLENAME
350
E
  3
ACAD_VISUALSTYLE
350
2A
  3
AcDbVariableDictionary
350
BA
  0
DICTIONARY
  5
D
102
{ACAD_REACTORS
330
C
102
}
330
C
100
AcDbDictionary
281
     1
  0
DICTIONARY
  5
1A
102
{ACAD_REACTORS
330
C
102
}
330
C
100
AcDbDictionary
281
     1
  3
Layout1
350
1E
  3
Layout2
350
26
  3
Model
350
22
  0
DICTIONARY
  5
3B
102
{ACAD_REACTORS
330
C
102
}
330
C
100
AcDbDictionary
281
     1
  3
ByBlock
350
3D
  3
ByLayer
350
3C
  3
Global
350
3E
  0
DICTIONARY
  5
BC
102
{ACAD_REACTORS
330
C
102
}
330
C
100
AcDbDictionary
281
     1
  0
DICTIONARY
  5
17
102
{ACAD_REACTORS
330
C
102
}
330
C
100
AcDbDictionary
281
     1
  3
Standard
350
18
  0
DICTIONARY
  5
19
102
{ACAD_REACTORS
330
C
102
}
330
C
100
AcDbDictionary
281
     1
  0
ACDBDICTIONARYWDFLT
  5
E
102
{ACAD_REACTORS
330
C
102
}
330
C
100
AcDbDictionary
281
     1
  3
Normal
350
F
100
AcDbDictionaryWithDefault
340
F
  0
DICTIONARY
  5
2A
102
{ACAD_REACTORS
330
C
102
}
330
C
100
AcDbDictionary
281
     1
  3
2dWireframe
350
2F
  3
3D Hidden
350
31
  3
3dWireframe
350
30
  3
Basic
350
32
  3
Brighten
350
36
  3
ColorChange
350
3A
  3
Conceptual
350
34
  3
Dim
350
35
  3
Facepattern
350
39
  3
Flat
350
2B
  3
FlatWithEdges
350
2C
  3
Gouraud
350
2D
  3
GouraudWithEdges
350
2E
  3
Linepattern
350
38
  3
Realistic
350
33
  3
Thicken
350
37
  0
DICTIONARY
  5
BA
102
{ACAD_REACTORS
330
C
102
}
330
C
100
AcDbDictionary
281
     1
  3
DIMASSOC
350
BD
  3
HIDETEXT
350
BE
  0
LAYOUT
  5
1E
102
{ACAD_REACTORS
330
1A
102
}
330
1A
100
AcDbPlotSettings
  1

  2
none_device
  4

  6

 40
0.0
 41
0.0
 42
0.0
 43
0.0
 44
0.0
 45
0.0
 46
0.0
 47
0.0
 48
0.0
 49
0.0
140
0.0
141
0.0
142
1.0
143
1.0
 70
   688
 72
     0
 73
     0
 74
     5
  7

 75
    16
147
1.0
148
0.0
149
0.0
100
AcDbLayout
  1
Layout1
 70
     1
 71
     1
 10
0.0
 20
0.0
 11
12.0
 21
9.0
 12
0.0
 22
0.0
 32
0.0
 14
1.000000000000000E+20
 24
1.000000000000000E+20
 34
1.000000000000000E+20
 15
-1.000000000000000E+20
 25
-1.000000000000000E+20
 35
-1.000000000000000E+20
146
0.0
 13
0.0
 23
0.0
 33
0.0
 16
1.0
 26
0.0
 36
0.0
 17
0.0
 27
1.0
 37
0.0
 76
     0
330
1B
  0
LAYOUT
  5
26
102
{ACAD_REACTORS
330
1A
102
}
330
1A
100
AcDbPlotSettings
  1

  2
none_device
  4

  6

 40
0.0
 41
0.0
 42
0.0
 43
0.0
 44
0.0
 45
0.0
 46
0.0
 47
0.0
 48
0.0
 49
0.0
140
0.0
141
0.0
142
1.0
143
1.0
 70
   688
 72
     0
 73
     0
 74
     5
  7

 75
    16
147
1.0
148
0.0
149
0.0
100
AcDbLayout
  1
Layout2
 70
     1
 71
     2
 10
0.0
 20
0.0
 11
0.0
 21
0.0
 12
0.0
 22
0.0
 32
0.0
 14
0.0
 24
0.0
 34
0.0
 15
0.0
 25
0.0
 35
0.0
146
0.0
 13
0.0
 23
0.0
 33
0.0
 16
1.0
 26
0.0
 36
0.0
 17
0.0
 27
1.0
 37
0.0
 76
     0
330
23
  0
LAYOUT
  5
22
102
{ACAD_REACTORS
330
1A
102
}
330
1A
100
AcDbPlotSettings
  1

  2
none_device
  4

  6

 40
0.0
 41
0.0
 42
0.0
 43
0.0
 44
0.0
 45
0.0
 46
0.0
 47
0.0
 48
0.0
 49
0.0
140
0.0
141
0.0
142
1.0
143
1.0
 70
  1712
 72
     0
 73
     0
 74
     0
  7

 75
     0
147
1.0
148
0.0
149
0.0
100
AcDbLayout
  1
Model
 70
     1
 71
     0
 10
0.0
 20
0.0
 11
12.0
 21
9.0
 12
0.0
 22
0.0
 32
0.0
 14
-22.331
 24
-33.5414
 34
0.0
 15
22.3309
 25
33.5415
 35
0.0
146
0.0
 13
0.0
 23
0.0
 33
0.0
 16
1.0
 26
0.0
 36
0.0
 17
0.0
 27
1.0
 37
0.0
 76
     0
330
1F
331
29
  0
MATERIAL
  5
3D
102
{ACAD_REACTORS
330
3B
102
}
102
{ACAD_XDICTIONARY
360
E1
102
}
330
3B
100
AcDbMaterial
  1
ByBlock
  0
MATERIAL
  5
3C
102
{ACAD_REACTORS
330
3B
102
}
102
{ACAD_XDICTIONARY
360
DF
102
}
330
3B
100
AcDbMaterial
  1
ByLayer
  0
MATERIAL
  5
3E
102
{ACAD_REACTORS
330
3B
102
}
102
{ACAD_XDICTIONARY
360
E3
102
}
330
3B
100
AcDbMaterial
  1
Global
  0
MLINESTYLE
  5
18
102
{ACAD_REACTORS
330
17
102
}
330
17
100
AcDbMlineStyle
  2
Standard
 70
     0
  3

 62
   256
 51
90.0
 52
90.0
 71
     2
 49
0.5
 62
   256
  6
BYLAYER
 49
-0.5
 62
   256
  6
BYLAYER
  0
ACDBPLACEHOLDER
  5
F
102
{ACAD_REACTORS
330
E
102
}
330
E
  0
VISUALSTYLE
  5
2F
102
{ACAD_REACTORS
330
2A
102
}
102
{ACAD_XDICTIONARY
360
C7
102
}
330
2A
100
AcDbVisualStyle
  2
2dWireframe
 70
     4
 71
     0
 72
     2
 73
     0
 90
        0
 40
-0.6
 41
-30.0
 62
     5
 63
     7
 74
     1
 91
        4
 64
     7
 65
   257
 75
     1
175
     1
 42
1.0
 92
        0
 66
   257
 43
1.0
 76
     1
 77
     6
 78
     2
 67
     7
 79
     5
170
     0
171
     0
290
     0
174
     0
 93
        1
 44
0.0
173
     0
291
     0
 45
0.0
1001
ACAD
1000
AcDbSavedByObjectVersion
1070
     0
  0
VISUALSTYLE
  5
31
102
{ACAD_REACTORS
330
2A
102
}
102
{ACAD_XDICTIONARY
360
CB
102
}
330
2A
100
AcDbVisualStyle
  2
3D Hidden
 70
     6
 71
     1
 72
     2
 73
     2
 90
        0
 40
-0.6
 41
-30.0
 62
     5
 63
     7
 74
     2
 91
        2
 64
     7
 65
   257
 75
     2
175
     1
 42
40.0
 92
        0
 66
   257
 43
1.0
 76
     1
 77
     6
 78
     2
 67
     7
 79
     3
170
     0
171
     0
290
     0
174
     0
 93
        1
 44
0.0
173
     0
291
     0
 45
0.0
1001
ACAD
1000
AcDbSavedByObjectVersion
1070
     0
  0
VISUALSTYLE
  5
30
102
{ACAD_REACTORS
330
2A
102
}
102
{ACAD_XDICTIONARY
360
C9
102
}
330
2A
100
AcDbVisualStyle
  2
3dWireframe
 70
     5
 71
     0
 72
     2
 73
     0
 90
        0
 40
-0.6
 41
-30.0
 62
     5
 63
     7
 74
     1
 91
        4
 64
     7
 65
   257
 75
     1
175
     1
 42
1.0
 92
        0
 66
   257
 43
1.0
 76
     1
 77
     6
 78
     2
 67
     7
 79
     5
170
     0
171
     0
290
     0
174
     0
 93
        1
 44
0.0
173
     0
291
     0
 45
0.0
1001
ACAD
1000
AcDbSavedByObjectVersion
1070
     0
  0
VISUALSTYLE
  5
32
102
{ACAD_REACTORS
330
2A
102
}
102
{ACAD_XDICTIONARY
360
CD
102
}
330
2A
100
AcDbVisualStyle
  2
Basic
 70
     7
 71
     1
 72
     0
 73
     1
 90
        0
 40
-0.6
 41
-30.0
 62
     5
 63
     7
 74
     0
 91
        4
 64
     7
 65
   257
 75
     1
175
     1
 42
1.0
 92
        8
 66
     7
 43
1.0
 76
     1
 77
     6
 78
     2
 67
     7
 79
     5
170
     0
171
     0
290
     0
174
     0
 93
        1
 44
0.0
173
     0
291
     1
 45
0.0
1001
ACAD
1000
AcDbSavedByObjectVersion
1070
     0
  0
VISUALSTYLE
  5
36
102
{ACAD_REACTORS
330
2A
102
}
102
{ACAD_XDICTIONARY
360
D5
102
}
330
2A
100
AcDbVisualStyle
  2
Brighten
 70
    12
 71
     2
 72
     2
 73
     0
 90
        0
 40
-0.6
 41
-30.0
 62
     5
 63
     7
 74
     1
 91
        4
 64
     7
 65
   257
 75
     1
175
     1
 42
1.0
 92
        8
 66
     7
 43
1.0
 76
     1
 77
     6
 78
     2
 67
     7
 79
     5
170
     0
171
     0
290
     0
174
     0
 93
        1
 44
50.0
173
     0
291
     1
 45
0.0
1001
ACAD
1000
AcDbSavedByObjectVersion
1070
     0
  0
VISUALSTYLE
  5
3A
102
{ACAD_REACTORS
330
2A
102
}
102
{ACAD_XDICTIONARY
360
DD
102
}
330
2A
100
AcDbVisualStyle
  2
ColorChange
 70
    16
 71
     2
 72
     2
 73
     3
 90
        0
 40
-0.6
 41
-30.0
 62
     5
 63
     8
 74
     1
 91
        4
 64
     7
 65
   257
 75
     1
175
     1
 42
1.0
 92
        8
 66
     8
 43
1.0
 76
     1
 77
     6
 78
     2
 67
     7
 79
     5
170
     0
171
     0
290
     0
174
     0
 93
        1
 44
0.0
173
     0
291
     1
 45
0.0
1001
ACAD
1000
AcDbSavedByObjectVersion
1070
     0
  0
VISUALSTYLE
  5
34
102
{ACAD_REACTORS
330
2A
102
}
102
{ACAD_XDICTIONARY
360
D1
102
}
330
2A
100
AcDbVisualStyle
  2
Conceptual
 70
     9
 71
     3
 72
     2
 73
     0
 90
        0
 40
-0.6
 41
-30.0
 62
     5
 63
     7
 74
     2
 91
        2
 64
     7
 65
   257
 75
     1
175
     1
 42
40.0
 92
        8
 66
     7
 43
1.0
 76
     1
 77
     6
 78
     2
 67
     7
 79
     3
170
     0
171
     0
290
     0
174
     0
 93
        1
 44
0.0
173
     0
291
     0
 45
0.0
1001
ACAD
1000
AcDbSavedByObjectVersion
1070
     0
  0
VISUALSTYLE
  5
35
102
{ACAD_REACTORS
330
2A
102
}
102
{ACAD_XDICTIONARY
360
D3
102
}
330
2A
100
AcDbVisualStyle
  2
Dim
 70
    11
 71
     2
 72
     2
 73
     0
 90
        0
 40
-0.6
 41
-30.0
 62
     5
 63
     7
 74
     1
 91
        4
 64
     7
 65
   257
 75
     1
175
     1
 42
1.0
 92
        8
 66
     7
 43
1.0
 76
     1
 77
     6
 78
     2
 67
     7
 79
     5
170
     0
171
     0
290
     0
174
     0
 93
        1
 44
-50.0
173
     0
291
     1
 45
0.0
1001
ACAD
1000
AcDbSavedByObjectVersion
1070
     0
  0
VISUALSTYLE
  5
39
102
{ACAD_REACTORS
330
2A
102
}
102
{ACAD_XDICTIONARY
360
DB
102
}
330
2A
100
AcDbVisualStyle
  2
Facepattern
 70
    15
 71
     2
 72
     2
 73
     0
 90
        0
 40
-0.6
 41
-30.0
 62
     5
 63
     7
 74
     1
 91
        4
 64
     7
 65
   257
 75
     1
175
     1
 42
1.0
 92
        8
 66
     7
 43
1.0
 76
     1
 77
     6
 78
     2
 67
     7
 79
     5
170
     0
171
     0
290
     0
174
     0
 93
        1
 44
0.0
173
     0
291
     1
 45
0.0
1001
ACAD
1000
AcDbSavedByObjectVersion
1070
     0
  0
VISUALSTYLE
  5
2B
102
{ACAD_REACTORS
330
2A
102
}
102
{ACAD_XDICTIONARY
360
BF
102
}
330
2A
100
AcDbVisualStyle
  2
Flat
 70
     0
 71
     2
 72
     1
 73
     1
 90
        2
 40
-0.6
 41
30.0
 62
     5
 63
     7
 74
     0
 91
        4
 64
     7
 65
   257
 75
     1
175
     1
 42
1.0
 92
        8
 66
     7
 43
1.0
 76
     1
 77
     6
 78
     2
 67
     7
 79
     5
170
     0
171
     0
290
     0
174
     0
 93
       13
 44
0.0
173
     0
291
     1
 45
0.0
1001
ACAD
1000
AcDbSavedByObjectVersion
1070
     0
  0
VISUALSTYLE
  5
2C
102
{ACAD_REACTORS
330
2A
102
}
102
{ACAD_XDICTIONARY
360
C1
102
}
330
2A
100
AcDbVisualStyle
  2
FlatWithEdges
 70
     1
 71
     2
 72
     1
 73
     1
 90
        2
 40
-0.6
 41
30.0
 62
     5
 63
     7
 74
     1
 91
        4
 64
     7
 65
   257
 75
     1
175
     1
 42
1.0
 92
        0
 66
   257
 43
1.0
 76
     1
 77
     6
 78
     2
 67
     7
 79
     5
170
     0
171
     0
290
     0
174
     0
 93
       13
 44
0.0
173
     0
291
     1
 45
0.0
1001
ACAD
1000
AcDbSavedByObjectVersion
1070
     0
  0
VISUALSTYLE
  5
2D
102
{ACAD_REACTORS
330
2A
102
}
102
{ACAD_XDICTIONARY
360
C3
102
}
330
2A
100
AcDbVisualStyle
  2
Gouraud
 70
     2
 71
     2
 72
     2
 73
     1
 90
        2
 40
-0.6
 41
30.0
 62
     5
 63
     7
 74
     0
 91
        4
 64
     7
 65
   257
 75
     1
175
     1
 42
1.0
 92
        0
 66
     7
 43
1.0
 76
     1
 77
     6
 78
     2
 67
     7
 79
     5
170
     0
171
     0
290
     0
174
     0
 93
       13
 44
0.0
173
     0
291
     1
 45
0.0
1001
ACAD
1000
AcDbSavedByObjectVersion
1070
     0
  0
VISUALSTYLE
  5
2E
102
{ACAD_REACTORS
330
2A
102
}
102
{ACAD_XDICTIONARY
360
C5
102
}
330
2A
100
AcDbVisualStyle
  2
GouraudWithEdges
 70
     3
 71
     2
 72
     2
 73
     1
 90
        2
 40
-0.6
 41
30.0
 62
     5
 63
     7
 74
     1
 91
        4
 64
     7
 65
   257
 75
     1
175
     1
 42
1.0
 92
        0
 66
   257
 43
1.0
 76
     1
 77
     6
 78
     2
 67
     7
 79
     5
170
     0
171
     0
290
     0
174
     0
 93
       13
 44
0.0
173
     0
291
     1
 45
0.0
1001
ACAD
1000
AcDbSavedByObjectVersion
1070
     0
  0
VISUALSTYLE
  5
38
102
{ACAD_REACTORS
330
2A
102
}
102
{ACAD_XDICTIONARY
360
D9
102
}
330
2A
100
AcDbVisualStyle
  2
Linepattern
 70
    14
 71
     2
 72
     2
 73
     0
 90
        0
 40
-0.6
 41
-30.0
 62
     5
 63
     7
 74
     1
 91
        4
 64
     7
 65
   257
 75
     7
175
     7
 42
1.0
 92
        8
 66
     7
 43
1.0
 76
     1
 77
     6
 78
     2
 67
     7
 79
     5
170
     0
171
     0
290
     0
174
     0
 93
        1
 44
0.0
173
     0
291
     1
 45
0.0
1001
ACAD
1000
AcDbSavedByObjectVersion
1070
     0
  0
VISUALSTYLE
  5
33
102
{ACAD_REACTORS
330
2A
102
}
102
{ACAD_XDICTIONARY
360
CF
102
}
330
2A
100
AcDbVisualStyle
  2
Realistic
 70
     8
 71
     2
 72
     2
 73
     0
 90
        0
 40
-0.6
 41
-30.0
 62
     5
 63
     7
 74
     1
 91
        0
 64
     7
 65
   257
 75
     1
175
     1
 42
1.0
 92
        8
 66
     8
 43
1.0
 76
     1
 77
     6
 78
     2
 67
     7
 79
     5
170
     0
171
     0
290
     0
174
     0
 93
       13
 44
0.0
173
     0
291
     0
 45
0.0
1001
ACAD
1000
AcDbSavedByObjectVersion
1070
     0
  0
VISUALSTYLE
  5
37
102
{ACAD_REACTORS
330
2A
102
}
102
{ACAD_XDICTIONARY
360
D7
102
}
330
2A
100
AcDbVisualStyle
  2
Thicken
 70
    13
 71
     2
 72
     2
 73
     0
 90
        0
 40
-0.6
 41
-30.0
 62
     5
 63
     7
 74
     1
 91
        4
 64
     7
 65
   257
 75
     1
175
     1
 42
1.0
 92
       12
 66
     7
 43
1.0
 76
     1
 77
     6
 78
     2
 67
     7
 79
     5
170
     0
171
     0
290
     0
174
     0
 93
        1
 44
0.0
173
     0
291
     1
 45
0.0
1001
ACAD
1000
AcDbSavedByObjectVersion
1070
     0
  0
DICTIONARYVAR
  5
BD
102
{ACAD_REACTORS
330
BA
102
}
330
BA
100
DictionaryVariables
280
     0
  1
2
  0
DICTIONARYVAR
  5
BE
102
{ACAD_REACTORS
330
BA
102
}
330
BA
100
DictionaryVariables
280
     0
  1
1
  0
DICTIONARY
  5
E1
330
3D
100
AcDbDictionary
280
     1
281
     1
  3
ACAD_XREC_ROUNDTRIP
360
E2
  0
DICTIONARY
  5
DF
330
3C
100
AcDbDictionary
280
     1
281
     1
  3
ACAD_XREC_ROUNDTRIP
360
E0
  0
DICTIONARY
  5
E3
330
3E
100
AcDbDictionary
280
     1
281
     1
  3
ACAD_XREC_ROUNDTRIP
360
E4
  0
DICTIONARY
  5
C7
330
2F
100
AcDbDictionary
280
     1
281
     1
  3
ACAD_XREC_ROUNDTRIP
360
C8
  0
DICTIONARY
  5
CB
330
31
100
AcDbDictionary
280
     1
281
     1
  3
ACAD_XREC_ROUNDTRIP
360
CC
  0
DICTIONARY
  5
C9
330
30
100
AcDbDictionary
280
     1
281
     1
  3
ACAD_XREC_ROUNDTRIP
360
CA
  0
DICTIONARY
  5
CD
330
32
100
AcDbDictionary
280
     1
281
     1
  3
ACAD_XREC_ROUNDTRIP
360
CE
  0
DICTIONARY
  5
D5
330
36
100
AcDbDictionary
280
     1
281
     1
  3
ACAD_XREC_ROUNDTRIP
360
D6
  0
DICTIONARY
  5
DD
330
3A
100
AcDbDictionary
280
     1
281
     1
  3
ACAD_XREC_ROUNDTRIP
360
DE
  0
DICTIONARY
  5
D1
330
34
100
AcDbDictionary
280
     1
281
     1
  3
ACAD_XREC_ROUNDTRIP
360
D2
  0
DICTIONARY
  5
D3
330
35
100
AcDbDictionary
280
     1
281
     1
  3
ACAD_XREC_ROUNDTRIP
360
D4
  0
DICTIONARY
  5
DB
330
39
100
AcDbDictionary
280
     1
281
     1
  3
ACAD_XREC_ROUNDTRIP
360
DC
  0
DICTIONARY
  5
BF
330
2B
100
AcDbDictionary
280
     1
281
     1
  3
ACAD_XREC_ROUNDTRIP
360
C0
  0
DICTIONARY
  5
C1
330
2C
100
AcDbDictionary
280
     1
281
     1
  3
ACAD_XREC_ROUNDTRIP
360
C2
  0
DICTIONARY
  5
C3
330
2D
100
AcDbDictionary
280
     1
281
     1
  3
ACAD_XREC_ROUNDTRIP
360
C4
  0
DICTIONARY
  5
C5
330
2E
100
AcDbDictionary
280
     1
281
     1
  3
ACAD_XREC_ROUNDTRIP
360
C6
  0
DICTIONARY
  5
D9
330
38
100
AcDbDictionary
280
     1
281
     1
  3
ACAD_XREC_ROUNDTRIP
360
DA
  0
DICTIONARY
  5
CF
330
33
100
AcDbDictionary
280
     1
281
     1
  3
ACAD_XREC_ROUNDTRIP
360
D0
  0
DICTIONARY
  5
D7
330
37
100
AcDbDictionary
280
     1
281
     1
  3
ACAD_XREC_ROUNDTRIP
360
D8
  0
XRECORD
  5
E2
102
{ACAD_REACTORS
330
E1
102
}
330
E1
100
AcDbXrecord
280
     1
102
MATERIAL
148
0.0
149
0.0
149
0.0
 93
        0
 94
      127
282
     0
 72
     1
 77
     1
171
     1
175
     1
179
     1
273
     0
  0
XRECORD
  5
E0
102
{ACAD_REACTORS
330
DF
102
}
330
DF
100
AcDbXrecord
280
     1
102
MATERIAL
148
0.0
149
0.0
149
0.0
 93
        0
 94
      127
282
     0
 72
     1
 77
     1
171
     1
175
     1
179
     1
273
     0
  0
XRECORD
  5
E4
102
{ACAD_REACTORS
330
E3
102
}
330
E3
100
AcDbXrecord
280
     1
102
MATERIAL
148
0.0
149
0.0
149
0.0
 93
        0
 94
      127
282
     0
 72
     1
 77
     1
171
     1
175
     1
179
     1
273
     0
  0
XRECORD
  5
C8
102
{ACAD_REACTORS
330
C7
102
}
330
C7
100
AcDbXrecord
280
     1
102
RTVSPropertyOp0
 70
     1
102
RTVSPropertyOp1
 70
     1
102
RTVSPropertyOp2
 70
     1
102
RTVSPropertyOp3
 70
     1
102
RTVSPropertyOp4
 70
     1
102
RTVSPropertyOp5
 70
     1
102
RTVSPropertyOp6
 70
     1
102
RTVSPropertyOp7
 70
     1
102
RTVSPropertyOp8
 70
     1
102
RTVSPropertyOp9
 70
     1
102
RTVSPropertyOp10
 70
     1
102
RTVSPropertyOp11
 70
     1
102
RTVSPropertyOp12
 70
     1
102
RTVSPropertyOp13
 70
     1
102
RTVSPropertyOp14
 70
     1
102
RTVSPropertyOp15
 70
     1
102
RTVSPropertyOp16
 70
     1
102
RTVSPropertyOp17
 70
     1
102
RTVSPropertyOp18
 70
     1
102
RTVSPropertyOp19
 70
     1
102
RTVSPropertyOp20
 70
     1
102
RTVSPropertyOp21
 70
     1
102
RTVSPropertyOp22
 70
     1
102
RTVSPropertyOp23
 70
     1
102
RTVSPropertyOp24
 70
     1
102
RTVSPropertyOp25
 70
     1
102
RTVSPropertyOp26
 70
     1
102
RTVSPropertyOp27
 70
     1
  0
XRECORD
  5
CC
102
{ACAD_REACTORS
330
CB
102
}
330
CB
100
AcDbXrecord
280
     1
102
RTVSPropertyOp0
 70
     1
102
RTVSPropertyOp1
 70
     1
102
RTVSPropertyOp2
 70
     1
102
RTVSPropertyOp3
 70
     1
102
RTVSPropertyOp4
 70
     1
102
RTVSPropertyOp5
 70
     1
102
RTVSPropertyOp6
 70
     1
102
RTVSPropertyOp7
 70
     1
102
RTVSPropertyOp8
 70
     1
102
RTVSPropertyOp9
 70
     1
102
RTVSPropertyOp10
 70
     1
102
RTVSPropertyOp11
 70
     1
102
RTVSPropertyOp12
 70
     1
102
RTVSPropertyOp13
 70
     1
102
RTVSPropertyOp14
 70
     1
102
RTVSPropertyOp15
 70
     1
102
RTVSPropertyOp16
 70
     1
102
RTVSPropertyOp17
 70
     1
102
RTVSPropertyOp18
 70
     1
102
RTVSPropertyOp19
 70
     1
102
RTVSPropertyOp20
 70
     1
102
RTVSPropertyOp21
 70
     1
102
RTVSPropertyOp22
 70
     1
102
RTVSPropertyOp23
 70
     1
102
RTVSPropertyOp24
 70
     1
102
RTVSPropertyOp25
 70
     1
102
RTVSPropertyOp26
 70
     1
102
RTVSPropertyOp27
 70
     1
  0
XRECORD
  5
CA
102
{ACAD_REACTORS
330
C9
102
}
330
C9
100
AcDbXrecord
280
     1
102
RTVSPropertyOp0
 70
     1
102
RTVSPropertyOp1
 70
     1
102
RTVSPropertyOp2
 70
     1
102
RTVSPropertyOp3
 70
     1
102
RTVSPropertyOp4
 70
     1
102
RTVSPropertyOp5
 70
     1
102
RTVSPropertyOp6
 70
     1
102
RTVSPropertyOp7
 70
     1
102
RTVSPropertyOp8
 70
     1
102
RTVSPropertyOp9
 70
     1
102
RTVSPropertyOp10
 70
     1
102
RTVSPropertyOp11
 70
     1
102
RTVSPropertyOp12
 70
     1
102
RTVSPropertyOp13
 70
     1
102
RTVSPropertyOp14
 70
     1
102
RTVSPropertyOp15
 70
     1
102
RTVSPropertyOp16
 70
     1
102
RTVSPropertyOp17
 70
     1
102
RTVSPropertyOp18
 70
     1
102
RTVSPropertyOp19
 70
     1
102
RTVSPropertyOp20
 70
     1
102
RTVSPropertyOp21
 70
     1
102
RTVSPropertyOp22
 70
     1
102
RTVSPropertyOp23
 70
     1
102
RTVSPropertyOp24
 70
     1
102
RTVSPropertyOp25
 70
     1
102
RTVSPropertyOp26
 70
     1
102
RTVSPropertyOp27
 70
     1
  0
XRECORD
  5
CE
102
{ACAD_REACTORS
330
CD
102
}
330
CD
100
AcDbXrecord
280
     1
102
RTVSPropertyOp0
 70
     1
102
RTVSPropertyOp1
 70
     1
102
RTVSPropertyOp2
 70
     1
102
RTVSPropertyOp3
 70
     1
102
RTVSPropertyOp4
 70
     1
102
RTVSPropertyOp5
 70
     1
102
RTVSPropertyOp6
 70
     1
102
RTVSPropertyOp7
 70
     1
102
RTVSPropertyOp8
 70
     1
102
RTVSPropertyOp9
 70
     1
102
RTVSPropertyOp10
 70
     1
102
RTVSPropertyOp11
 70
     1
102
RTVSPropertyOp12
 70
     1
102
RTVSPropertyOp13
 70
     1
102
RTVSPropertyOp14
 70
     1
102
RTVSPropertyOp15
 70
     1
102
RTVSPropertyOp16
 70
     1
102
RTVSPropertyOp17
 70
     1
102
RTVSPropertyOp18
 70
     1
102
RTVSPropertyOp19
 70
     1
102
RTVSPropertyOp20
 70
     1
102
RTVSPropertyOp21
 70
     1
102
RTVSPropertyOp22
 70
     1
102
RTVSPropertyOp23
 70
     1
102
RTVSPropertyOp24
 70
     1
102
RTVSPropertyOp25
 70
     1
102
RTVSPropertyOp26
 70
     1
102
RTVSPropertyOp27
 70
     1
  0
XRECORD
  5
D6
102
{ACAD_REACTORS
330
D5
102
}
330
D5
100
AcDbXrecord
280
     1
102
RTVSPropertyOp0
 70
     1
102
RTVSPropertyOp1
 70
     1
102
RTVSPropertyOp2
 70
     1
102
RTVSPropertyOp3
 70
     1
102
RTVSPropertyOp4
 70
     1
102
RTVSPropertyOp5
 70
     1
102
RTVSPropertyOp6
 70
     1
102
RTVSPropertyOp7
 70
     1
102
RTVSPropertyOp8
 70
     1
102
RTVSPropertyOp9
 70
     1
102
RTVSPropertyOp10
 70
     1
102
RTVSPropertyOp11
 70
     1
102
RTVSPropertyOp12
 70
     1
102
RTVSPropertyOp13
 70
     1
102
RTVSPropertyOp14
 70
     1
102
RTVSPropertyOp15
 70
     1
102
RTVSPropertyOp16
 70
     1
102
RTVSPropertyOp17
 70
     1
102
RTVSPropertyOp18
 70
     1
102
RTVSPropertyOp19
 70
     1
102
RTVSPropertyOp20
 70
     1
102
RTVSPropertyOp21
 70
     1
102
RTVSPropertyOp22
 70
     1
102
RTVSPropertyOp23
 70
     1
102
RTVSPropertyOp24
 70
     1
102
RTVSPropertyOp25
 70
     1
102
RTVSPropertyOp26
 70
     1
102
RTVSPropertyOp27
 70
     1
  0
XRECORD
  5
DE
102
{ACAD_REACTORS
330
DD
102
}
330
DD
100
AcDbXrecord
280
     1
102
RTVSPropertyOp0
 70
     1
102
RTVSPropertyOp1
 70
     1
102
RTVSPropertyOp2
 70
     1
102
RTVSPropertyOp3
 70
     1
102
RTVSPropertyOp4
 70
     1
102
RTVSPropertyOp5
 70
     1
102
RTVSPropertyOp6
 70
     1
102
RTVSPropertyOp7
 70
     1
102
RTVSPropertyOp8
 70
     1
102
RTVSPropertyOp9
 70
     1
102
RTVSPropertyOp10
 70
     1
102
RTVSPropertyOp11
 70
     1
102
RTVSPropertyOp12
 70
     1
102
RTVSPropertyOp13
 70
     1
102
RTVSPropertyOp14
 70
     1
102
RTVSPropertyOp15
 70
     1
102
RTVSPropertyOp16
 70
     1
102
RTVSPropertyOp17
 70
     1
102
RTVSPropertyOp18
 70
     1
102
RTVSPropertyOp19
 70
     1
102
RTVSPropertyOp20
 70
     1
102
RTVSPropertyOp21
 70
     1
102
RTVSPropertyOp22
 70
     1
102
RTVSPropertyOp23
 70
     1
102
RTVSPropertyOp24
 70
     1
102
RTVSPropertyOp25
 70
     1
102
RTVSPropertyOp26
 70
     1
102
RTVSPropertyOp27
 70
     1
  0
XRECORD
  5
D2
102
{ACAD_REACTORS
330
D1
102
}
330
D1
100
AcDbXrecord
280
     1
102
RTVSPropertyOp0
 70
     1
102
RTVSPropertyOp1
 70
     1
102
RTVSPropertyOp2
 70
     1
102
RTVSPropertyOp3
 70
     1
102
RTVSPropertyOp4
 70
     1
102
RTVSPropertyOp5
 70
     1
102
RTVSPropertyOp6
 70
     1
102
RTVSPropertyOp7
 70
     1
102
RTVSPropertyOp8
 70
     1
102
RTVSPropertyOp9
 70
     1
102
RTVSPropertyOp10
 70
     1
102
RTVSPropertyOp11
 70
     1
102
RTVSPropertyOp12
 70
     1
102
RTVSPropertyOp13
 70
     1
102
RTVSPropertyOp14
 70
     1
102
RTVSPropertyOp15
 70
     1
102
RTVSPropertyOp16
 70
     1
102
RTVSPropertyOp17
 70
     1
102
RTVSPropertyOp18
 70
     1
102
RTVSPropertyOp19
 70
     1
102
RTVSPropertyOp20
 70
     1
102
RTVSPropertyOp21
 70
     1
102
RTVSPropertyOp22
 70
     1
102
RTVSPropertyOp23
 70
     1
102
RTVSPropertyOp24
 70
     1
102
RTVSPropertyOp25
 70
     1
102
RTVSPropertyOp26
 70
     1
102
RTVSPropertyOp27
 70
     1
  0
XRECORD
  5
D4
102
{ACAD_REACTORS
330
D3
102
}
330
D3
100
AcDbXrecord
280
     1
102
RTVSPropertyOp0
 70
     1
102
RTVSPropertyOp1
 70
     1
102
RTVSPropertyOp2
 70
     1
102
RTVSPropertyOp3
 70
     1
102
RTVSPropertyOp4
 70
     1
102
RTVSPropertyOp5
 70
     1
102
RTVSPropertyOp6
 70
     1
102
RTVSPropertyOp7
 70
     1
102
RTVSPropertyOp8
 70
     1
102
RTVSPropertyOp9
 70
     1
102
RTVSPropertyOp10
 70
     1
102
RTVSPropertyOp11
 70
     1
102
RTVSPropertyOp12
 70
     1
102
RTVSPropertyOp13
 70
     1
102
RTVSPropertyOp14
 70
     1
102
RTVSPropertyOp15
 70
     1
102
RTVSPropertyOp16
 70
     1
102
RTVSPropertyOp17
 70
     1
102
RTVSPropertyOp18
 70
     1
102
RTVSPropertyOp19
 70
     1
102
RTVSPropertyOp20
 70
     1
102
RTVSPropertyOp21
 70
     1
102
RTVSPropertyOp22
 70
     1
102
RTVSPropertyOp23
 70
     1
102
RTVSPropertyOp24
 70
     1
102
RTVSPropertyOp25
 70
     1
102
RTVSPropertyOp26
 70
     1
102
RTVSPropertyOp27
 70
     1
  0
XRECORD
  5
DC
102
{ACAD_REACTORS
330
DB
102
}
330
DB
100
AcDbXrecord
280
     1
102
RTVSPropertyOp0
 70
     1
102
RTVSPropertyOp1
 70
     1
102
RTVSPropertyOp2
 70
     1
102
RTVSPropertyOp3
 70
     1
102
RTVSPropertyOp4
 70
     1
102
RTVSPropertyOp5
 70
     1
102
RTVSPropertyOp6
 70
     1
102
RTVSPropertyOp7
 70
     1
102
RTVSPropertyOp8
 70
     1
102
RTVSPropertyOp9
 70
     1
102
RTVSPropertyOp10
 70
     1
102
RTVSPropertyOp11
 70
     1
102
RTVSPropertyOp12
 70
     1
102
RTVSPropertyOp13
 70
     1
102
RTVSPropertyOp14
 70
     1
102
RTVSPropertyOp15
 70
     1
102
RTVSPropertyOp16
 70
     1
102
RTVSPropertyOp17
 70
     1
102
RTVSPropertyOp18
 70
     1
102
RTVSPropertyOp19
 70
     1
102
RTVSPropertyOp20
 70
     1
102
RTVSPropertyOp21
 70
     1
102
RTVSPropertyOp22
 70
     1
102
RTVSPropertyOp23
 70
     1
102
RTVSPropertyOp24
 70
     1
102
RTVSPropertyOp25
 70
     1
102
RTVSPropertyOp26
 70
     1
102
RTVSPropertyOp27
 70
     1
  0
XRECORD
  5
C0
102
{ACAD_REACTORS
330
BF
102
}
330
BF
100
AcDbXrecord
280
     1
102
RTVSPropertyOp0
 70
     1
102
RTVSPropertyOp1
 70
     1
102
RTVSPropertyOp2
 70
     1
102
RTVSPropertyOp3
 70
     1
102
RTVSPropertyOp4
 70
     1
102
RTVSPropertyOp5
 70
     1
102
RTVSPropertyOp6
 70
     1
102
RTVSPropertyOp7
 70
     1
102
RTVSPropertyOp8
 70
     1
102
RTVSPropertyOp9
 70
     1
102
RTVSPropertyOp10
 70
     1
102
RTVSPropertyOp11
 70
     1
102
RTVSPropertyOp12
 70
     1
102
RTVSPropertyOp13
 70
     1
102
RTVSPropertyOp14
 70
     1
102
RTVSPropertyOp15
 70
     1
102
RTVSPropertyOp16
 70
     1
102
RTVSPropertyOp17
 70
     1
102
RTVSPropertyOp18
 70
     1
102
RTVSPropertyOp19
 70
     1
102
RTVSPropertyOp20
 70
     1
102
RTVSPropertyOp21
 70
     1
102
RTVSPropertyOp22
 70
     1
102
RTVSPropertyOp23
 70
     1
102
RTVSPropertyOp24
 70
     1
102
RTVSPropertyOp25
 70
     1
102
RTVSPropertyOp26
 70
     1
102
RTVSPropertyOp27
 70
     1
  0
XRECORD
  5
C2
102
{ACAD_REACTORS
330
C1
102
}
330
C1
100
AcDbXrecord
280
     1
102
RTVSPropertyOp0
 70
     1
102
RTVSPropertyOp1
 70
     1
102
RTVSPropertyOp2
 70
     1
102
RTVSPropertyOp3
 70
     1
102
RTVSPropertyOp4
 70
     1
102
RTVSPropertyOp5
 70
     1
102
RTVSPropertyOp6
 70
     1
102
RTVSPropertyOp7
 70
     1
102
RTVSPropertyOp8
 70
     1
102
RTVSPropertyOp9
 70
     1
102
RTVSPropertyOp10
 70
     1
102
RTVSPropertyOp11
 70
     1
102
RTVSPropertyOp12
 70
     1
102
RTVSPropertyOp13
 70
     1
102
RTVSPropertyOp14
 70
     1
102
RTVSPropertyOp15
 70
     1
102
RTVSPropertyOp16
 70
     1
102
RTVSPropertyOp17
 70
     1
102
RTVSPropertyOp18
 70
     1
102
RTVSPropertyOp19
 70
     1
102
RTVSPropertyOp20
 70
     1
102
RTVSPropertyOp21
 70
     1
102
RTVSPropertyOp22
 70
     1
102
RTVSPropertyOp23
 70
     1
102
RTVSPropertyOp24
 70
     1
102
RTVSPropertyOp25
 70
     1
102
RTVSPropertyOp26
 70
     1
102
RTVSPropertyOp27
 70
     1
  0
XRECORD
  5
C4
102
{ACAD_REACTORS
330
C3
102
}
330
C3
100
AcDbXrecord
280
     1
102
RTVSPropertyOp0
 70
     1
102
RTVSPropertyOp1
 70
     1
102
RTVSPropertyOp2
 70
     1
102
RTVSPropertyOp3
 70
     1
102
RTVSPropertyOp4
 70
     1
102
RTVSPropertyOp5
 70
     1
102
RTVSPropertyOp6
 70
     1
102
RTVSPropertyOp7
 70
     1
102
RTVSPropertyOp8
 70
     1
102
RTVSPropertyOp9
 70
     1
102
RTVSPropertyOp10
 70
     1
102
RTVSPropertyOp11
 70
     1
102
RTVSPropertyOp12
 70
     1
102
RTVSPropertyOp13
 70
     1
102
RTVSPropertyOp14
 70
     1
102
RTVSPropertyOp15
 70
     1
102
RTVSPropertyOp16
 70
     1
102
RTVSPropertyOp17
 70
     1
102
RTVSPropertyOp18
 70
     1
102
RTVSPropertyOp19
 70
     1
102
RTVSPropertyOp20
 70
     1
102
RTVSPropertyOp21
 70
     1
102
RTVSPropertyOp22
 70
     1
102
RTVSPropertyOp23
 70
     1
102
RTVSPropertyOp24
 70
     1
102
RTVSPropertyOp25
 70
     1
102
RTVSPropertyOp26
 70
     1
102
RTVSPropertyOp27
 70
     1
  0
XRECORD
  5
C6
102
{ACAD_REACTORS
330
C5
102
}
330
C5
100
AcDbXrecord
280
     1
102
RTVSPropertyOp0
 70
     1
102
RTVSPropertyOp1
 70
     1
102
RTVSPropertyOp2
 70
     1
102
RTVSPropertyOp3
 70
     1
102
RTVSPropertyOp4
 70
     1
102
RTVSPropertyOp5
 70
     1
102
RTVSPropertyOp6
 70
     1
102
RTVSPropertyOp7
 70
     1
102
RTVSPropertyOp8
 70
     1
102
RTVSPropertyOp9
 70
     1
102
RTVSPropertyOp10
 70
     1
102
RTVSPropertyOp11
 70
     1
102
RTVSPropertyOp12
 70
     1
102
RTVSPropertyOp13
 70
     1
102
RTVSPropertyOp14
 70
     1
102
RTVSPropertyOp15
 70
     1
102
RTVSPropertyOp16
 70
     1
102
RTVSPropertyOp17
 70
     1
102
RTVSPropertyOp18
 70
     1
102
RTVSPropertyOp19
 70
     1
102
RTVSPropertyOp20
 70
     1
102
RTVSPropertyOp21
 70
     1
102
RTVSPropertyOp22
 70
     1
102
RTVSPropertyOp23
 70
     1
102
RTVSPropertyOp24
 70
     1
102
RTVSPropertyOp25
 70
     1
102
RTVSPropertyOp26
 70
     1
102
RTVSPropertyOp27
 70
     1
  0
XRECORD
  5
DA
102
{ACAD_REACTORS
330
D9
102
}
330
D9
100
AcDbXrecord
280
     1
102
RTVSPropertyOp0
 70
     1
102
RTVSPropertyOp1
 70
     1
102
RTVSPropertyOp2
 70
     1
102
RTVSPropertyOp3
 70
     1
102
RTVSPropertyOp4
 70
     1
102
RTVSPropertyOp5
 70
     1
102
RTVSPropertyOp6
 70
     1
102
RTVSPropertyOp7
 70
     1
102
RTVSPropertyOp8
 70
     1
102
RTVSPropertyOp9
 70
     1
102
RTVSPropertyOp10
 70
     1
102
RTVSPropertyOp11
 70
     1
102
RTVSPropertyOp12
 70
     1
102
RTVSPropertyOp13
 70
     1
102
RTVSPropertyOp14
 70
     1
102
RTVSPropertyOp15
 70
     1
102
RTVSPropertyOp16
 70
     1
102
RTVSPropertyOp17
 70
     1
102
RTVSPropertyOp18
 70
     1
102
RTVSPropertyOp19
 70
     1
102
RTVSPropertyOp20
 70
     1
102
RTVSPropertyOp21
 70
     1
102
RTVSPropertyOp22
 70
     1
102
RTVSPropertyOp23
 70
     1
102
RTVSPropertyOp24
 70
     1
102
RTVSPropertyOp25
 70
     1
102
RTVSPropertyOp26
 70
     1
102
RTVSPropertyOp27
 70
     1
  0
XRECORD
  5
D0
102
{ACAD_REACTORS
330
CF
102
}
330
CF
100
AcDbXrecord
280
     1
102
RTVSPropertyOp0
 70
     1
102
RTVSPropertyOp1
 70
     1
102
RTVSPropertyOp2
 70
     1
102
RTVSPropertyOp3
 70
     1
102
RTVSPropertyOp4
 70
     1
102
RTVSPropertyOp5
 70
     1
102
RTVSPropertyOp6
 70
     1
102
RTVSPropertyOp7
 70
     1
102
RTVSPropertyOp8
 70
     1
102
RTVSPropertyOp9
 70
     1
102
RTVSPropertyOp10
 70
     1
102
RTVSPropertyOp11
 70
     1
102
RTVSPropertyOp12
 70
     1
102
RTVSPropertyOp13
 70
     1
102
RTVSPropertyOp14
 70
     1
102
RTVSPropertyOp15
 70
     1
102
RTVSPropertyOp16
 70
     1
102
RTVSPropertyOp17
 70
     1
102
RTVSPropertyOp18
 70
     1
102
RTVSPropertyOp19
 70
     1
102
RTVSPropertyOp20
 70
     1
102
RTVSPropertyOp21
 70
     1
102
RTVSPropertyOp22
 70
     1
102
RTVSPropertyOp23
 70
     1
102
RTVSPropertyOp24
 70
     1
102
RTVSPropertyOp25
 70
     1
102
RTVSPropertyOp26
 70
     1
102
RTVSPropertyOp27
 70
     1
  0
XRECORD
  5
D8
102
{ACAD_REACTORS
330
D7
102
}
330
D7
100
AcDbXrecord
280
     1
102
RTVSPropertyOp0
 70
     1
102
RTVSPropertyOp1
 70
     1
102
RTVSPropertyOp2
 70
     1
102
RTVSPropertyOp3
 70
     1
102
RTVSPropertyOp4
 70
     1
102
RTVSPropertyOp5
 70
     1
102
RTVSPropertyOp6
 70
     1
102
RTVSPropertyOp7
 70
     1
102
RTVSPropertyOp8
 70
     1
102
RTVSPropertyOp9
 70
     1
102
RTVSPropertyOp10
 70
     1
102
RTVSPropertyOp11
 70
     1
102
RTVSPropertyOp12
 70
     1
102
RTVSPropertyOp13
 70
     1
102
RTVSPropertyOp14
 70
     1
102
RTVSPropertyOp15
 70
     1
102
RTVSPropertyOp16
 70
     1
102
RTVSPropertyOp17
 70
     1
102
RTVSPropertyOp18
 70
     1
102
RTVSPropertyOp19
 70
     1
102
RTVSPropertyOp20
 70
     1
102
RTVSPropertyOp21
 70
     1
102
RTVSPropertyOp22
 70
     1
102
RTVSPropertyOp23
 70
     1
102
RTVSPropertyOp24
 70
     1
102
RTVSPropertyOp25
 70
     1
102
RTVSPropertyOp26
 70
     1
102
RTVSPropertyOp27
 70
     1
  0
ENDSEC
  0
EOF
