  0
SECTION
  2
HEADER
  9
$ACADVER
  1
AC1014
  9
$ACADMAINTVER
 70
     9
  9
$DWGCODEPAGE
  3
ANSI_1250
  9
$INSBASE
 10
0.0
 20
0.0
 30
0.0
  9
$EXTMIN
 10
-19.4735
 20
-33.0104
 30
0.0
  9
$EXTMAX
 10
19.6475
 20
33.0103
 30
0.0
  9
$LIMMIN
 10
0.0
 20
0.0
  9
$LIMMAX
 10
12.0
 20
9.0
  9
$ORTHOMODE
 70
     0
  9
$REGENMODE
 70
     1
  9
$FILLMODE
 70
     1
  9
$QTEXTMODE
 70
     0
  9
$MIRRTEXT
 70
     1
  9
$DRAGMODE
 70
     2
  9
$LTSCALE
 40
1.0
  9
$OSMODE
 70
    37
  9
$ATTMODE
 70
     1
  9
$TEXTSIZE
 40
0.2
  9
$TRACEWID
 40
0.05
  9
$TEXTSTYLE
  7
STANDARD
  9
$CLAYER
  8
0
  9
$CELTYPE
  6
BYLAYER
  9
$CECOLOR
 62
   256
  9
$CELTSCALE
 40
1.0
  9
$DELOBJ
 70
     1
  9
$DISPSILH
 70
     0
  9
$DIMSCALE
 40
1.0
  9
$DIMASZ
 40
0.18
  9
$DIMEXO
 40
0.0625
  9
$DIMDLI
 40
0.38
  9
$DIMRND
 40
0.0
  9
$DIMDLE
 40
0.0
  9
$DIMEXE
 40
0.18
  9
$DIMTP
 40
0.0
  9
$DIMTM
 40
0.0
  9
$DIMTXT
 40
0.18
  9
$DIMCEN
 40
0.09
  9
$DIMTSZ
 40
0.0
  9
$DIMTOL
 70
     0
  9
$DIMLIM
 70
     0
  9
$DIMTIH
 70
     1
  9
$DIMTOH
 70
     1
  9
$DIMSE1
 70
     0
  9
$DIMSE2
 70
     0
  9
$DIMTAD
 70
     0
  9
$DIMZIN
 70
     0
  9
$DIMBLK
  1

  9
$DIMASO
 70
     1
  9
$DIMSHO
 70
     1
  9
$DIMPOST
  1

  9
$DIMAPOST
  1

  9
$DIMALT
 70
     0
  9
$DIMALTD
 70
     2
  9
$DIMALTF
 40
25.4
  9
$DIMLFAC
 40
1.0
  9
$DIMTOFL
 70
     0
  9
$DIMTVP
 40
0.0
  9
$DIMTIX
 70
     0
  9
$DIMSOXD
 70
     0
  9
$DIMSAH
 70
     0
  9
$DIMBLK1
  1

  9
$DIMBLK2
  1

  9
$DIMSTYLE
  2
STANDARD
  9
$DIMCLRD
 70
     0
  9
$DIMCLRE
 70
     0
  9
$DIMCLRT
 70
     0
  9
$DIMTFAC
 40
1.0
  9
$DIMGAP
 40
0.09
  9
$DIMJUST
 70
     0
  9
$DIMSD1
 70
     0
  9
$DIMSD2
 70
     0
  9
$DIMTOLJ
 70
     1
  9
$DIMTZIN
 70
     0
  9
$DIMALTZ
 70
     0
  9
$DIMALTTZ
 70
     0
  9
$DIMFIT
 70
     3
  9
$DIMUPT
 70
     0
  9
$DIMUNIT
 70
     2
  9
$DIMDEC
 70
     4
  9
$DIMTDEC
 70
     4
  9
$DIMALTU
 70
     2
  9
$DIMALTTD
 70
     2
  9
$DIMTXSTY
  7
STANDARD
  9
$DIMAUNIT
 70
     0
  9
$LUNITS
 70
     2
  9
$LUPREC
 70
     4
  9
$SKETCHINC
 40
0.1
  9
$FILLETRAD
 40
0.5
  9
$AUNITS
 70
     0
  9
$AUPREC
 70
     0
  9
$MENU
  1
.
  9
$ELEVATION
 40
0.0
  9
$PELEVATION
 40
0.0
  9
$THICKNESS
 40
0.0
  9
$LIMCHECK
 70
     0
  9
$CHAMFERA
 40
0.5
  9
$CHAMFERB
 40
0.5
  9
$CHAMFERC
 40
1.0
  9
$CHAMFERD
 40
0.0
  9
$SKPOLY
 70
     0
  9
$TDCREATE
 40
2456247.443015393
  9
$TDUPDATE
 40
2456247.443015405
  9
$TDINDWG
 40
0.0000000116
  9
$TDUSRTIMER
 40
0.0000000116
  9
$USRTIMER
 70
     1
  9
$ANGBASE
 50
0.0
  9
$ANGDIR
 70
     0
  9
$PDMODE
 70
     0
  9
$PDSIZE
 40
0.0
  9
$PLINEWID
 40
0.0
  9
$COORDS
 70
     1
  9
$SPLFRAME
 70
     0
  9
$SPLINETYPE
 70
     6
  9
$SPLINESEGS
 70
     8
  9
$ATTDIA
 70
     0
  9
$ATTREQ
 70
     1
  9
$HANDLING
 70
     1
  9
$HANDSEED
  5
DE
  9
$SURFTAB1
 70
     6
  9
$SURFTAB2
 70
     6
  9
$SURFTYPE
 70
     6
  9
$SURFU
 70
     6
  9
$SURFV
 70
     6
  9
$UCSNAME
  2

  9
$UCSORG
 10
0.0
 20
0.0
 30
0.0
  9
$UCSXDIR
 10
1.0
 20
0.0
 30
0.0
  9
$UCSYDIR
 10
0.0
 20
1.0
 30
0.0
  9
$PUCSNAME
  2

  9
$PUCSORG
 10
0.0
 20
0.0
 30
0.0
  9
$PUCSXDIR
 10
1.0
 20
0.0
 30
0.0
  9
$PUCSYDIR
 10
0.0
 20
1.0
 30
0.0
  9
$USERI1
 70
     0
  9
$USERI2
 70
     0
  9
$USERI3
 70
     0
  9
$USERI4
 70
     0
  9
$USERI5
 70
     0
  9
$USERR1
 40
0.0
  9
$USERR2
 40
0.0
  9
$USERR3
 40
0.0
  9
$USERR4
 40
0.0
  9
$USERR5
 40
0.0
  9
$WORLDVIEW
 70
     1
  9
$SHADEDGE
 70
     3
  9
$SHADEDIF
 70
    70
  9
$TILEMODE
 70
     1
  9
$MAXACTVP
 70
    64
  9
$PINSBASE
 10
0.0
 20
0.0
 30
0.0
  9
$PLIMCHECK
 70
     0
  9
$PEXTMIN
 10
1.000000000000000E+20
 20
1.000000000000000E+20
 30
1.000000000000000E+20
  9
$PEXTMAX
 10
-1.000000000000000E+20
 20
-1.000000000000000E+20
 30
-1.000000000000000E+20
  9
$PLIMMIN
 10
0.0
 20
0.0
  9
$PLIMMAX
 10
12.0
 20
9.0
  9
$UNITMODE
 70
     0
  9
$VISRETAIN
 70
     1
  9
$PLINEGEN
 70
     0
  9
$PSLTSCALE
 70
     1
  9
$TREEDEPTH
 70
  3020
  9
$PICKSTYLE
 70
     1
  9
$CMLSTYLE
  2
STANDARD
  9
$CMLJUST
 70
     0
  9
$CMLSCALE
 40
1.0
  9
$PROXYGRAPHICS
 70
     1
  9
$MEASUREMENT
 70
     0
  0
ENDSEC
  0
SECTION
  2
CLASSES
  0
CLASS
  1
ACDBDICTIONARYWDFLT
  2
AcDbDictionaryWithDefault
  3
ObjectDBX Classes
 90
        0
280
     0
281
     0
  0
CLASS
  1
VISUALSTYLE
  2
AcDbVisualStyle
  3
ObjectDBX Classes
 90
     4095
280
     0
281
     0
  0
CLASS
  1
MATERIAL
  2
AcDbMaterial
  3
ObjectDBX Classes
 90
     1153
280
     0
281
     0
  0
CLASS
  1
DICTIONARYVAR
  2
AcDbDictionaryVar
  3
ObjectDBX Classes
 90
        0
280
     0
281
     0
  0
CLASS
  1
XRECORD
  2
AcDbXrecord
  3
AutoCAD 2000
 90
        0
280
     0
281
     0
  0
CLASS
  1
LWPOLYLINE
  2
AcDbPolyline
  3
AutoCAD 2000
 90
        0
280
     0
281
     1
  0
CLASS
  1
HATCH
  2
AcDbHatch
  3
AutoCAD 2000
 90
        0
280
     0
281
     1
  0
CLASS
  1
ACDBPLACEHOLDER
  2
AcDbPlaceHolder
  3
ObjectDBX Classes
 90
        0
280
     0
281
     0
  0
CLASS
  1
LAYOUT
  2
AcDbLayout
  3
ObjectDBX Classes
 90
        0
280
     0
281
     0
  0
ENDSEC
  0
SECTION
  2
TABLES
  0
TABLE
  2
VPORT
  5
8
330
0
100
AcDbSymbolTable
 70
     1
  0
VPORT
  5
29
330
8
100
AcDbSymbolTableRecord
100
AcDbViewportTableRecord
  2
*ACTIVE
 70
     0
 10
0.0
 20
0.0
 11
1.0
 21
1.0
 12
10.42990654205607
 22
4.5
 13
0.0
 23
0.0
 14
0.5
 24
0.5
 15
0.5
 25
0.5
 16
0.0
 26
0.0
 36
1.0
 17
0.0
 27
0.0
 37
0.0
 40
9.0
 41
1.972972972850329
 42
50.0
 43
0.0
 44
0.0
 50
0.0
 51
0.0
 71
     0
 72
   100
 73
     1
 74
     3
 75
     0
 76
     0
 77
     0
 78
     0
  0
ENDTAB
  0
TABLE
  2
LTYPE
  5
5
330
0
100
AcDbSymbolTable
 70
     2
  0
LTYPE
  5
14
330
5
100
AcDbSymbolTableRecord
100
AcDbLinetypeTableRecord
  2
BYBLOCK
 70
     0
  3

 72
    65
 73
     0
 40
0.0
  0
LTYPE
  5
15
330
5
100
AcDbSymbolTableRecord
100
AcDbLinetypeTableRecord
  2
BYLAYER
 70
     0
  3

 72
    65
 73
     0
 40
0.0
  0
LTYPE
  5
16
330
5
100
AcDbSymbolTableRecord
100
AcDbLinetypeTableRecord
  2
CONTINUOUS
 70
     0
  3
Solid line
 72
    65
 73
     0
 40
0.0
  0
LTYPE
  5
50
330
5
100
AcDbSymbolTableRecord
100
AcDbLinetypeTableRecord
  2
NEW_LINE1
 70
     0
  3

 72
    65
 73
     4
 40
1.2
 49
0.5
 74
     4
 75
     0
340
0
 46
1.0
 50
0.0
 44
0.0
 45
0.0
 49
-0.3
 74
     4
 75
     0
340
0
 46
1.0
 50
0.0
 44
0.0
 45
0.0
 49
0.1
 74
     4
 75
     0
340
0
 46
1.0
 50
0.0
 44
0.0
 45
0.0
 49
-0.3
 74
     4
 75
     0
340
0
 46
1.0
 50
0.0
 44
0.0
 45
0.0
  0
ENDTAB
  0
TABLE
  2
LAYER
  5
2
330
0
100
AcDbSymbolTable
 70
     2
  0
LAYER
  5
10
330
2
100
AcDbSymbolTableRecord
100
AcDbLayerTableRecord
  2
0
 70
     0
 62
     7
  6
CONTINUOUS
  0
LAYER
  5
40
330
2
100
AcDbSymbolTableRecord
100
AcDbLayerTableRecord
  2
DEFAULT_1
 70
     0
 62
     7
  6
CONTINUOUS
  0
ENDTAB
  0
TABLE
  2
STYLE
  5
3
330
0
100
AcDbSymbolTable
 70
     1
  0
STYLE
  5
11
330
3
100
AcDbSymbolTableRecord
100
AcDbTextStyleTableRecord
  2
STANDARD
 70
     0
 40
0.0
 41
1.0
 50
0.0
 71
     0
 42
0.2
  3
txt
  4

  0
ENDTAB
  0
TABLE
  2
VIEW
  5
6
330
0
100
AcDbSymbolTable
 70
     0
  0
ENDTAB
  0
TABLE
  2
UCS
  5
7
330
0
100
AcDbSymbolTable
 70
     0
  0
ENDTAB
  0
TABLE
  2
APPID
  5
9
330
0
100
AcDbSymbolTable
 70
     2
  0
APPID
  5
12
330
9
100
AcDbSymbolTableRecord
100
AcDbRegAppTableRecord
  2
ACAD
 70
     0
  0
APPID
  5
3F
330
9
100
AcDbSymbolTableRecord
100
AcDbRegAppTableRecord
  2
ODA
 70
     0
  0
ENDTAB
  0
TABLE
  2
DIMSTYLE
  5
A
330
0
100
AcDbSymbolTable
 70
     1
  0
DIMSTYLE
105
27
330
A
100
AcDbSymbolTableRecord
100
AcDbDimStyleTableRecord
  2
STANDARD
 70
     0
  3

  4

  5

  6

  7

 40
1.0
 41
0.18
 42
0.0625
 43
0.38
 44
0.18
 45
0.0
 46
0.0
 47
0.0
 48
0.0
140
0.18
141
0.09
142
0.0
143
25.4
144
1.0
145
0.0
146
1.0
147
0.09
 71
     0
 72
     0
 73
     1
 74
     1
 75
     0
 76
     0
 77
     0
 78
     0
170
     0
171
     2
172
     0
173
     0
174
     0
175
     0
176
     0
177
     0
178
     0
270
     2
271
     4
272
     4
273
     2
274
     2
340
11
275
     0
280
     0
281
     0
282
     0
283
     1
284
     0
285
     0
286
     0
287
     3
288
     0
  0
ENDTAB
  0
TABLE
  2
BLOCK_RECORD
  5
1
330
0
100
AcDbSymbolTable
 70
     1
  0
BLOCK_RECORD
  5
1F
330
1
100
AcDbSymbolTableRecord
100
AcDbBlockTableRecord
  2
*MODEL_SPACE
  0
BLOCK_RECORD
  5
1B
330
1
100
AcDbSymbolTableRecord
100
AcDbBlockTableRecord
  2
*PAPER_SPACE
  0
ENDTAB
  0
ENDSEC
  0
SECTION
  2
BLOCKS
  0
BLOCK
  5
20
330
1F
100
AcDbEntity
  8
0
100
AcDbBlockBegin
  2
*MODEL_SPACE
 70
     0
 10
0.0
 20
0.0
 30
0.0
  3
*MODEL_SPACE
  1

  0
ENDBLK
  5
21
330
1F
100
AcDbEntity
  8
0
100
AcDbBlockEnd
  0
BLOCK
  5
1C
330
1B
100
AcDbEntity
 67
     1
  8
0
100
AcDbBlockBegin
  2
*PAPER_SPACE
 70
     0
 10
0.0
 20
0.0
 30
0.0
  3
*PAPER_SPACE
  1

  0
ENDBLK
  5
1D
330
1B
100
AcDbEntity
 67
     1
  8
0
100
AcDbBlockEnd
  0
ENDSEC
  0
SECTION
  2
ENTITIES
  0
SPLINE
  5
41
330
1F
100
AcDbEntity
  8
DEFAULT_1
 62
   250
100
AcDbSpline
210
0.0
220
0.0
230
1.0
 70
    24
 71
     3
 72
     8
 73
     4
 74
     0
 42
0.0000000001
 43
0.0000000001
 40
0.0
 40
0.0
 40
0.0
 40
0.0
 40
1.0
 40
1.0
 40
1.0
 40
1.0
 10
-4.3848
 20
-20.3674
 30
0.0
 10
-4.3848
 20
-20.3674
 30
0.0
 10
-4.3848
 20
-26.9763
 30
0.0
 10
-4.3848
 20
-26.9763
 30
0.0
  0
SPLINE
  5
42
330
1F
100
AcDbEntity
  8
DEFAULT_1
 62
   250
100
AcDbSpline
210
0.0
220
0.0
230
1.0
 70
    24
 71
     3
 72
     8
 73
     4
 74
     0
 42
0.0000000001
 43
0.0000000001
 40
0.0
 40
0.0
 40
0.0
 40
0.0
 40
1.0
 40
1.0
 40
1.0
 40
1.0
 10
14.6127
 20
-20.5406
 30
0.0
 10
14.6127
 20
-20.5406
 30
0.0
 10
14.6127
 20
-26.9763
 30
0.0
 10
14.6127
 20
-26.9763
 30
0.0
  0
SPLINE
  5
43
330
1F
100
AcDbEntity
  8
DEFAULT_1
 62
   250
100
AcDbSpline
210
0.0
220
0.0
230
1.0
 70
    24
 71
     3
 72
     8
 73
     4
 74
     0
 42
0.0000000001
 43
0.0000000001
 40
0.0
 40
0.0
 40
0.0
 40
0.0
 40
1.0
 40
1.0
 40
1.0
 40
1.0
 10
-4.0556
 20
-26.0481
 30
0.0
 10
-4.0556
 20
-26.0481
 30
0.0
 10
14.3949
 20
-26.0481
 30
0.0
 10
14.3949
 20
-26.0481
 30
0.0
  0
SPLINE
  5
44
330
1F
100
AcDbEntity
  8
DEFAULT_1
 62
   250
100
AcDbSpline
210
0.0
220
0.0
230
1.0
 70
    24
 71
     3
 72
     8
 73
     4
 74
     0
 42
0.0000000001
 43
0.0000000001
 40
0.0
 40
0.0
 40
0.0
 40
0.0
 40
1.0
 40
1.0
 40
1.0
 40
1.0
 10
-4.9559
 20
-19.7384
 30
0.0
 10
-4.9559
 20
-19.7384
 30
0.0
 10
-17.43
 20
-19.7384
 30
0.0
 10
-17.43
 20
-19.7384
 30
0.0
  0
SPLINE
  5
45
330
1F
100
AcDbEntity
  8
DEFAULT_1
 62
   250
100
AcDbSpline
210
0.0
220
0.0
230
1.0
 70
    24
 71
     3
 72
     8
 73
     4
 74
     0
 42
0.0000000001
 43
0.0000000001
 40
0.0
 40
0.0
 40
0.0
 40
0.0
 40
1.0
 40
1.0
 40
1.0
 40
1.0
 10
-5.7131
 20
-14.6078
 30
0.0
 10
-5.7131
 20
-14.6078
 30
0.0
 10
-10.4718
 20
-14.6078
 30
0.0
 10
-10.4718
 20
-14.6078
 30
0.0
  0
SPLINE
  5
46
330
1F
100
AcDbEntity
  8
DEFAULT_1
 62
   250
100
AcDbSpline
210
0.0
220
0.0
230
1.0
 70
    24
 71
     3
 72
     8
 73
     4
 74
     0
 42
0.0000000001
 43
0.0000000001
 40
0.0
 40
0.0
 40
0.0
 40
0.0
 40
1.0
 40
1.0
 40
1.0
 40
1.0
 10
-9.8546
 20
-25.0367
 30
0.0
 10
-9.8546
 20
-25.0367
 30
0.0
 10
-9.8546
 20
-9.0034
 30
0.0
 10
-9.8546
 20
-9.0034
 30
0.0
  0
SPLINE
  5
47
330
1F
100
AcDbEntity
  8
DEFAULT_1
 62
   250
100
AcDbSpline
210
0.0
220
0.0
230
1.0
 70
    24
 71
     3
 72
     8
 73
     4
 74
     0
 42
0.0000000001
 43
0.0000000001
 40
0.0
 40
0.0
 40
0.0
 40
0.0
 40
1.0
 40
1.0
 40
1.0
 40
1.0
 10
-10.0594
 20
-0.0894
 30
0.0
 10
-10.0594
 20
-0.0894
 30
0.0
 10
-17.1866
 20
-0.0894
 30
0.0
 10
-17.1866
 20
-0.0894
 30
0.0
  0
SPLINE
  5
48
330
1F
100
AcDbEntity
  8
DEFAULT_1
 62
   250
100
AcDbSpline
210
0.0
220
0.0
230
1.0
 70
    24
 71
     3
 72
     8
 73
     4
 74
     0
 42
0.0000000001
 43
0.0000000001
 40
0.0
 40
0.0
 40
0.0
 40
0.0
 40
1.0
 40
1.0
 40
1.0
 40
1.0
 10
-16.3649
 20
-19.0336
 30
0.0
 10
-16.3649
 20
-19.0336
 30
0.0
 10
-16.3649
 20
0.372
 30
0.0
 10
-16.3649
 20
0.372
 30
0.0
  0
SPLINE
  5
49
330
1F
100
AcDbEntity
  8
DEFAULT_1
 62
   250
100
AcDbSpline
210
0.0
220
0.0
230
1.0
 70
    24
 71
     3
 72
     8
 73
     4
 74
     0
 42
0.0000000001
 43
0.0000000001
 40
0.0
 40
0.0
 40
0.0
 40
0.0
 40
1.0
 40
1.0
 40
1.0
 40
1.0
 10
-16.3648
 20
14.1735
 30
0.0
 10
-16.3648
 20
14.1735
 30
0.0
 10
-16.3648
 20
0.372
 30
0.0
 10
-16.3648
 20
0.372
 30
0.0
  0
SPLINE
  5
4A
330
1F
100
AcDbEntity
  8
DEFAULT_1
 62
   250
100
AcDbSpline
210
0.0
220
0.0
230
1.0
 70
    24
 71
     3
 72
     8
 73
     4
 74
     0
 42
0.0000000001
 43
0.0000000001
 40
0.0
 40
0.0
 40
0.0
 40
0.0
 40
1.0
 40
1.0
 40
1.0
 40
1.0
 10
-10.7751
 20
14.6853
 30
0.0
 10
-10.7751
 20
14.6853
 30
0.0
 10
-16.9523
 20
14.6853
 30
0.0
 10
-16.9523
 20
14.6853
 30
0.0
  0
SPLINE
  5
4B
330
1F
100
AcDbEntity
  8
DEFAULT_1
 62
   250
100
AcDbSpline
210
0.0
220
0.0
230
1.0
 70
    24
 71
     3
 72
     8
 73
     4
 74
     0
 42
0.0000000001
 43
0.0000000001
 40
0.0
 40
0.0
 40
0.0
 40
0.0
 40
1.0
 40
1.0
 40
1.0
 40
1.0
 10
-16.3638
 20
12.9029
 30
0.0
 10
-16.3638
 20
12.9029
 30
0.0
 10
-16.3638
 20
14.1531
 30
0.0
 10
-16.3638
 20
14.1531
 30
0.0
  0
SPLINE
  5
4C
330
1F
100
AcDbEntity
  8
DEFAULT_1
 62
   250
100
AcDbSpline
210
0.0
220
0.0
230
1.0
 70
    24
 71
     3
 72
     8
 73
     4
 74
     0
 42
0.0000000001
 43
0.0000000001
 40
0.0
 40
0.0
 40
0.0
 40
0.0
 40
1.0
 40
1.0
 40
1.0
 40
1.0
 10
-5.4377
 20
-15.7299
 30
0.0
 10
-5.4377
 20
-15.7299
 30
0.0
 10
-5.4377
 20
-32.8855
 30
0.0
 10
-5.4377
 20
-32.8855
 30
0.0
  0
SPLINE
  5
4D
330
1F
100
AcDbEntity
  8
DEFAULT_1
 62
   250
100
AcDbSpline
210
0.0
220
0.0
230
1.0
 70
    24
 71
     3
 72
     8
 73
     4
 74
     0
 42
0.0000000001
 43
0.0000000001
 40
0.0
 40
0.0
 40
0.0
 40
0.0
 40
1.0
 40
1.0
 40
1.0
 40
1.0
 10
15.6321
 20
-15.4183
 30
0.0
 10
15.6321
 20
-15.4183
 30
0.0
 10
15.6321
 20
-33.0104
 30
0.0
 10
15.6321
 20
-33.0104
 30
0.0
  0
SPLINE
  5
4E
330
1F
100
AcDbEntity
  8
DEFAULT_1
 62
   250
100
AcDbSpline
210
0.0
220
0.0
230
1.0
 70
    24
 71
     3
 72
     8
 73
     4
 74
     0
 42
0.0000000001
 43
0.0000000001
 40
0.0
 40
0.0
 40
0.0
 40
0.0
 40
1.0
 40
1.0
 40
1.0
 40
1.0
 10
-4.5147
 20
-32.1258
 30
0.0
 10
-4.5147
 20
-32.1258
 30
0.0
 10
14.5516
 20
-32.1258
 30
0.0
 10
14.5516
 20
-32.1258
 30
0.0
  0
SPLINE
  5
4F
330
1F
100
AcDbEntity
  8
DEFAULT_1
  6
NEW_LINE1
 62
   250
100
AcDbSpline
210
0.0
220
0.0
230
1.0
 70
    24
 71
     3
 72
     8
 73
     4
 74
     0
 42
0.0000000001
 43
0.0000000001
 40
0.0
 40
0.0
 40
0.0
 40
0.0
 40
1.0
 40
1.0
 40
1.0
 40
1.0
 10
5.1143
 20
-20.5008
 30
0.0
 10
5.1143
 20
-20.5008
 30
0.0
 10
5.1143
 20
21.5433
 30
0.0
 10
5.1143
 20
21.5433
 30
0.0
  0
SPLINE
  5
51
330
1F
100
AcDbEntity
  8
DEFAULT_1
 62
   250
100
AcDbSpline
210
0.0
220
0.0
230
1.0
 70
    24
 71
     3
 72
     8
 73
     4
 74
     0
 42
0.0000000001
 43
0.0000000001
 40
0.0
 40
0.0
 40
0.0
 40
0.0
 40
1.0
 40
1.0
 40
1.0
 40
1.0
 10
13.6432
 20
20.2771
 30
0.0
 10
13.6432
 20
20.2771
 30
0.0
 10
13.6432
 20
25.0992
 30
0.0
 10
13.6432
 20
25.0992
 30
0.0
  0
SPLINE
  5
52
330
1F
100
AcDbEntity
  8
DEFAULT_1
 62
   250
100
AcDbSpline
210
0.0
220
0.0
230
1.0
 70
    24
 71
     3
 72
     8
 73
     4
 74
     0
 42
0.0000000001
 43
0.0000000001
 40
0.0
 40
0.0
 40
0.0
 40
0.0
 40
1.0
 40
1.0
 40
1.0
 40
1.0
 10
-3.5383
 20
19.9747
 30
0.0
 10
-3.5383
 20
19.9747
 30
0.0
 10
-3.5383
 20
24.9638
 30
0.0
 10
-3.5383
 20
24.9638
 30
0.0
  0
SPLINE
  5
53
330
1F
100
AcDbEntity
  8
DEFAULT_1
 62
   250
100
AcDbSpline
210
0.0
220
0.0
230
1.0
 70
    24
 71
     3
 72
     8
 73
     4
 74
     0
 42
0.0000000001
 43
0.0000000001
 40
0.0
 40
0.0
 40
0.0
 40
0.0
 40
1.0
 40
1.0
 40
1.0
 40
1.0
 10
-2.9225
 20
24.5316
 30
0.0
 10
-2.9225
 20
24.5316
 30
0.0
 10
12.2512
 20
24.5316
 30
0.0
 10
12.2512
 20
24.5316
 30
0.0
  0
SPLINE
  5
54
330
1F
100
AcDbEntity
  8
DEFAULT_1
 62
   250
100
AcDbSpline
210
0.0
220
0.0
230
1.0
 70
    11
 71
     3
 72
    48
 73
    44
 74
     0
 42
0.0000000001
 43
0.0000000001
 40
0.0
 40
0.0
 40
0.0
 40
0.0
 40
0.0833333333333333
 40
0.0833333333333333
 40
0.0833333333333333
 40
0.0833333333333333
 40
0.1666666666666667
 40
0.1666666666666667
 40
0.1666666666666667
 40
0.1666666666666667
 40
0.25
 40
0.25
 40
0.25
 40
0.25
 40
0.3333333333333333
 40
0.3333333333333333
 40
0.3333333333333333
 40
0.3333333333333333
 40
0.4166666666666667
 40
0.4166666666666667
 40
0.4166666666666667
 40
0.4166666666666667
 40
0.5
 40
0.5
 40
0.5
 40
0.5
 40
0.5833333333333334
 40
0.5833333333333334
 40
0.5833333333333334
 40
0.5833333333333334
 40
0.6666666666666666
 40
0.6666666666666666
 40
0.6666666666666666
 40
0.6666666666666666
 40
0.75
 40
0.75
 40
0.75
 40
0.75
 40
0.8333333333333334
 40
0.8333333333333334
 40
0.8333333333333334
 40
0.8333333333333334
 40
1.0
 40
1.0
 40
1.0
 40
1.0
 10
-2.7257
 20
17.384
 30
0.0
 10
-2.7257
 20
17.384
 30
0.0
 10
-3.7979
 20
17.5583
 30
0.0
 10
-3.7979
 20
17.5583
 30
0.0
 10
-3.7979
 20
17.5583
 30
0.0
 10
-3.7979
 20
17.5583
 30
0.0
 10
-3.9033
 20
17.6848
 30
0.0
 10
-3.9033
 20
17.6848
 30
0.0
 10
-3.9033
 20
17.6848
 30
0.0
 10
-3.9033
 20
17.6848
 30
0.0
 10
-3.8822
 20
17.8323
 30
0.0
 10
-3.8822
 20
17.8323
 30
0.0
 10
-3.8822
 20
17.8323
 30
0.0
 10
-3.8822
 20
17.8323
 30
0.0
 10
-3.7558
 20
17.9166
 30
0.0
 10
-3.7558
 20
17.9166
 30
0.0
 10
-3.7558
 20
17.9166
 30
0.0
 10
-3.7558
 20
17.9166
 30
0.0
 10
-2.6811
 20
18.043
 30
0.0
 10
-2.6811
 20
18.043
 30
0.0
 10
-2.6811
 20
18.043
 30
0.0
 10
-2.6811
 20
18.043
 30
0.0
 10
12.8711
 20
18.043
 30
0.0
 10
12.8711
 20
18.043
 30
0.0
 10
12.8711
 20
18.043
 30
0.0
 10
12.8711
 20
18.043
 30
0.0
 10
13.988
 20
17.8744
 30
0.0
 10
13.988
 20
17.8744
 30
0.0
 10
13.988
 20
17.8744
 30
0.0
 10
13.988
 20
17.8744
 30
0.0
 10
14.0512
 20
17.7269
 30
0.0
 10
14.0512
 20
17.7269
 30
0.0
 10
14.0512
 20
17.7269
 30
0.0
 10
14.0512
 20
17.7269
 30
0.0
 10
13.988
 20
17.5583
 30
0.0
 10
13.988
 20
17.5583
 30
0.0
 10
13.988
 20
17.5583
 30
0.0
 10
13.988
 20
17.5583
 30
0.0
 10
12.8436
 20
17.384
 30
0.0
 10
12.8436
 20
17.384
 30
0.0
 10
12.8436
 20
17.384
 30
0.0
 10
12.8436
 20
17.384
 30
0.0
 10
-2.7257
 20
17.384
 30
0.0
 10
-2.7257
 20
17.384
 30
0.0
  0
SPLINE
  5
55
330
1F
100
AcDbEntity
  8
DEFAULT_1
 62
   250
100
AcDbSpline
210
0.0
220
0.0
230
1.0
 70
    11
 71
     3
 72
    84
 73
    80
 74
     0
 42
0.0000000001
 43
0.0000000001
 40
0.0
 40
0.0
 40
0.0
 40
0.0
 40
0.0476190476190476
 40
0.0476190476190476
 40
0.0476190476190476
 40
0.0476190476190476
 40
0.0952380952380952
 40
0.0952380952380952
 40
0.0952380952380952
 40
0.0952380952380952
 40
0.1428571428571428
 40
0.1428571428571428
 40
0.1428571428571428
 40
0.1428571428571428
 40
0.1904761904761905
 40
0.1904761904761905
 40
0.1904761904761905
 40
0.1904761904761905
 40
0.2380952380952381
 40
0.2380952380952381
 40
0.2380952380952381
 40
0.2380952380952381
 40
0.2857142857142857
 40
0.2857142857142857
 40
0.2857142857142857
 40
0.2857142857142857
 40
0.3333333333333333
 40
0.3333333333333333
 40
0.3333333333333333
 40
0.3333333333333333
 40
0.3809523809523809
 40
0.3809523809523809
 40
0.3809523809523809
 40
0.3809523809523809
 40
0.4285714285714285
 40
0.4285714285714285
 40
0.4285714285714285
 40
0.4285714285714285
 40
0.4761904761904762
 40
0.4761904761904762
 40
0.4761904761904762
 40
0.4761904761904762
 40
0.5238095238095238
 40
0.5238095238095238
 40
0.5238095238095238
 40
0.5238095238095238
 40
0.5714285714285714
 40
0.5714285714285714
 40
0.5714285714285714
 40
0.5714285714285714
 40
0.6190476190476191
 40
0.6190476190476191
 40
0.6190476190476191
 40
0.6190476190476191
 40
0.6666666666666666
 40
0.6666666666666666
 40
0.6666666666666666
 40
0.6666666666666666
 40
0.7142857142857143
 40
0.7142857142857143
 40
0.7142857142857143
 40
0.7142857142857143
 40
0.7619047619047619
 40
0.7619047619047619
 40
0.7619047619047619
 40
0.7619047619047619
 40
0.8095238095238095
 40
0.8095238095238095
 40
0.8095238095238095
 40
0.8095238095238095
 40
0.8571428571428571
 40
0.8571428571428571
 40
0.8571428571428571
 40
0.8571428571428571
 40
0.9047619047619048
 40
0.9047619047619048
 40
0.9047619047619048
 40
0.9047619047619048
 40
1.0
 40
1.0
 40
1.0
 40
1.0
 10
3.5264
 20
32.7512
 30
0.0
 10
3.5264
 20
32.7512
 30
0.0
 10
3.7578
 20
33.0103
 30
0.0
 10
3.7578
 20
33.0103
 30
0.0
 10
3.7578
 20
33.0103
 30
0.0
 10
3.7578
 20
33.0103
 30
0.0
 10
3.8942
 20
32.8946
 30
0.0
 10
3.8942
 20
32.8946
 30
0.0
 10
3.8942
 20
32.8946
 30
0.0
 10
3.8942
 20
32.8946
 30
0.0
 10
3.652
 20
32.6218
 30
0.0
 10
3.652
 20
32.6218
 30
0.0
 10
3.652
 20
32.6218
 30
0.0
 10
3.731
 20
32.5042
 30
0.0
 10
3.7841
 20
32.4012
 30
0.0
 10
3.8119
 20
32.3133
 30
0.0
 10
3.8119
 20
32.3133
 30
0.0
 10
3.8486
 20
32.1975
 30
0.0
 10
3.8669
 20
32.0677
 30
0.0
 10
3.8669
 20
31.9247
 30
0.0
 10
3.8669
 20
31.9247
 30
0.0
 10
3.8669
 20
31.7178
 30
0.0
 10
3.8251
 20
31.5334
 30
0.0
 10
3.7413
 20
31.3721
 30
0.0
 10
3.7413
 20
31.3721
 30
0.0
 10
3.6576
 20
31.2102
 30
0.0
 10
3.5405
 20
31.088
 30
0.0
 10
3.3895
 20
31.0052
 30
0.0
 10
3.3895
 20
31.0052
 30
0.0
 10
3.238
 20
30.9229
 30
0.0
 10
3.0777
 20
30.8815
 30
0.0
 10
2.9079
 20
30.8815
 30
0.0
 10
2.9079
 20
30.8815
 30
0.0
 10
2.7809
 20
30.8815
 30
0.0
 10
2.6661
 20
30.8993
 30
0.0
 10
2.5631
 20
30.9351
 30
0.0
 10
2.5631
 20
30.9351
 30
0.0
 10
2.4841
 20
30.9628
 30
0.0
 10
2.3919
 20
31.0155
 30
0.0
 10
2.286
 20
31.0936
 30
0.0
 10
2.286
 20
31.0936
 30
0.0
 10
2.286
 20
31.0936
 30
0.0
 10
2.0546
 20
30.8344
 30
0.0
 10
2.0546
 20
30.8344
 30
0.0
 10
2.0546
 20
30.8344
 30
0.0
 10
2.0546
 20
30.8344
 30
0.0
 10
1.9182
 20
30.9501
 30
0.0
 10
1.9182
 20
30.9501
 30
0.0
 10
1.9182
 20
30.9501
 30
0.0
 10
1.9182
 20
30.9501
 30
0.0
 10
2.1609
 20
31.2215
 30
0.0
 10
2.1609
 20
31.2215
 30
0.0
 10
2.1609
 20
31.2215
 30
0.0
 10
2.0706
 20
31.3584
 30
0.0
 10
2.0104
 20
31.4755
 30
0.0
 10
1.9803
 20
31.5724
 30
0.0
 10
1.9803
 20
31.5724
 30
0.0
 10
1.9502
 20
31.6693
 30
0.0
 10
1.9347
 20
31.786
 30
0.0
 10
1.9347
 20
31.9219
 30
0.0
 10
1.9347
 20
31.9219
 30
0.0
 10
1.9347
 20
32.1293
 30
0.0
 10
1.9761
 20
32.3142
 30
0.0
 10
2.0588
 20
32.4765
 30
0.0
 10
2.0588
 20
32.4765
 30
0.0
 10
2.1416
 20
32.6388
 30
0.0
 10
2.2573
 20
32.7615
 30
0.0
 10
2.4069
 20
32.8452
 30
0.0
 10
2.4069
 20
32.8452
 30
0.0
 10
2.556
 20
32.9285
 30
0.0
 10
2.7221
 20
32.9704
 30
0.0
 10
2.905
 20
32.9704
 30
0.0
 10
2.905
 20
32.9704
 30
0.0
 10
3.0283
 20
32.9704
 30
0.0
 10
3.136
 20
32.9544
 30
0.0
 10
3.2282
 20
32.9214
 30
0.0
 10
3.2282
 20
32.9214
 30
0.0
 10
3.3204
 20
32.889
 30
0.0
 10
3.4201
 20
32.8321
 30
0.0
 10
3.5264
 20
32.7512
 30
0.0
  0
SPLINE
  5
56
330
1F
100
AcDbEntity
  8
DEFAULT_1
 62
   250
100
AcDbSpline
210
0.0
220
0.0
230
1.0
 70
    11
 71
     3
 72
    32
 73
    28
 74
     0
 42
0.0000000001
 43
0.0000000001
 40
0.0
 40
0.0
 40
0.0
 40
0.0
 40
0.125
 40
0.125
 40
0.125
 40
0.125
 40
0.25
 40
0.25
 40
0.25
 40
0.25
 40
0.375
 40
0.375
 40
0.375
 40
0.375
 40
0.5
 40
0.5
 40
0.5
 40
0.5
 40
0.625
 40
0.625
 40
0.625
 40
0.625
 40
0.75
 40
0.75
 40
0.75
 40
0.75
 40
1.0
 40
1.0
 40
1.0
 40
1.0
 10
3.3613
 20
32.5654
 30
0.0
 10
3.2747
 20
32.6331
 30
0.0
 10
3.199
 20
32.6797
 30
0.0
 10
3.1346
 20
32.7046
 30
0.0
 10
3.1346
 20
32.7046
 30
0.0
 10
3.0697
 20
32.7291
 30
0.0
 10
2.9935
 20
32.7418
 30
0.0
 10
2.9064
 20
32.7418
 30
0.0
 10
2.9064
 20
32.7418
 30
0.0
 10
2.7051
 20
32.7418
 30
0.0
 10
2.5391
 20
32.6736
 30
0.0
 10
2.4074
 20
32.5372
 30
0.0
 10
2.4074
 20
32.5372
 30
0.0
 10
2.2761
 20
32.4007
 30
0.0
 10
2.2103
 20
32.1971
 30
0.0
 10
2.2103
 20
31.9257
 30
0.0
 10
2.2103
 20
31.9257
 30
0.0
 10
2.2103
 20
31.8194
 30
0.0
 10
2.2206
 20
31.7248
 30
0.0
 10
2.2409
 20
31.642
 30
0.0
 10
2.2409
 20
31.642
 30
0.0
 10
2.2555
 20
31.5804
 30
0.0
 10
2.286
 20
31.5047
 30
0.0
 10
2.3331
 20
31.4149
 30
0.0
 10
2.3331
 20
31.4149
 30
0.0
 10
2.3331
 20
31.4149
 30
0.0
 10
3.3613
 20
32.5654
 30
0.0
 10
3.3613
 20
32.5654
 30
0.0
  0
SPLINE
  5
57
330
1F
100
AcDbEntity
  8
DEFAULT_1
 62
   250
100
AcDbSpline
210
0.0
220
0.0
230
1.0
 70
    11
 71
     3
 72
    28
 73
    24
 74
     0
 42
0.0000000001
 43
0.0000000001
 40
0.0
 40
0.0
 40
0.0
 40
0.0
 40
0.1428571428571428
 40
0.1428571428571428
 40
0.1428571428571428
 40
0.1428571428571428
 40
0.2857142857142857
 40
0.2857142857142857
 40
0.2857142857142857
 40
0.2857142857142857
 40
0.4285714285714285
 40
0.4285714285714285
 40
0.4285714285714285
 40
0.4285714285714285
 40
0.5714285714285714
 40
0.5714285714285714
 40
0.5714285714285714
 40
0.5714285714285714
 40
0.7142857142857143
 40
0.7142857142857143
 40
0.7142857142857143
 40
0.7142857142857143
 40
1.0
 40
1.0
 40
1.0
 40
1.0
 10
3.4742
 20
32.4233
 30
0.0
 10
3.4742
 20
32.4233
 30
0.0
 10
2.4502
 20
31.277
 30
0.0
 10
2.4502
 20
31.277
 30
0.0
 10
2.4502
 20
31.277
 30
0.0
 10
2.5207
 20
31.2192
 30
0.0
 10
2.5861
 20
31.1787
 30
0.0
 10
2.6459
 20
31.1557
 30
0.0
 10
2.6459
 20
31.1557
 30
0.0
 10
2.7239
 20
31.1251
 30
0.0
 10
2.8086
 20
31.1101
 30
0.0
 10
2.8994
 20
31.1101
 30
0.0
 10
2.8994
 20
31.1101
 30
0.0
 10
3.0998
 20
31.1101
 30
0.0
 10
3.2649
 20
31.1806
 30
0.0
 10
3.3956
 20
31.3222
 30
0.0
 10
3.3956
 20
31.3222
 30
0.0
 10
3.5259
 20
31.4638
 30
0.0
 10
3.5913
 20
31.6623
 30
0.0
 10
3.5913
 20
31.9177
 30
0.0
 10
3.5913
 20
31.9177
 30
0.0
 10
3.5913
 20
32.1086
 30
0.0
 10
3.5523
 20
32.2775
 30
0.0
 10
3.4742
 20
32.4233
 30
0.0
  0
SPLINE
  5
58
330
1F
100
AcDbEntity
  8
DEFAULT_1
 62
   250
100
AcDbSpline
210
0.0
220
0.0
230
1.0
 70
    11
 71
     3
 72
    80
 73
    76
 74
     0
 42
0.0000000001
 43
0.0000000001
 40
0.0
 40
0.0
 40
0.0
 40
0.0
 40
0.05
 40
0.05
 40
0.05
 40
0.05
 40
0.1
 40
0.1
 40
0.1
 40
0.1
 40
0.15
 40
0.15
 40
0.15
 40
0.15
 40
0.2
 40
0.2
 40
0.2
 40
0.2
 40
0.25
 40
0.25
 40
0.25
 40
0.25
 40
0.3
 40
0.3
 40
0.3
 40
0.3
 40
0.35
 40
0.35
 40
0.35
 40
0.35
 40
0.4
 40
0.4
 40
0.4
 40
0.4
 40
0.45
 40
0.45
 40
0.45
 40
0.45
 40
0.5
 40
0.5
 40
0.5
 40
0.5
 40
0.55
 40
0.55
 40
0.55
 40
0.55
 40
0.6
 40
0.6
 40
0.6
 40
0.6
 40
0.65
 40
0.65
 40
0.65
 40
0.65
 40
0.7
 40
0.7
 40
0.7
 40
0.7
 40
0.75
 40
0.75
 40
0.75
 40
0.75
 40
0.8
 40
0.8
 40
0.8
 40
0.8
 40
0.85
 40
0.85
 40
0.85
 40
0.85
 40
0.9
 40
0.9
 40
0.9
 40
0.9
 40
1.0
 40
1.0
 40
1.0
 40
1.0
 10
5.4031
 20
32.4412
 30
0.0
 10
5.4031
 20
32.4412
 30
0.0
 10
5.1567
 20
32.4219
 30
0.0
 10
5.1567
 20
32.4219
 30
0.0
 10
5.1567
 20
32.4219
 30
0.0
 10
5.1346
 20
32.5193
 30
0.0
 10
5.1035
 20
32.5903
 30
0.0
 10
5.0631
 20
32.634
 30
0.0
 10
5.0631
 20
32.634
 30
0.0
 10
4.9958
 20
32.7051
 30
0.0
 10
4.913
 20
32.7404
 30
0.0
 10
4.8147
 20
32.7404
 30
0.0
 10
4.8147
 20
32.7404
 30
0.0
 10
4.7357
 20
32.7404
 30
0.0
 10
4.6666
 20
32.7182
 30
0.0
 10
4.6068
 20
32.674
 30
0.0
 10
4.6068
 20
32.674
 30
0.0
 10
4.5287
 20
32.6171
 30
0.0
 10
4.4671
 20
32.5339
 30
0.0
 10
4.422
 20
32.4247
 30
0.0
 10
4.422
 20
32.4247
 30
0.0
 10
4.3773
 20
32.3156
 30
0.0
 10
4.3538
 20
32.1599
 30
0.0
 10
4.3519
 20
31.9577
 30
0.0
 10
4.3519
 20
31.9577
 30
0.0
 10
4.4116
 20
32.0484
 30
0.0
 10
4.4845
 20
32.1162
 30
0.0
 10
4.5711
 20
32.1604
 30
0.0
 10
4.5711
 20
32.1604
 30
0.0
 10
4.6571
 20
32.2041
 30
0.0
 10
4.7479
 20
32.2262
 30
0.0
 10
4.8425
 20
32.2262
 30
0.0
 10
4.8425
 20
32.2262
 30
0.0
 10
5.008
 20
32.2262
 30
0.0
 10
5.1487
 20
32.1656
 30
0.0
 10
5.2649
 20
32.0437
 30
0.0
 10
5.2649
 20
32.0437
 30
0.0
 10
5.381
 20
31.9219
 30
0.0
 10
5.4394
 20
31.7648
 30
0.0
 10
5.4394
 20
31.572
 30
0.0
 10
5.4394
 20
31.572
 30
0.0
 10
5.4394
 20
31.445
 30
0.0
 10
5.4116
 20
31.3274
 30
0.0
 10
5.357
 20
31.2182
 30
0.0
 10
5.357
 20
31.2182
 30
0.0
 10
5.3025
 20
31.1096
 30
0.0
 10
5.2272
 20
31.0259
 30
0.0
 10
5.1317
 20
30.968
 30
0.0
 10
5.1317
 20
30.968
 30
0.0
 10
5.0363
 20
30.9102
 30
0.0
 10
4.9281
 20
30.8815
 30
0.0
 10
4.8067
 20
30.8815
 30
0.0
 10
4.8067
 20
30.8815
 30
0.0
 10
4.5998
 20
30.8815
 30
0.0
 10
4.4314
 20
30.9572
 30
0.0
 10
4.3011
 20
31.1096
 30
0.0
 10
4.3011
 20
31.1096
 30
0.0
 10
4.1703
 20
31.2615
 30
0.0
 10
4.1054
 20
31.5122
 30
0.0
 10
4.1054
 20
31.8612
 30
0.0
 10
4.1054
 20
31.8612
 30
0.0
 10
4.1054
 20
32.2516
 30
0.0
 10
4.1774
 20
32.5353
 30
0.0
 10
4.3218
 20
32.7126
 30
0.0
 10
4.3218
 20
32.7126
 30
0.0
 10
4.4474
 20
32.8669
 30
0.0
 10
4.6167
 20
32.9445
 30
0.0
 10
4.8302
 20
32.9445
 30
0.0
 10
4.8302
 20
32.9445
 30
0.0
 10
4.9888
 20
32.9445
 30
0.0
 10
5.119
 20
32.8998
 30
0.0
 10
5.2206
 20
32.8104
 30
0.0
 10
5.2206
 20
32.8104
 30
0.0
 10
5.3222
 20
32.7215
 30
0.0
 10
5.3829
 20
32.5983
 30
0.0
 10
5.4031
 20
32.4412
 30
0.0
  0
SPLINE
  5
59
330
1F
100
AcDbEntity
  8
DEFAULT_1
 62
   250
100
AcDbSpline
210
0.0
220
0.0
230
1.0
 70
    11
 71
     3
 72
    40
 73
    36
 74
     0
 42
0.0000000001
 43
0.0000000001
 40
0.0
 40
0.0
 40
0.0
 40
0.0
 40
0.1
 40
0.1
 40
0.1
 40
0.1
 40
0.2
 40
0.2
 40
0.2
 40
0.2
 40
0.3
 40
0.3
 40
0.3
 40
0.3
 40
0.4
 40
0.4
 40
0.4
 40
0.4
 40
0.5
 40
0.5
 40
0.5
 40
0.5
 40
0.6
 40
0.6
 40
0.6
 40
0.6
 40
0.7
 40
0.7
 40
0.7
 40
0.7
 40
0.8
 40
0.8
 40
0.8
 40
0.8
 40
1.0
 40
1.0
 40
1.0
 40
1.0
 10
4.3904
 20
31.5706
 30
0.0
 10
4.3904
 20
31.4849
 30
0.0
 10
4.4088
 20
31.4031
 30
0.0
 10
4.445
 20
31.325
 30
0.0
 10
4.445
 20
31.325
 30
0.0
 10
4.4812
 20
31.2469
 30
0.0
 10
4.532
 20
31.1877
 30
0.0
 10
4.5969
 20
31.1468
 30
0.0
 10
4.5969
 20
31.1468
 30
0.0
 10
4.6623
 20
31.1058
 30
0.0
 10
4.731
 20
31.0851
 30
0.0
 10
4.8025
 20
31.0851
 30
0.0
 10
4.8025
 20
31.0851
 30
0.0
 10
4.9074
 20
31.0851
 30
0.0
 10
4.9972
 20
31.1275
 30
0.0
 10
5.0725
 20
31.2121
 30
0.0
 10
5.0725
 20
31.2121
 30
0.0
 10
5.1477
 20
31.2968
 30
0.0
 10
5.1854
 20
31.4116
 30
0.0
 10
5.1854
 20
31.5564
 30
0.0
 10
5.1854
 20
31.5564
 30
0.0
 10
5.1854
 20
31.6961
 30
0.0
 10
5.1482
 20
31.8062
 30
0.0
 10
5.0739
 20
31.8866
 30
0.0
 10
5.0739
 20
31.8866
 30
0.0
 10
4.9996
 20
31.9671
 30
0.0
 10
4.906
 20
32.0071
 30
0.0
 10
4.7931
 20
32.0071
 30
0.0
 10
4.7931
 20
32.0071
 30
0.0
 10
4.6807
 20
32.0071
 30
0.0
 10
4.5856
 20
31.9671
 30
0.0
 10
4.5076
 20
31.8866
 30
0.0
 10
4.5076
 20
31.8866
 30
0.0
 10
4.4295
 20
31.8062
 30
0.0
 10
4.3904
 20
31.7008
 30
0.0
 10
4.3904
 20
31.5706
 30
0.0
  0
SPLINE
  5
5A
330
1F
100
AcDbEntity
  8
DEFAULT_1
 62
   250
100
AcDbSpline
210
0.0
220
0.0
230
1.0
 70
    11
 71
     3
 72
    92
 73
    88
 74
     0
 42
0.0000000001
 43
0.0000000001
 40
0.0
 40
0.0
 40
0.0
 40
0.0
 40
0.0434782608695652
 40
0.0434782608695652
 40
0.0434782608695652
 40
0.0434782608695652
 40
0.0869565217391304
 40
0.0869565217391304
 40
0.0869565217391304
 40
0.0869565217391304
 40
0.1304347826086956
 40
0.1304347826086956
 40
0.1304347826086956
 40
0.1304347826086956
 40
0.1739130434782609
 40
0.1739130434782609
 40
0.1739130434782609
 40
0.1739130434782609
 40
0.2173913043478261
 40
0.2173913043478261
 40
0.2173913043478261
 40
0.2173913043478261
 40
0.2608695652173913
 40
0.2608695652173913
 40
0.2608695652173913
 40
0.2608695652173913
 40
0.3043478260869565
 40
0.3043478260869565
 40
0.3043478260869565
 40
0.3043478260869565
 40
0.3478260869565217
 40
0.3478260869565217
 40
0.3478260869565217
 40
0.3478260869565217
 40
0.391304347826087
 40
0.391304347826087
 40
0.391304347826087
 40
0.391304347826087
 40
0.4347826086956522
 40
0.4347826086956522
 40
0.4347826086956522
 40
0.4347826086956522
 40
0.4782608695652174
 40
0.4782608695652174
 40
0.4782608695652174
 40
0.4782608695652174
 40
0.5217391304347826
 40
0.5217391304347826
 40
0.5217391304347826
 40
0.5217391304347826
 40
0.5652173913043478
 40
0.5652173913043478
 40
0.5652173913043478
 40
0.5652173913043478
 40
0.6086956521739131
 40
0.6086956521739131
 40
0.6086956521739131
 40
0.6086956521739131
 40
0.6521739130434783
 40
0.6521739130434783
 40
0.6521739130434783
 40
0.6521739130434783
 40
0.6956521739130435
 40
0.6956521739130435
 40
0.6956521739130435
 40
0.6956521739130435
 40
0.7391304347826086
 40
0.7391304347826086
 40
0.7391304347826086
 40
0.7391304347826086
 40
0.782608695652174
 40
0.782608695652174
 40
0.782608695652174
 40
0.782608695652174
 40
0.8260869565217391
 40
0.8260869565217391
 40
0.8260869565217391
 40
0.8260869565217391
 40
0.8695652173913043
 40
0.8695652173913043
 40
0.8695652173913043
 40
0.8695652173913043
 40
0.9130434782608695
 40
0.9130434782608695
 40
0.9130434782608695
 40
0.9130434782608695
 40
1.0
 40
1.0
 40
1.0
 40
1.0
 10
6.9897
 20
31.1543
 30
0.0
 10
6.9897
 20
31.1543
 30
0.0
 10
6.9897
 20
30.9158
 30
0.0
 10
6.9897
 20
30.9158
 30
0.0
 10
6.9897
 20
30.9158
 30
0.0
 10
6.9897
 20
30.9158
 30
0.0
 10
5.6543
 20
30.9158
 30
0.0
 10
5.6543
 20
30.9158
 30
0.0
 10
5.6543
 20
30.9158
 30
0.0
 10
5.6524
 20
30.9755
 30
0.0
 10
5.6618
 20
31.0329
 30
0.0
 10
5.683
 20
31.088
 30
0.0
 10
5.683
 20
31.088
 30
0.0
 10
5.7169
 20
31.1792
 30
0.0
 10
5.7714
 20
31.2686
 30
0.0
 10
5.8462
 20
31.357
 30
0.0
 10
5.8462
 20
31.357
 30
0.0
 10
5.9215
 20
31.445
 30
0.0
 10
6.0297
 20
31.547
 30
0.0
 10
6.1708
 20
31.6627
 30
0.0
 10
6.1708
 20
31.6627
 30
0.0
 10
6.3904
 20
31.8429
 30
0.0
 10
6.5391
 20
31.9854
 30
0.0
 10
6.6162
 20
32.0908
 30
0.0
 10
6.6162
 20
32.0908
 30
0.0
 10
6.6933
 20
32.1957
 30
0.0
 10
6.7319
 20
32.2954
 30
0.0
 10
6.7319
 20
32.389
 30
0.0
 10
6.7319
 20
32.389
 30
0.0
 10
6.7319
 20
32.4873
 30
0.0
 10
6.6966
 20
32.5701
 30
0.0
 10
6.6266
 20
32.6378
 30
0.0
 10
6.6266
 20
32.6378
 30
0.0
 10
6.556
 20
32.7051
 30
0.0
 10
6.4643
 20
32.7389
 30
0.0
 10
6.3514
 20
32.7389
 30
0.0
 10
6.3514
 20
32.7389
 30
0.0
 10
6.2319
 20
32.7389
 30
0.0
 10
6.1364
 20
32.7032
 30
0.0
 10
6.0649
 20
32.6312
 30
0.0
 10
6.0649
 20
32.6312
 30
0.0
 10
5.993
 20
32.5597
 30
0.0
 10
5.9568
 20
32.4605
 30
0.0
 10
5.9558
 20
32.334
 30
0.0
 10
5.9558
 20
32.334
 30
0.0
 10
5.9558
 20
32.334
 30
0.0
 10
5.7009
 20
32.3598
 30
0.0
 10
5.7009
 20
32.3598
 30
0.0
 10
5.7009
 20
32.3598
 30
0.0
 10
5.7183
 20
32.5503
 30
0.0
 10
5.7841
 20
32.6952
 30
0.0
 10
5.898
 20
32.7949
 30
0.0
 10
5.898
 20
32.7949
 30
0.0
 10
6.0118
 20
32.8946
 30
0.0
 10
6.1651
 20
32.9445
 30
0.0
 10
6.357
 20
32.9445
 30
0.0
 10
6.357
 20
32.9445
 30
0.0
 10
6.5508
 20
32.9445
 30
0.0
 10
6.7042
 20
32.8904
 30
0.0
 10
6.8171
 20
32.7832
 30
0.0
 10
6.8171
 20
32.7832
 30
0.0
 10
6.9304
 20
32.6754
 30
0.0
 10
6.9869
 20
32.5423
 30
0.0
 10
6.9869
 20
32.3833
 30
0.0
 10
6.9869
 20
32.3833
 30
0.0
 10
6.9869
 20
32.3024
 30
0.0
 10
6.9704
 20
32.2229
 30
0.0
 10
6.937
 20
32.1449
 30
0.0
 10
6.937
 20
32.1449
 30
0.0
 10
6.9041
 20
32.0668
 30
0.0
 10
6.849
 20
31.9845
 30
0.0
 10
6.7724
 20
31.8984
 30
0.0
 10
6.7724
 20
31.8984
 30
0.0
 10
6.6957
 20
31.8118
 30
0.0
 10
6.5682
 20
31.6933
 30
0.0
 10
6.39
 20
31.5428
 30
0.0
 10
6.39
 20
31.5428
 30
0.0
 10
6.2413
 20
31.4177
 30
0.0
 10
6.1458
 20
31.333
 30
0.0
 10
6.1035
 20
31.2883
 30
0.0
 10
6.1035
 20
31.2883
 30
0.0
 10
6.0612
 20
31.2441
 30
0.0
 10
6.0264
 20
31.1994
 30
0.0
 10
5.9986
 20
31.1543
 30
0.0
 10
5.9986
 20
31.1543
 30
0.0
 10
5.9986
 20
31.1543
 30
0.0
 10
6.9897
 20
31.1543
 30
0.0
 10
6.9897
 20
31.1543
 30
0.0
  0
SPLINE
  5
5B
330
1F
100
AcDbEntity
  8
DEFAULT_1
 62
   250
100
AcDbSpline
210
0.0
220
0.0
230
1.0
 70
    11
 71
     3
 72
    48
 73
    44
 74
     0
 42
0.0000000001
 43
0.0000000001
 40
0.0
 40
0.0
 40
0.0
 40
0.0
 40
0.0833333333333333
 40
0.0833333333333333
 40
0.0833333333333333
 40
0.0833333333333333
 40
0.1666666666666667
 40
0.1666666666666667
 40
0.1666666666666667
 40
0.1666666666666667
 40
0.25
 40
0.25
 40
0.25
 40
0.25
 40
0.3333333333333333
 40
0.3333333333333333
 40
0.3333333333333333
 40
0.3333333333333333
 40
0.4166666666666667
 40
0.4166666666666667
 40
0.4166666666666667
 40
0.4166666666666667
 40
0.5
 40
0.5
 40
0.5
 40
0.5
 40
0.5833333333333334
 40
0.5833333333333334
 40
0.5833333333333334
 40
0.5833333333333334
 40
0.6666666666666666
 40
0.6666666666666666
 40
0.6666666666666666
 40
0.6666666666666666
 40
0.75
 40
0.75
 40
0.75
 40
0.75
 40
0.8333333333333334
 40
0.8333333333333334
 40
0.8333333333333334
 40
0.8333333333333334
 40
1.0
 40
1.0
 40
1.0
 40
1.0
 10
-16.7709
 20
-11.8536
 30
0.0
 10
-16.7709
 20
-11.8536
 30
0.0
 10
-17.2544
 20
-11.8536
 30
0.0
 10
-17.2544
 20
-11.8536
 30
0.0
 10
-17.2544
 20
-11.8536
 30
0.0
 10
-17.2544
 20
-11.8536
 30
0.0
 10
-17.2544
 20
-12.7299
 30
0.0
 10
-17.2544
 20
-12.7299
 30
0.0
 10
-17.2544
 20
-12.7299
 30
0.0
 10
-17.2544
 20
-12.7299
 30
0.0
 10
-17.4821
 20
-12.7299
 30
0.0
 10
-17.4821
 20
-12.7299
 30
0.0
 10
-17.4821
 20
-12.7299
 30
0.0
 10
-17.4821
 20
-12.7299
 30
0.0
 10
-18.7911
 20
-11.8079
 30
0.0
 10
-18.7911
 20
-11.8079
 30
0.0
 10
-18.7911
 20
-11.8079
 30
0.0
 10
-18.7911
 20
-11.8079
 30
0.0
 10
-18.7911
 20
-11.6052
 30
0.0
 10
-18.7911
 20
-11.6052
 30
0.0
 10
-18.7911
 20
-11.6052
 30
0.0
 10
-18.7911
 20
-11.6052
 30
0.0
 10
-17.4821
 20
-11.6052
 30
0.0
 10
-17.4821
 20
-11.6052
 30
0.0
 10
-17.4821
 20
-11.6052
 30
0.0
 10
-17.4821
 20
-11.6052
 30
0.0
 10
-17.4821
 20
-11.3324
 30
0.0
 10
-17.4821
 20
-11.3324
 30
0.0
 10
-17.4821
 20
-11.3324
 30
0.0
 10
-17.4821
 20
-11.3324
 30
0.0
 10
-17.2544
 20
-11.3324
 30
0.0
 10
-17.2544
 20
-11.3324
 30
0.0
 10
-17.2544
 20
-11.3324
 30
0.0
 10
-17.2544
 20
-11.3324
 30
0.0
 10
-17.2544
 20
-11.6052
 30
0.0
 10
-17.2544
 20
-11.6052
 30
0.0
 10
-17.2544
 20
-11.6052
 30
0.0
 10
-17.2544
 20
-11.6052
 30
0.0
 10
-16.7709
 20
-11.6052
 30
0.0
 10
-16.7709
 20
-11.6052
 30
0.0
 10
-16.7709
 20
-11.6052
 30
0.0
 10
-16.7709
 20
-11.6052
 30
0.0
 10
-16.7709
 20
-11.8536
 30
0.0
 10
-16.7709
 20
-11.8536
 30
0.0
  0
SPLINE
  5
5C
330
1F
100
AcDbEntity
  8
DEFAULT_1
 62
   250
100
AcDbSpline
210
0.0
220
0.0
230
1.0
 70
    11
 71
     3
 72
    16
 73
    12
 74
     0
 42
0.0000000001
 43
0.0000000001
 40
0.0
 40
0.0
 40
0.0
 40
0.0
 40
0.25
 40
0.25
 40
0.25
 40
0.25
 40
0.5
 40
0.5
 40
0.5
 40
0.5
 40
1.0
 40
1.0
 40
1.0
 40
1.0
 10
-17.4821
 20
-11.8536
 30
0.0
 10
-17.4821
 20
-11.8536
 30
0.0
 10
-18.3927
 20
-11.8536
 30
0.0
 10
-18.3927
 20
-11.8536
 30
0.0
 10
-18.3927
 20
-11.8536
 30
0.0
 10
-18.3927
 20
-11.8536
 30
0.0
 10
-17.4821
 20
-12.4857
 30
0.0
 10
-17.4821
 20
-12.4857
 30
0.0
 10
-17.4821
 20
-12.4857
 30
0.0
 10
-17.4821
 20
-12.4857
 30
0.0
 10
-17.4821
 20
-11.8536
 30
0.0
 10
-17.4821
 20
-11.8536
 30
0.0
  0
SPLINE
  5
5D
330
1F
100
AcDbEntity
  8
DEFAULT_1
 62
   250
100
AcDbSpline
210
0.0
220
0.0
230
1.0
 70
    11
 71
     3
 72
    92
 73
    88
 74
     0
 42
0.0000000001
 43
0.0000000001
 40
0.0
 40
0.0
 40
0.0
 40
0.0
 40
0.0434782608695652
 40
0.0434782608695652
 40
0.0434782608695652
 40
0.0434782608695652
 40
0.0869565217391304
 40
0.0869565217391304
 40
0.0869565217391304
 40
0.0869565217391304
 40
0.1304347826086956
 40
0.1304347826086956
 40
0.1304347826086956
 40
0.1304347826086956
 40
0.1739130434782609
 40
0.1739130434782609
 40
0.1739130434782609
 40
0.1739130434782609
 40
0.2173913043478261
 40
0.2173913043478261
 40
0.2173913043478261
 40
0.2173913043478261
 40
0.2608695652173913
 40
0.2608695652173913
 40
0.2608695652173913
 40
0.2608695652173913
 40
0.3043478260869565
 40
0.3043478260869565
 40
0.3043478260869565
 40
0.3043478260869565
 40
0.3478260869565217
 40
0.3478260869565217
 40
0.3478260869565217
 40
0.3478260869565217
 40
0.391304347826087
 40
0.391304347826087
 40
0.391304347826087
 40
0.391304347826087
 40
0.4347826086956522
 40
0.4347826086956522
 40
0.4347826086956522
 40
0.4347826086956522
 40
0.4782608695652174
 40
0.4782608695652174
 40
0.4782608695652174
 40
0.4782608695652174
 40
0.5217391304347826
 40
0.5217391304347826
 40
0.5217391304347826
 40
0.5217391304347826
 40
0.5652173913043478
 40
0.5652173913043478
 40
0.5652173913043478
 40
0.5652173913043478
 40
0.6086956521739131
 40
0.6086956521739131
 40
0.6086956521739131
 40
0.6086956521739131
 40
0.6521739130434783
 40
0.6521739130434783
 40
0.6521739130434783
 40
0.6521739130434783
 40
0.6956521739130435
 40
0.6956521739130435
 40
0.6956521739130435
 40
0.6956521739130435
 40
0.7391304347826086
 40
0.7391304347826086
 40
0.7391304347826086
 40
0.7391304347826086
 40
0.782608695652174
 40
0.782608695652174
 40
0.782608695652174
 40
0.782608695652174
 40
0.8260869565217391
 40
0.8260869565217391
 40
0.8260869565217391
 40
0.8260869565217391
 40
0.8695652173913043
 40
0.8695652173913043
 40
0.8695652173913043
 40
0.8695652173913043
 40
0.9130434782608695
 40
0.9130434782608695
 40
0.9130434782608695
 40
0.9130434782608695
 40
1.0
 40
1.0
 40
1.0
 40
1.0
 10
-17.0094
 20
-9.775
 30
0.0
 10
-17.0094
 20
-9.775
 30
0.0
 10
-16.7709
 20
-9.775
 30
0.0
 10
-16.7709
 20
-9.775
 30
0.0
 10
-16.7709
 20
-9.775
 30
0.0
 10
-16.7709
 20
-9.775
 30
0.0
 10
-16.7709
 20
-11.1104
 30
0.0
 10
-16.7709
 20
-11.1104
 30
0.0
 10
-16.7709
 20
-11.1104
 30
0.0
 10
-16.8306
 20
-11.1123
 30
0.0
 10
-16.888
 20
-11.1029
 30
0.0
 10
-16.9431
 20
-11.0817
 30
0.0
 10
-16.9431
 20
-11.0817
 30
0.0
 10
-17.0343
 20
-11.0478
 30
0.0
 10
-17.1237
 20
-10.9933
 30
0.0
 10
-17.2121
 20
-10.9185
 30
0.0
 10
-17.2121
 20
-10.9185
 30
0.0
 10
-17.3001
 20
-10.8432
 30
0.0
 10
-17.4021
 20
-10.735
 30
0.0
 10
-17.5178
 20
-10.5939
 30
0.0
 10
-17.5178
 20
-10.5939
 30
0.0
 10
-17.698
 20
-10.3743
 30
0.0
 10
-17.8405
 20
-10.2256
 30
0.0
 10
-17.9459
 20
-10.1485
 30
0.0
 10
-17.9459
 20
-10.1485
 30
0.0
 10
-18.0508
 20
-10.0714
 30
0.0
 10
-18.1505
 20
-10.0328
 30
0.0
 10
-18.2441
 20
-10.0328
 30
0.0
 10
-18.2441
 20
-10.0328
 30
0.0
 10
-18.3424
 20
-10.0328
 30
0.0
 10
-18.4252
 20
-10.0681
 30
0.0
 10
-18.4929
 20
-10.1381
 30
0.0
 10
-18.4929
 20
-10.1381
 30
0.0
 10
-18.5602
 20
-10.2087
 30
0.0
 10
-18.594
 20
-10.3004
 30
0.0
 10
-18.594
 20
-10.4133
 30
0.0
 10
-18.594
 20
-10.4133
 30
0.0
 10
-18.594
 20
-10.5328
 30
0.0
 10
-18.5583
 20
-10.6283
 30
0.0
 10
-18.4863
 20
-10.6998
 30
0.0
 10
-18.4863
 20
-10.6998
 30
0.0
 10
-18.4148
 20
-10.7717
 30
0.0
 10
-18.3156
 20
-10.8079
 30
0.0
 10
-18.1891
 20
-10.8089
 30
0.0
 10
-18.1891
 20
-10.8089
 30
0.0
 10
-18.1891
 20
-10.8089
 30
0.0
 10
-18.2149
 20
-11.0638
 30
0.0
 10
-18.2149
 20
-11.0638
 30
0.0
 10
-18.2149
 20
-11.0638
 30
0.0
 10
-18.4054
 20
-11.0464
 30
0.0
 10
-18.5503
 20
-10.9806
 30
0.0
 10
-18.65
 20
-10.8667
 30
0.0
 10
-18.65
 20
-10.8667
 30
0.0
 10
-18.7497
 20
-10.7529
 30
0.0
 10
-18.7996
 20
-10.5996
 30
0.0
 10
-18.7996
 20
-10.4077
 30
0.0
 10
-18.7996
 20
-10.4077
 30
0.0
 10
-18.7996
 20
-10.2139
 30
0.0
 10
-18.7455
 20
-10.0605
 30
0.0
 10
-18.6383
 20
-9.9476
 30
0.0
 10
-18.6383
 20
-9.9476
 30
0.0
 10
-18.5305
 20
-9.8343
 30
0.0
 10
-18.3974
 20
-9.7778
 30
0.0
 10
-18.2384
 20
-9.7778
 30
0.0
 10
-18.2384
 20
-9.7778
 30
0.0
 10
-18.1575
 20
-9.7778
 30
0.0
 10
-18.078
 20
-9.7943
 30
0.0
 10
-18.0
 20
-9.8277
 30
0.0
 10
-18.0
 20
-9.8277
 30
0.0
 10
-17.9219
 20
-9.8606
 30
0.0
 10
-17.8396
 20
-9.9157
 30
0.0
 10
-17.7535
 20
-9.9923
 30
0.0
 10
-17.7535
 20
-9.9923
 30
0.0
 10
-17.6669
 20
-10.069
 30
0.0
 10
-17.5484
 20
-10.1965
 30
0.0
 10
-17.3979
 20
-10.3747
 30
0.0
 10
-17.3979
 20
-10.3747
 30
0.0
 10
-17.2728
 20
-10.5234
 30
0.0
 10
-17.1881
 20
-10.6189
 30
0.0
 10
-17.1434
 20
-10.6612
 30
0.0
 10
-17.1434
 20
-10.6612
 30
0.0
 10
-17.0992
 20
-10.7035
 30
0.0
 10
-17.0545
 20
-10.7383
 30
0.0
 10
-17.0094
 20
-10.7661
 30
0.0
 10
-17.0094
 20
-10.7661
 30
0.0
 10
-17.0094
 20
-10.7661
 30
0.0
 10
-17.0094
 20
-9.775
 30
0.0
 10
-17.0094
 20
-9.775
 30
0.0
  0
SPLINE
  5
5E
330
1F
100
AcDbEntity
  8
DEFAULT_1
 62
   250
100
AcDbSpline
210
0.0
220
0.0
230
1.0
 70
    11
 71
     3
 72
    20
 73
    16
 74
     0
 42
0.0000000001
 43
0.0000000001
 40
0.0
 40
0.0
 40
0.0
 40
0.0
 40
0.2
 40
0.2
 40
0.2
 40
0.2
 40
0.4
 40
0.4
 40
0.4
 40
0.4
 40
0.6
 40
0.6
 40
0.6
 40
0.6
 40
1.0
 40
1.0
 40
1.0
 40
1.0
 10
11.2706
 20
-25.5215
 30
0.0
 10
11.2706
 20
-25.5215
 30
0.0
 10
14.3515
 20
-25.9563
 30
0.0
 10
14.3515
 20
-25.9563
 30
0.0
 10
14.3515
 20
-25.9563
 30
0.0
 10
14.3515
 20
-25.9563
 30
0.0
 10
14.3515
 20
-26.0529
 30
0.0
 10
14.3515
 20
-26.0529
 30
0.0
 10
14.3515
 20
-26.0529
 30
0.0
 10
14.3515
 20
-26.0529
 30
0.0
 10
11.2706
 20
-26.5166
 30
0.0
 10
11.2706
 20
-26.5166
 30
0.0
 10
11.2706
 20
-26.5166
 30
0.0
 10
11.2706
 20
-26.5166
 30
0.0
 10
11.2706
 20
-25.5215
 30
0.0
 10
11.2706
 20
-25.5215
 30
0.0
  0
SPLINE
  5
5F
330
1F
100
AcDbEntity
  8
DEFAULT_1
 62
   250
100
AcDbSpline
210
0.0
220
0.0
230
1.0
 70
    11
 71
     3
 72
    20
 73
    16
 74
     0
 42
0.0000000001
 43
0.0000000001
 40
0.0
 40
0.0
 40
0.0
 40
0.0
 40
0.2
 40
0.2
 40
0.2
 40
0.2
 40
0.4
 40
0.4
 40
0.4
 40
0.4
 40
0.6
 40
0.6
 40
0.6
 40
0.6
 40
1.0
 40
1.0
 40
1.0
 40
1.0
 10
-1.0777
 20
-26.4403
 30
0.0
 10
-1.0777
 20
-26.4403
 30
0.0
 10
-4.1587
 20
-26.0055
 30
0.0
 10
-4.1587
 20
-26.0055
 30
0.0
 10
-4.1587
 20
-26.0055
 30
0.0
 10
-4.1587
 20
-26.0055
 30
0.0
 10
-4.1587
 20
-25.9089
 30
0.0
 10
-4.1587
 20
-25.9089
 30
0.0
 10
-4.1587
 20
-25.9089
 30
0.0
 10
-4.1587
 20
-25.9089
 30
0.0
 10
-1.0777
 20
-25.4452
 30
0.0
 10
-1.0777
 20
-25.4452
 30
0.0
 10
-1.0777
 20
-25.4452
 30
0.0
 10
-1.0777
 20
-25.4452
 30
0.0
 10
-1.0777
 20
-26.4403
 30
0.0
 10
-1.0777
 20
-26.4403
 30
0.0
  0
SPLINE
  5
60
330
1F
100
AcDbEntity
  8
DEFAULT_1
 62
   250
100
AcDbSpline
210
0.0
220
0.0
230
1.0
 70
    11
 71
     3
 72
   120
 73
   116
 74
     0
 42
0.0000000001
 43
0.0000000001
 40
0.0
 40
0.0
 40
0.0
 40
0.0
 40
0.0333333333333333
 40
0.0333333333333333
 40
0.0333333333333333
 40
0.0333333333333333
 40
0.0666666666666667
 40
0.0666666666666667
 40
0.0666666666666667
 40
0.0666666666666667
 40
0.1
 40
0.1
 40
0.1
 40
0.1
 40
0.1333333333333333
 40
0.1333333333333333
 40
0.1333333333333333
 40
0.1333333333333333
 40
0.1666666666666667
 40
0.1666666666666667
 40
0.1666666666666667
 40
0.1666666666666667
 40
0.2
 40
0.2
 40
0.2
 40
0.2
 40
0.2333333333333333
 40
0.2333333333333333
 40
0.2333333333333333
 40
0.2333333333333333
 40
0.2666666666666667
 40
0.2666666666666667
 40
0.2666666666666667
 40
0.2666666666666667
 40
0.3
 40
0.3
 40
0.3
 40
0.3
 40
0.3333333333333333
 40
0.3333333333333333
 40
0.3333333333333333
 40
0.3333333333333333
 40
0.3666666666666666
 40
0.3666666666666666
 40
0.3666666666666666
 40
0.3666666666666666
 40
0.4
 40
0.4
 40
0.4
 40
0.4
 40
0.4333333333333333
 40
0.4333333333333333
 40
0.4333333333333333
 40
0.4333333333333333
 40
0.4666666666666667
 40
0.4666666666666667
 40
0.4666666666666667
 40
0.4666666666666667
 40
0.5
 40
0.5
 40
0.5
 40
0.5
 40
0.5333333333333333
 40
0.5333333333333333
 40
0.5333333333333333
 40
0.5333333333333333
 40
0.5666666666666667
 40
0.5666666666666667
 40
0.5666666666666667
 40
0.5666666666666667
 40
0.6
 40
0.6
 40
0.6
 40
0.6
 40
0.6333333333333333
 40
0.6333333333333333
 40
0.6333333333333333
 40
0.6333333333333333
 40
0.6666666666666666
 40
0.6666666666666666
 40
0.6666666666666666
 40
0.6666666666666666
 40
0.7
 40
0.7
 40
0.7
 40
0.7
 40
0.7333333333333333
 40
0.7333333333333333
 40
0.7333333333333333
 40
0.7333333333333333
 40
0.7666666666666667
 40
0.7666666666666667
 40
0.7666666666666667
 40
0.7666666666666667
 40
0.8
 40
0.8
 40
0.8
 40
0.8
 40
0.8333333333333334
 40
0.8333333333333334
 40
0.8333333333333334
 40
0.8333333333333334
 40
0.8666666666666667
 40
0.8666666666666667
 40
0.8666666666666667
 40
0.8666666666666667
 40
0.9
 40
0.9
 40
0.9
 40
0.9
 40
0.9333333333333333
 40
0.9333333333333333
 40
0.9333333333333333
 40
0.9333333333333333
 40
1.0
 40
1.0
 40
1.0
 40
1.0
 10
2.1296
 20
-24.4558
 30
0.0
 10
2.1296
 20
-24.4558
 30
0.0
 10
2.1296
 20
-24.2192
 30
0.0
 10
2.1296
 20
-24.2192
 30
0.0
 10
2.1296
 20
-24.2192
 30
0.0
 10
2.1296
 20
-24.2192
 30
0.0
 10
2.9852
 20
-24.2178
 30
0.0
 10
2.9852
 20
-24.2178
 30
0.0
 10
2.9852
 20
-24.2178
 30
0.0
 10
2.9852
 20
-24.2178
 30
0.0
 10
2.9852
 20
-24.9671
 30
0.0
 10
2.9852
 20
-24.9671
 30
0.0
 10
2.9852
 20
-24.9671
 30
0.0
 10
2.854
 20
-25.072
 30
0.0
 10
2.7185
 20
-25.1506
 30
0.0
 10
2.5788
 20
-25.2037
 30
0.0
 10
2.5788
 20
-25.2037
 30
0.0
 10
2.4391
 20
-25.2564
 30
0.0
 10
2.2957
 20
-25.2827
 30
0.0
 10
2.1489
 20
-25.2827
 30
0.0
 10
2.1489
 20
-25.2827
 30
0.0
 10
1.9504
 20
-25.2827
 30
0.0
 10
1.7698
 20
-25.2404
 30
0.0
 10
1.608
 20
-25.1553
 30
0.0
 10
1.608
 20
-25.1553
 30
0.0
 10
1.4457
 20
-25.0706
 30
0.0
 10
1.3234
 20
-24.9474
 30
0.0
 10
1.2406
 20
-24.787
 30
0.0
 10
1.2406
 20
-24.787
 30
0.0
 10
1.1578
 20
-24.6261
 30
0.0
 10
1.1164
 20
-24.4464
 30
0.0
 10
1.1164
 20
-24.2479
 30
0.0
 10
1.1164
 20
-24.2479
 30
0.0
 10
1.1164
 20
-24.0513
 30
0.0
 10
1.1578
 20
-23.8679
 30
0.0
 10
1.2402
 20
-23.6976
 30
0.0
 10
1.2402
 20
-23.6976
 30
0.0
 10
1.322
 20
-23.5269
 30
0.0
 10
1.4405
 20
-23.4003
 30
0.0
 10
1.5948
 20
-23.3175
 30
0.0
 10
1.5948
 20
-23.3175
 30
0.0
 10
1.7491
 20
-23.2352
 30
0.0
 10
1.9269
 20
-23.1938
 30
0.0
 10
2.1282
 20
-23.1938
 30
0.0
 10
2.1282
 20
-23.1938
 30
0.0
 10
2.274
 20
-23.1938
 30
0.0
 10
2.4062
 20
-23.2174
 30
0.0
 10
2.5243
 20
-23.2649
 30
0.0
 10
2.5243
 20
-23.2649
 30
0.0
 10
2.6423
 20
-23.3119
 30
0.0
 10
2.735
 20
-23.3778
 30
0.0
 10
2.8018
 20
-23.4624
 30
0.0
 10
2.8018
 20
-23.4624
 30
0.0
 10
2.869
 20
-23.5471
 30
0.0
 10
2.9198
 20
-23.6571
 30
0.0
 10
2.9551
 20
-23.7931
 30
0.0
 10
2.9551
 20
-23.7931
 30
0.0
 10
2.9551
 20
-23.7931
 30
0.0
 10
2.7138
 20
-23.8594
 30
0.0
 10
2.7138
 20
-23.8594
 30
0.0
 10
2.7138
 20
-23.8594
 30
0.0
 10
2.6832
 20
-23.7564
 30
0.0
 10
2.6456
 20
-23.6755
 30
0.0
 10
2.6009
 20
-23.6167
 30
0.0
 10
2.6009
 20
-23.6167
 30
0.0
 10
2.5558
 20
-23.5579
 30
0.0
 10
2.4913
 20
-23.5109
 30
0.0
 10
2.4076
 20
-23.4756
 30
0.0
 10
2.4076
 20
-23.4756
 30
0.0
 10
2.3243
 20
-23.4403
 30
0.0
 10
2.2312
 20
-23.4224
 30
0.0
 10
2.1296
 20
-23.4224
 30
0.0
 10
2.1296
 20
-23.4224
 30
0.0
 10
2.0073
 20
-23.4224
 30
0.0
 10
1.9015
 20
-23.4413
 30
0.0
 10
1.8126
 20
-23.4784
 30
0.0
 10
1.8126
 20
-23.4784
 30
0.0
 10
1.7232
 20
-23.5156
 30
0.0
 10
1.6517
 20
-23.5645
 30
0.0
 10
1.5967
 20
-23.6252
 30
0.0
 10
1.5967
 20
-23.6252
 30
0.0
 10
1.5421
 20
-23.6858
 30
0.0
 10
1.4998
 20
-23.7522
 30
0.0
 10
1.4692
 20
-23.8251
 30
0.0
 10
1.4692
 20
-23.8251
 30
0.0
 10
1.418
 20
-23.9497
 30
0.0
 10
1.3921
 20
-24.0852
 30
0.0
 10
1.3921
 20
-24.2315
 30
0.0
 10
1.3921
 20
-24.2315
 30
0.0
 10
1.3921
 20
-24.4116
 30
0.0
 10
1.4231
 20
-24.5621
 30
0.0
 10
1.4852
 20
-24.6835
 30
0.0
 10
1.4852
 20
-24.6835
 30
0.0
 10
1.5473
 20
-24.8048
 30
0.0
 10
1.6376
 20
-24.8947
 30
0.0
 10
1.7561
 20
-24.9535
 30
0.0
 10
1.7561
 20
-24.9535
 30
0.0
 10
1.8747
 20
-25.0123
 30
0.0
 10
2.0003
 20
-25.0419
 30
0.0
 10
2.1334
 20
-25.0419
 30
0.0
 10
2.1334
 20
-25.0419
 30
0.0
 10
2.2496
 20
-25.0419
 30
0.0
 10
2.3624
 20
-25.0193
 30
0.0
 10
2.4725
 20
-24.9746
 30
0.0
 10
2.4725
 20
-24.9746
 30
0.0
 10
2.5831
 20
-24.9304
 30
0.0
 10
2.6663
 20
-24.8829
 30
0.0
 10
2.7232
 20
-24.8321
 30
0.0
 10
2.7232
 20
-24.8321
 30
0.0
 10
2.7232
 20
-24.8321
 30
0.0
 10
2.7232
 20
-24.4558
 30
0.0
 10
2.7232
 20
-24.4558
 30
0.0
 10
2.7232
 20
-24.4558
 30
0.0
 10
2.7232
 20
-24.4558
 30
0.0
 10
2.1296
 20
-24.4558
 30
0.0
 10
2.1296
 20
-24.4558
 30
0.0
  0
SPLINE
  5
61
330
1F
100
AcDbEntity
  8
DEFAULT_1
 62
   250
100
AcDbSpline
210
0.0
220
0.0
230
1.0
 70
    11
 71
     3
 72
    92
 73
    88
 74
     0
 42
0.0000000001
 43
0.0000000001
 40
0.0
 40
0.0
 40
0.0
 40
0.0
 40
0.0434782608695652
 40
0.0434782608695652
 40
0.0434782608695652
 40
0.0434782608695652
 40
0.0869565217391304
 40
0.0869565217391304
 40
0.0869565217391304
 40
0.0869565217391304
 40
0.1304347826086956
 40
0.1304347826086956
 40
0.1304347826086956
 40
0.1304347826086956
 40
0.1739130434782609
 40
0.1739130434782609
 40
0.1739130434782609
 40
0.1739130434782609
 40
0.2173913043478261
 40
0.2173913043478261
 40
0.2173913043478261
 40
0.2173913043478261
 40
0.2608695652173913
 40
0.2608695652173913
 40
0.2608695652173913
 40
0.2608695652173913
 40
0.3043478260869565
 40
0.3043478260869565
 40
0.3043478260869565
 40
0.3043478260869565
 40
0.3478260869565217
 40
0.3478260869565217
 40
0.3478260869565217
 40
0.3478260869565217
 40
0.391304347826087
 40
0.391304347826087
 40
0.391304347826087
 40
0.391304347826087
 40
0.4347826086956522
 40
0.4347826086956522
 40
0.4347826086956522
 40
0.4347826086956522
 40
0.4782608695652174
 40
0.4782608695652174
 40
0.4782608695652174
 40
0.4782608695652174
 40
0.5217391304347826
 40
0.5217391304347826
 40
0.5217391304347826
 40
0.5217391304347826
 40
0.5652173913043478
 40
0.5652173913043478
 40
0.5652173913043478
 40
0.5652173913043478
 40
0.6086956521739131
 40
0.6086956521739131
 40
0.6086956521739131
 40
0.6086956521739131
 40
0.6521739130434783
 40
0.6521739130434783
 40
0.6521739130434783
 40
0.6521739130434783
 40
0.6956521739130435
 40
0.6956521739130435
 40
0.6956521739130435
 40
0.6956521739130435
 40
0.7391304347826086
 40
0.7391304347826086
 40
0.7391304347826086
 40
0.7391304347826086
 40
0.782608695652174
 40
0.782608695652174
 40
0.782608695652174
 40
0.782608695652174
 40
0.8260869565217391
 40
0.8260869565217391
 40
0.8260869565217391
 40
0.8260869565217391
 40
0.8695652173913043
 40
0.8695652173913043
 40
0.8695652173913043
 40
0.8695652173913043
 40
0.9130434782608695
 40
0.9130434782608695
 40
0.9130434782608695
 40
0.9130434782608695
 40
1.0
 40
1.0
 40
1.0
 40
1.0
 10
4.0628
 20
-24.7192
 30
0.0
 10
4.0628
 20
-24.7192
 30
0.0
 10
4.3234
 20
-24.6971
 30
0.0
 10
4.3234
 20
-24.6971
 30
0.0
 10
4.3234
 20
-24.6971
 30
0.0
 10
4.3427
 20
-24.8241
 30
0.0
 10
4.3874
 20
-24.9191
 30
0.0
 10
4.4575
 20
-24.9831
 30
0.0
 10
4.4575
 20
-24.9831
 30
0.0
 10
4.528
 20
-25.0471
 30
0.0
 10
4.6127
 20
-25.0791
 30
0.0
 10
4.7119
 20
-25.0791
 30
0.0
 10
4.7119
 20
-25.0791
 30
0.0
 10
4.8314
 20
-25.0791
 30
0.0
 10
4.9325
 20
-25.0339
 30
0.0
 10
5.0148
 20
-24.9441
 30
0.0
 10
5.0148
 20
-24.9441
 30
0.0
 10
5.0976
 20
-24.8538
 30
0.0
 10
5.139
 20
-24.7343
 30
0.0
 10
5.139
 20
-24.5857
 30
0.0
 10
5.139
 20
-24.5857
 30
0.0
 10
5.139
 20
-24.4441
 30
0.0
 10
5.0995
 20
-24.3326
 30
0.0
 10
5.02
 20
-24.2508
 30
0.0
 10
5.02
 20
-24.2508
 30
0.0
 10
4.9405
 20
-24.1689
 30
0.0
 10
4.8366
 20
-24.128
 30
0.0
 10
4.7077
 20
-24.128
 30
0.0
 10
4.7077
 20
-24.128
 30
0.0
 10
4.6277
 20
-24.128
 30
0.0
 10
4.5558
 20
-24.1463
 30
0.0
 10
4.4913
 20
-24.1825
 30
0.0
 10
4.4913
 20
-24.1825
 30
0.0
 10
4.4269
 20
-24.2188
 30
0.0
 10
4.3766
 20
-24.2658
 30
0.0
 10
4.3399
 20
-24.3237
 30
0.0
 10
4.3399
 20
-24.3237
 30
0.0
 10
4.3399
 20
-24.3237
 30
0.0
 10
4.107
 20
-24.2936
 30
0.0
 10
4.107
 20
-24.2936
 30
0.0
 10
4.107
 20
-24.2936
 30
0.0
 10
4.107
 20
-24.2936
 30
0.0
 10
4.3027
 20
-23.2559
 30
0.0
 10
4.3027
 20
-23.2559
 30
0.0
 10
4.3027
 20
-23.2559
 30
0.0
 10
4.3027
 20
-23.2559
 30
0.0
 10
5.3074
 20
-23.2559
 30
0.0
 10
5.3074
 20
-23.2559
 30
0.0
 10
5.3074
 20
-23.2559
 30
0.0
 10
5.3074
 20
-23.2559
 30
0.0
 10
5.3074
 20
-23.493
 30
0.0
 10
5.3074
 20
-23.493
 30
0.0
 10
5.3074
 20
-23.493
 30
0.0
 10
5.3074
 20
-23.493
 30
0.0
 10
4.5012
 20
-23.493
 30
0.0
 10
4.5012
 20
-23.493
 30
0.0
 10
4.5012
 20
-23.493
 30
0.0
 10
4.5012
 20
-23.493
 30
0.0
 10
4.3921
 20
-24.0358
 30
0.0
 10
4.3921
 20
-24.0358
 30
0.0
 10
4.3921
 20
-24.0358
 30
0.0
 10
4.5134
 20
-23.9511
 30
0.0
 10
4.6409
 20
-23.9088
 30
0.0
 10
4.774
 20
-23.9088
 30
0.0
 10
4.774
 20
-23.9088
 30
0.0
 10
4.9504
 20
-23.9088
 30
0.0
 10
5.099
 20
-23.9699
 30
0.0
 10
5.2204
 20
-24.0922
 30
0.0
 10
5.2204
 20
-24.0922
 30
0.0
 10
5.3417
 20
-24.2145
 30
0.0
 10
5.4024
 20
-24.3716
 30
0.0
 10
5.4024
 20
-24.5635
 30
0.0
 10
5.4024
 20
-24.5635
 30
0.0
 10
5.4024
 20
-24.7465
 30
0.0
 10
5.3488
 20
-24.9046
 30
0.0
 10
5.2425
 20
-25.0377
 30
0.0
 10
5.2425
 20
-25.0377
 30
0.0
 10
5.1127
 20
-25.2009
 30
0.0
 10
4.9358
 20
-25.2827
 30
0.0
 10
4.7119
 20
-25.2827
 30
0.0
 10
4.7119
 20
-25.2827
 30
0.0
 10
4.528
 20
-25.2827
 30
0.0
 10
4.378
 20
-25.2315
 30
0.0
 10
4.2618
 20
-25.1285
 30
0.0
 10
4.2618
 20
-25.1285
 30
0.0
 10
4.1456
 20
-25.0254
 30
0.0
 10
4.0793
 20
-24.889
 30
0.0
 10
4.0628
 20
-24.7192
 30
0.0
  0
SPLINE
  5
62
330
1F
100
AcDbEntity
  8
DEFAULT_1
 62
   250
100
AcDbSpline
210
0.0
220
0.0
230
1.0
 70
    11
 71
     3
 72
    20
 73
    16
 74
     0
 42
0.0000000001
 43
0.0000000001
 40
0.0
 40
0.0
 40
0.0
 40
0.0
 40
0.2
 40
0.2
 40
0.2
 40
0.2
 40
0.4
 40
0.4
 40
0.4
 40
0.4
 40
0.6
 40
0.6
 40
0.6
 40
0.6
 40
1.0
 40
1.0
 40
1.0
 40
1.0
 10
5.5153
 20
-25.2827
 30
0.0
 10
5.5153
 20
-25.2827
 30
0.0
 10
6.1009
 20
-23.1938
 30
0.0
 10
6.1009
 20
-23.1938
 30
0.0
 10
6.1009
 20
-23.1938
 30
0.0
 10
6.1009
 20
-23.1938
 30
0.0
 10
6.2994
 20
-23.1938
 30
0.0
 10
6.2994
 20
-23.1938
 30
0.0
 10
6.2994
 20
-23.1938
 30
0.0
 10
6.2994
 20
-23.1938
 30
0.0
 10
5.7152
 20
-25.2827
 30
0.0
 10
5.7152
 20
-25.2827
 30
0.0
 10
5.7152
 20
-25.2827
 30
0.0
 10
5.7152
 20
-25.2827
 30
0.0
 10
5.5153
 20
-25.2827
 30
0.0
 10
5.5153
 20
-25.2827
 30
0.0
  0
SPLINE
  5
63
330
1F
100
AcDbEntity
  8
DEFAULT_1
 62
   250
100
AcDbSpline
210
0.0
220
0.0
230
1.0
 70
    11
 71
     3
 72
    48
 73
    44
 74
     0
 42
0.0000000001
 43
0.0000000001
 40
0.0
 40
0.0
 40
0.0
 40
0.0
 40
0.0833333333333333
 40
0.0833333333333333
 40
0.0833333333333333
 40
0.0833333333333333
 40
0.1666666666666667
 40
0.1666666666666667
 40
0.1666666666666667
 40
0.1666666666666667
 40
0.25
 40
0.25
 40
0.25
 40
0.25
 40
0.3333333333333333
 40
0.3333333333333333
 40
0.3333333333333333
 40
0.3333333333333333
 40
0.4166666666666667
 40
0.4166666666666667
 40
0.4166666666666667
 40
0.4166666666666667
 40
0.5
 40
0.5
 40
0.5
 40
0.5
 40
0.5833333333333334
 40
0.5833333333333334
 40
0.5833333333333334
 40
0.5833333333333334
 40
0.6666666666666666
 40
0.6666666666666666
 40
0.6666666666666666
 40
0.6666666666666666
 40
0.75
 40
0.75
 40
0.75
 40
0.75
 40
0.8333333333333334
 40
0.8333333333333334
 40
0.8333333333333334
 40
0.8333333333333334
 40
1.0
 40
1.0
 40
1.0
 40
1.0
 10
7.2114
 20
-25.2484
 30
0.0
 10
7.2114
 20
-25.2484
 30
0.0
 10
7.2114
 20
-24.7649
 30
0.0
 10
7.2114
 20
-24.7649
 30
0.0
 10
7.2114
 20
-24.7649
 30
0.0
 10
7.2114
 20
-24.7649
 30
0.0
 10
6.3351
 20
-24.7649
 30
0.0
 10
6.3351
 20
-24.7649
 30
0.0
 10
6.3351
 20
-24.7649
 30
0.0
 10
6.3351
 20
-24.7649
 30
0.0
 10
6.3351
 20
-24.5372
 30
0.0
 10
6.3351
 20
-24.5372
 30
0.0
 10
6.3351
 20
-24.5372
 30
0.0
 10
6.3351
 20
-24.5372
 30
0.0
 10
7.2571
 20
-23.2282
 30
0.0
 10
7.2571
 20
-23.2282
 30
0.0
 10
7.2571
 20
-23.2282
 30
0.0
 10
7.2571
 20
-23.2282
 30
0.0
 10
7.4598
 20
-23.2282
 30
0.0
 10
7.4598
 20
-23.2282
 30
0.0
 10
7.4598
 20
-23.2282
 30
0.0
 10
7.4598
 20
-23.2282
 30
0.0
 10
7.4598
 20
-24.5372
 30
0.0
 10
7.4598
 20
-24.5372
 30
0.0
 10
7.4598
 20
-24.5372
 30
0.0
 10
7.4598
 20
-24.5372
 30
0.0
 10
7.7326
 20
-24.5372
 30
0.0
 10
7.7326
 20
-24.5372
 30
0.0
 10
7.7326
 20
-24.5372
 30
0.0
 10
7.7326
 20
-24.5372
 30
0.0
 10
7.7326
 20
-24.7649
 30
0.0
 10
7.7326
 20
-24.7649
 30
0.0
 10
7.7326
 20
-24.7649
 30
0.0
 10
7.7326
 20
-24.7649
 30
0.0
 10
7.4598
 20
-24.7649
 30
0.0
 10
7.4598
 20
-24.7649
 30
0.0
 10
7.4598
 20
-24.7649
 30
0.0
 10
7.4598
 20
-24.7649
 30
0.0
 10
7.4598
 20
-25.2484
 30
0.0
 10
7.4598
 20
-25.2484
 30
0.0
 10
7.4598
 20
-25.2484
 30
0.0
 10
7.4598
 20
-25.2484
 30
0.0
 10
7.2114
 20
-25.2484
 30
0.0
 10
7.2114
 20
-25.2484
 30
0.0
  0
SPLINE
  5
64
330
1F
100
AcDbEntity
  8
DEFAULT_1
 62
   250
100
AcDbSpline
210
0.0
220
0.0
230
1.0
 70
    11
 71
     3
 72
    16
 73
    12
 74
     0
 42
0.0000000001
 43
0.0000000001
 40
0.0
 40
0.0
 40
0.0
 40
0.0
 40
0.25
 40
0.25
 40
0.25
 40
0.25
 40
0.5
 40
0.5
 40
0.5
 40
0.5
 40
1.0
 40
1.0
 40
1.0
 40
1.0
 10
7.2114
 20
-24.5372
 30
0.0
 10
7.2114
 20
-24.5372
 30
0.0
 10
7.2114
 20
-23.6266
 30
0.0
 10
7.2114
 20
-23.6266
 30
0.0
 10
7.2114
 20
-23.6266
 30
0.0
 10
7.2114
 20
-23.6266
 30
0.0
 10
6.5793
 20
-24.5372
 30
0.0
 10
6.5793
 20
-24.5372
 30
0.0
 10
6.5793
 20
-24.5372
 30
0.0
 10
6.5793
 20
-24.5372
 30
0.0
 10
7.2114
 20
-24.5372
 30
0.0
 10
7.2114
 20
-24.5372
 30
0.0
  0
SPLINE
  5
65
330
1F
100
AcDbEntity
  8
DEFAULT_1
 62
   250
100
AcDbSpline
210
0.0
220
0.0
230
1.0
 70
    11
 71
     3
 72
    28
 73
    24
 74
     0
 42
0.0000000001
 43
0.0000000001
 40
0.0
 40
0.0
 40
0.0
 40
0.0
 40
0.1428571428571428
 40
0.1428571428571428
 40
0.1428571428571428
 40
0.1428571428571428
 40
0.2857142857142857
 40
0.2857142857142857
 40
0.2857142857142857
 40
0.2857142857142857
 40
0.4285714285714285
 40
0.4285714285714285
 40
0.4285714285714285
 40
0.4285714285714285
 40
0.5714285714285714
 40
0.5714285714285714
 40
0.5714285714285714
 40
0.5714285714285714
 40
0.7142857142857143
 40
0.7142857142857143
 40
0.7142857142857143
 40
0.7142857142857143
 40
1.0
 40
1.0
 40
1.0
 40
1.0
 10
8.0675
 20
-23.9436
 30
0.0
 10
8.0675
 20
-23.9436
 30
0.0
 10
7.9984
 20
-23.5588
 30
0.0
 10
7.9984
 20
-23.5588
 30
0.0
 10
7.9984
 20
-23.5588
 30
0.0
 10
7.9984
 20
-23.5588
 30
0.0
 10
7.9984
 20
-23.2282
 30
0.0
 10
7.9984
 20
-23.2282
 30
0.0
 10
7.9984
 20
-23.2282
 30
0.0
 10
7.9984
 20
-23.2282
 30
0.0
 10
8.281
 20
-23.2282
 30
0.0
 10
8.281
 20
-23.2282
 30
0.0
 10
8.281
 20
-23.2282
 30
0.0
 10
8.281
 20
-23.2282
 30
0.0
 10
8.281
 20
-23.5588
 30
0.0
 10
8.281
 20
-23.5588
 30
0.0
 10
8.281
 20
-23.5588
 30
0.0
 10
8.281
 20
-23.5588
 30
0.0
 10
8.219
 20
-23.9436
 30
0.0
 10
8.219
 20
-23.9436
 30
0.0
 10
8.219
 20
-23.9436
 30
0.0
 10
8.219
 20
-23.9436
 30
0.0
 10
8.0675
 20
-23.9436
 30
0.0
 10
8.0675
 20
-23.9436
 30
0.0
  0
SPLINE
  5
66
330
1F
100
AcDbEntity
  8
DEFAULT_1
 62
   250
100
AcDbSpline
210
0.0
220
0.0
230
1.0
 70
    11
 71
     3
 72
    28
 73
    24
 74
     0
 42
0.0000000001
 43
0.0000000001
 40
0.0
 40
0.0
 40
0.0
 40
0.0
 40
0.1428571428571428
 40
0.1428571428571428
 40
0.1428571428571428
 40
0.1428571428571428
 40
0.2857142857142857
 40
0.2857142857142857
 40
0.2857142857142857
 40
0.2857142857142857
 40
0.4285714285714285
 40
0.4285714285714285
 40
0.4285714285714285
 40
0.4285714285714285
 40
0.5714285714285714
 40
0.5714285714285714
 40
0.5714285714285714
 40
0.5714285714285714
 40
0.7142857142857143
 40
0.7142857142857143
 40
0.7142857142857143
 40
0.7142857142857143
 40
1.0
 40
1.0
 40
1.0
 40
1.0
 10
8.5238
 20
-23.9436
 30
0.0
 10
8.5238
 20
-23.9436
 30
0.0
 10
8.456
 20
-23.5588
 30
0.0
 10
8.456
 20
-23.5588
 30
0.0
 10
8.456
 20
-23.5588
 30
0.0
 10
8.456
 20
-23.5588
 30
0.0
 10
8.456
 20
-23.2282
 30
0.0
 10
8.456
 20
-23.2282
 30
0.0
 10
8.456
 20
-23.2282
 30
0.0
 10
8.456
 20
-23.2282
 30
0.0
 10
8.7387
 20
-23.2282
 30
0.0
 10
8.7387
 20
-23.2282
 30
0.0
 10
8.7387
 20
-23.2282
 30
0.0
 10
8.7387
 20
-23.2282
 30
0.0
 10
8.7387
 20
-23.5588
 30
0.0
 10
8.7387
 20
-23.5588
 30
0.0
 10
8.7387
 20
-23.5588
 30
0.0
 10
8.7387
 20
-23.5588
 30
0.0
 10
8.6724
 20
-23.9436
 30
0.0
 10
8.6724
 20
-23.9436
 30
0.0
 10
8.6724
 20
-23.9436
 30
0.0
 10
8.6724
 20
-23.9436
 30
0.0
 10
8.5238
 20
-23.9436
 30
0.0
 10
8.5238
 20
-23.9436
 30
0.0
  0
SPLINE
  5
67
330
1F
100
AcDbEntity
  8
DEFAULT_1
 62
   250
100
AcDbSpline
210
0.0
220
0.0
230
1.0
 70
    11
 71
     3
 72
    84
 73
    80
 74
     0
 42
0.0000000001
 43
0.0000000001
 40
0.0
 40
0.0
 40
0.0
 40
0.0
 40
0.0476190476190476
 40
0.0476190476190476
 40
0.0476190476190476
 40
0.0476190476190476
 40
0.0952380952380952
 40
0.0952380952380952
 40
0.0952380952380952
 40
0.0952380952380952
 40
0.1428571428571428
 40
0.1428571428571428
 40
0.1428571428571428
 40
0.1428571428571428
 40
0.1904761904761905
 40
0.1904761904761905
 40
0.1904761904761905
 40
0.1904761904761905
 40
0.2380952380952381
 40
0.2380952380952381
 40
0.2380952380952381
 40
0.2380952380952381
 40
0.2857142857142857
 40
0.2857142857142857
 40
0.2857142857142857
 40
0.2857142857142857
 40
0.3333333333333333
 40
0.3333333333333333
 40
0.3333333333333333
 40
0.3333333333333333
 40
0.3809523809523809
 40
0.3809523809523809
 40
0.3809523809523809
 40
0.3809523809523809
 40
0.4285714285714285
 40
0.4285714285714285
 40
0.4285714285714285
 40
0.4285714285714285
 40
0.4761904761904762
 40
0.4761904761904762
 40
0.4761904761904762
 40
0.4761904761904762
 40
0.5238095238095238
 40
0.5238095238095238
 40
0.5238095238095238
 40
0.5238095238095238
 40
0.5714285714285714
 40
0.5714285714285714
 40
0.5714285714285714
 40
0.5714285714285714
 40
0.6190476190476191
 40
0.6190476190476191
 40
0.6190476190476191
 40
0.6190476190476191
 40
0.6666666666666666
 40
0.6666666666666666
 40
0.6666666666666666
 40
0.6666666666666666
 40
0.7142857142857143
 40
0.7142857142857143
 40
0.7142857142857143
 40
0.7142857142857143
 40
0.7619047619047619
 40
0.7619047619047619
 40
0.7619047619047619
 40
0.7619047619047619
 40
0.8095238095238095
 40
0.8095238095238095
 40
0.8095238095238095
 40
0.8095238095238095
 40
0.8571428571428571
 40
0.8571428571428571
 40
0.8571428571428571
 40
0.8571428571428571
 40
0.9047619047619048
 40
0.9047619047619048
 40
0.9047619047619048
 40
0.9047619047619048
 40
1.0
 40
1.0
 40
1.0
 40
1.0
 10
4.697
 20
-29.7907
 30
0.0
 10
4.697
 20
-29.7907
 30
0.0
 10
4.9284
 20
-29.5316
 30
0.0
 10
4.9284
 20
-29.5316
 30
0.0
 10
4.9284
 20
-29.5316
 30
0.0
 10
4.9284
 20
-29.5316
 30
0.0
 10
5.0648
 20
-29.6473
 30
0.0
 10
5.0648
 20
-29.6473
 30
0.0
 10
5.0648
 20
-29.6473
 30
0.0
 10
5.0648
 20
-29.6473
 30
0.0
 10
4.8226
 20
-29.9201
 30
0.0
 10
4.8226
 20
-29.9201
 30
0.0
 10
4.8226
 20
-29.9201
 30
0.0
 10
4.9016
 20
-30.0377
 30
0.0
 10
4.9547
 20
-30.1407
 30
0.0
 10
4.9825
 20
-30.2286
 30
0.0
 10
4.9825
 20
-30.2286
 30
0.0
 10
5.0192
 20
-30.3444
 30
0.0
 10
5.0375
 20
-30.4742
 30
0.0
 10
5.0375
 20
-30.6172
 30
0.0
 10
5.0375
 20
-30.6172
 30
0.0
 10
5.0375
 20
-30.8241
 30
0.0
 10
4.9957
 20
-31.0085
 30
0.0
 10
4.9119
 20
-31.1698
 30
0.0
 10
4.9119
 20
-31.1698
 30
0.0
 10
4.8282
 20
-31.3317
 30
0.0
 10
4.7111
 20
-31.4539
 30
0.0
 10
4.5601
 20
-31.5367
 30
0.0
 10
4.5601
 20
-31.5367
 30
0.0
 10
4.4086
 20
-31.619
 30
0.0
 10
4.2483
 20
-31.6604
 30
0.0
 10
4.0785
 20
-31.6604
 30
0.0
 10
4.0785
 20
-31.6604
 30
0.0
 10
3.9515
 20
-31.6604
 30
0.0
 10
3.8367
 20
-31.6426
 30
0.0
 10
3.7337
 20
-31.6068
 30
0.0
 10
3.7337
 20
-31.6068
 30
0.0
 10
3.6547
 20
-31.5791
 30
0.0
 10
3.5625
 20
-31.5264
 30
0.0
 10
3.4566
 20
-31.4483
 30
0.0
 10
3.4566
 20
-31.4483
 30
0.0
 10
3.4566
 20
-31.4483
 30
0.0
 10
3.2252
 20
-31.7075
 30
0.0
 10
3.2252
 20
-31.7075
 30
0.0
 10
3.2252
 20
-31.7075
 30
0.0
 10
3.2252
 20
-31.7075
 30
0.0
 10
3.0888
 20
-31.5918
 30
0.0
 10
3.0888
 20
-31.5918
 30
0.0
 10
3.0888
 20
-31.5918
 30
0.0
 10
3.0888
 20
-31.5918
 30
0.0
 10
3.3315
 20
-31.3204
 30
0.0
 10
3.3315
 20
-31.3204
 30
0.0
 10
3.3315
 20
-31.3204
 30
0.0
 10
3.2412
 20
-31.1835
 30
0.0
 10
3.181
 20
-31.0664
 30
0.0
 10
3.1509
 20
-30.9695
 30
0.0
 10
3.1509
 20
-30.9695
 30
0.0
 10
3.1208
 20
-30.8726
 30
0.0
 10
3.1053
 20
-30.7559
 30
0.0
 10
3.1053
 20
-30.62
 30
0.0
 10
3.1053
 20
-30.62
 30
0.0
 10
3.1053
 20
-30.4126
 30
0.0
 10
3.1467
 20
-30.2277
 30
0.0
 10
3.2294
 20
-30.0654
 30
0.0
 10
3.2294
 20
-30.0654
 30
0.0
 10
3.3122
 20
-29.9031
 30
0.0
 10
3.4279
 20
-29.7804
 30
0.0
 10
3.5775
 20
-29.6967
 30
0.0
 10
3.5775
 20
-29.6967
 30
0.0
 10
3.7266
 20
-29.6134
 30
0.0
 10
3.8927
 20
-29.5715
 30
0.0
 10
4.0756
 20
-29.5715
 30
0.0
 10
4.0756
 20
-29.5715
 30
0.0
 10
4.1989
 20
-29.5715
 30
0.0
 10
4.3066
 20
-29.5875
 30
0.0
 10
4.3988
 20
-29.6205
 30
0.0
 10
4.3988
 20
-29.6205
 30
0.0
 10
4.491
 20
-29.6529
 30
0.0
 10
4.5907
 20
-29.7098
 30
0.0
 10
4.697
 20
-29.7907
 30
0.0
  0
SPLINE
  5
68
330
1F
100
AcDbEntity
  8
DEFAULT_1
 62
   250
100
AcDbSpline
210
0.0
220
0.0
230
1.0
 70
    11
 71
     3
 72
    32
 73
    28
 74
     0
 42
0.0000000001
 43
0.0000000001
 40
0.0
 40
0.0
 40
0.0
 40
0.0
 40
0.125
 40
0.125
 40
0.125
 40
0.125
 40
0.25
 40
0.25
 40
0.25
 40
0.25
 40
0.375
 40
0.375
 40
0.375
 40
0.375
 40
0.5
 40
0.5
 40
0.5
 40
0.5
 40
0.625
 40
0.625
 40
0.625
 40
0.625
 40
0.75
 40
0.75
 40
0.75
 40
0.75
 40
1.0
 40
1.0
 40
1.0
 40
1.0
 10
4.5319
 20
-29.9765
 30
0.0
 10
4.4453
 20
-29.9088
 30
0.0
 10
4.3696
 20
-29.8622
 30
0.0
 10
4.3052
 20
-29.8373
 30
0.0
 10
4.3052
 20
-29.8373
 30
0.0
 10
4.2403
 20
-29.8128
 30
0.0
 10
4.1641
 20
-29.8001
 30
0.0
 10
4.077
 20
-29.8001
 30
0.0
 10
4.077
 20
-29.8001
 30
0.0
 10
3.8757
 20
-29.8001
 30
0.0
 10
3.7097
 20
-29.8683
 30
0.0
 10
3.578
 20
-30.0047
 30
0.0
 10
3.578
 20
-30.0047
 30
0.0
 10
3.4467
 20
-30.1412
 30
0.0
 10
3.3809
 20
-30.3448
 30
0.0
 10
3.3809
 20
-30.6162
 30
0.0
 10
3.3809
 20
-30.6162
 30
0.0
 10
3.3809
 20
-30.7225
 30
0.0
 10
3.3912
 20
-30.8171
 30
0.0
 10
3.4115
 20
-30.8999
 30
0.0
 10
3.4115
 20
-30.8999
 30
0.0
 10
3.4261
 20
-30.9615
 30
0.0
 10
3.4566
 20
-31.0372
 30
0.0
 10
3.5037
 20
-31.127
 30
0.0
 10
3.5037
 20
-31.127
 30
0.0
 10
3.5037
 20
-31.127
 30
0.0
 10
4.5319
 20
-29.9765
 30
0.0
 10
4.5319
 20
-29.9765
 30
0.0
  0
SPLINE
  5
69
330
1F
100
AcDbEntity
  8
DEFAULT_1
 62
   250
100
AcDbSpline
210
0.0
220
0.0
230
1.0
 70
    11
 71
     3
 72
    28
 73
    24
 74
     0
 42
0.0000000001
 43
0.0000000001
 40
0.0
 40
0.0
 40
0.0
 40
0.0
 40
0.1428571428571428
 40
0.1428571428571428
 40
0.1428571428571428
 40
0.1428571428571428
 40
0.2857142857142857
 40
0.2857142857142857
 40
0.2857142857142857
 40
0.2857142857142857
 40
0.4285714285714285
 40
0.4285714285714285
 40
0.4285714285714285
 40
0.4285714285714285
 40
0.5714285714285714
 40
0.5714285714285714
 40
0.5714285714285714
 40
0.5714285714285714
 40
0.7142857142857143
 40
0.7142857142857143
 40
0.7142857142857143
 40
0.7142857142857143
 40
1.0
 40
1.0
 40
1.0
 40
1.0
 10
4.6448
 20
-30.1186
 30
0.0
 10
4.6448
 20
-30.1186
 30
0.0
 10
3.6208
 20
-31.2649
 30
0.0
 10
3.6208
 20
-31.2649
 30
0.0
 10
3.6208
 20
-31.2649
 30
0.0
 10
3.6913
 20
-31.3227
 30
0.0
 10
3.7567
 20
-31.3632
 30
0.0
 10
3.8165
 20
-31.3862
 30
0.0
 10
3.8165
 20
-31.3862
 30
0.0
 10
3.8945
 20
-31.4168
 30
0.0
 10
3.9792
 20
-31.4318
 30
0.0
 10
4.07
 20
-31.4318
 30
0.0
 10
4.07
 20
-31.4318
 30
0.0
 10
4.2704
 20
-31.4318
 30
0.0
 10
4.4355
 20
-31.3613
 30
0.0
 10
4.5662
 20
-31.2197
 30
0.0
 10
4.5662
 20
-31.2197
 30
0.0
 10
4.6965
 20
-31.0781
 30
0.0
 10
4.7619
 20
-30.8796
 30
0.0
 10
4.7619
 20
-30.6242
 30
0.0
 10
4.7619
 20
-30.6242
 30
0.0
 10
4.7619
 20
-30.4333
 30
0.0
 10
4.7229
 20
-30.2644
 30
0.0
 10
4.6448
 20
-30.1186
 30
0.0
  0
SPLINE
  5
6A
330
1F
100
AcDbEntity
  8
DEFAULT_1
 62
   250
100
AcDbSpline
210
0.0
220
0.0
230
1.0
 70
    11
 71
     3
 72
    48
 73
    44
 74
     0
 42
0.0000000001
 43
0.0000000001
 40
0.0
 40
0.0
 40
0.0
 40
0.0
 40
0.0833333333333333
 40
0.0833333333333333
 40
0.0833333333333333
 40
0.0833333333333333
 40
0.1666666666666667
 40
0.1666666666666667
 40
0.1666666666666667
 40
0.1666666666666667
 40
0.25
 40
0.25
 40
0.25
 40
0.25
 40
0.3333333333333333
 40
0.3333333333333333
 40
0.3333333333333333
 40
0.3333333333333333
 40
0.4166666666666667
 40
0.4166666666666667
 40
0.4166666666666667
 40
0.4166666666666667
 40
0.5
 40
0.5
 40
0.5
 40
0.5
 40
0.5833333333333334
 40
0.5833333333333334
 40
0.5833333333333334
 40
0.5833333333333334
 40
0.6666666666666666
 40
0.6666666666666666
 40
0.6666666666666666
 40
0.6666666666666666
 40
0.75
 40
0.75
 40
0.75
 40
0.75
 40
0.8333333333333334
 40
0.8333333333333334
 40
0.8333333333333334
 40
0.8333333333333334
 40
1.0
 40
1.0
 40
1.0
 40
1.0
 10
6.0817
 20
-31.6261
 30
0.0
 10
6.0817
 20
-31.6261
 30
0.0
 10
6.0817
 20
-31.1426
 30
0.0
 10
6.0817
 20
-31.1426
 30
0.0
 10
6.0817
 20
-31.1426
 30
0.0
 10
6.0817
 20
-31.1426
 30
0.0
 10
5.2054
 20
-31.1426
 30
0.0
 10
5.2054
 20
-31.1426
 30
0.0
 10
5.2054
 20
-31.1426
 30
0.0
 10
5.2054
 20
-31.1426
 30
0.0
 10
5.2054
 20
-30.9149
 30
0.0
 10
5.2054
 20
-30.9149
 30
0.0
 10
5.2054
 20
-30.9149
 30
0.0
 10
5.2054
 20
-30.9149
 30
0.0
 10
6.1274
 20
-29.6059
 30
0.0
 10
6.1274
 20
-29.6059
 30
0.0
 10
6.1274
 20
-29.6059
 30
0.0
 10
6.1274
 20
-29.6059
 30
0.0
 10
6.3301
 20
-29.6059
 30
0.0
 10
6.3301
 20
-29.6059
 30
0.0
 10
6.3301
 20
-29.6059
 30
0.0
 10
6.3301
 20
-29.6059
 30
0.0
 10
6.3301
 20
-30.9149
 30
0.0
 10
6.3301
 20
-30.9149
 30
0.0
 10
6.3301
 20
-30.9149
 30
0.0
 10
6.3301
 20
-30.9149
 30
0.0
 10
6.6029
 20
-30.9149
 30
0.0
 10
6.6029
 20
-30.9149
 30
0.0
 10
6.6029
 20
-30.9149
 30
0.0
 10
6.6029
 20
-30.9149
 30
0.0
 10
6.6029
 20
-31.1426
 30
0.0
 10
6.6029
 20
-31.1426
 30
0.0
 10
6.6029
 20
-31.1426
 30
0.0
 10
6.6029
 20
-31.1426
 30
0.0
 10
6.3301
 20
-31.1426
 30
0.0
 10
6.3301
 20
-31.1426
 30
0.0
 10
6.3301
 20
-31.1426
 30
0.0
 10
6.3301
 20
-31.1426
 30
0.0
 10
6.3301
 20
-31.6261
 30
0.0
 10
6.3301
 20
-31.6261
 30
0.0
 10
6.3301
 20
-31.6261
 30
0.0
 10
6.3301
 20
-31.6261
 30
0.0
 10
6.0817
 20
-31.6261
 30
0.0
 10
6.0817
 20
-31.6261
 30
0.0
  0
SPLINE
  5
6B
330
1F
100
AcDbEntity
  8
DEFAULT_1
 62
   250
100
AcDbSpline
210
0.0
220
0.0
230
1.0
 70
    11
 71
     3
 72
    16
 73
    12
 74
     0
 42
0.0000000001
 43
0.0000000001
 40
0.0
 40
0.0
 40
0.0
 40
0.0
 40
0.25
 40
0.25
 40
0.25
 40
0.25
 40
0.5
 40
0.5
 40
0.5
 40
0.5
 40
1.0
 40
1.0
 40
1.0
 40
1.0
 10
6.0817
 20
-30.9149
 30
0.0
 10
6.0817
 20
-30.9149
 30
0.0
 10
6.0817
 20
-30.0043
 30
0.0
 10
6.0817
 20
-30.0043
 30
0.0
 10
6.0817
 20
-30.0043
 30
0.0
 10
6.0817
 20
-30.0043
 30
0.0
 10
5.4496
 20
-30.9149
 30
0.0
 10
5.4496
 20
-30.9149
 30
0.0
 10
5.4496
 20
-30.9149
 30
0.0
 10
5.4496
 20
-30.9149
 30
0.0
 10
6.0817
 20
-30.9149
 30
0.0
 10
6.0817
 20
-30.9149
 30
0.0
  0
SPLINE
  5
6C
330
1F
100
AcDbEntity
  8
DEFAULT_1
 62
   250
100
AcDbSpline
210
0.0
220
0.0
230
1.0
 70
    11
 71
     3
 72
    92
 73
    88
 74
     0
 42
0.0000000001
 43
0.0000000001
 40
0.0
 40
0.0
 40
0.0
 40
0.0
 40
0.0434782608695652
 40
0.0434782608695652
 40
0.0434782608695652
 40
0.0434782608695652
 40
0.0869565217391304
 40
0.0869565217391304
 40
0.0869565217391304
 40
0.0869565217391304
 40
0.1304347826086956
 40
0.1304347826086956
 40
0.1304347826086956
 40
0.1304347826086956
 40
0.1739130434782609
 40
0.1739130434782609
 40
0.1739130434782609
 40
0.1739130434782609
 40
0.2173913043478261
 40
0.2173913043478261
 40
0.2173913043478261
 40
0.2173913043478261
 40
0.2608695652173913
 40
0.2608695652173913
 40
0.2608695652173913
 40
0.2608695652173913
 40
0.3043478260869565
 40
0.3043478260869565
 40
0.3043478260869565
 40
0.3043478260869565
 40
0.3478260869565217
 40
0.3478260869565217
 40
0.3478260869565217
 40
0.3478260869565217
 40
0.391304347826087
 40
0.391304347826087
 40
0.391304347826087
 40
0.391304347826087
 40
0.4347826086956522
 40
0.4347826086956522
 40
0.4347826086956522
 40
0.4347826086956522
 40
0.4782608695652174
 40
0.4782608695652174
 40
0.4782608695652174
 40
0.4782608695652174
 40
0.5217391304347826
 40
0.5217391304347826
 40
0.5217391304347826
 40
0.5217391304347826
 40
0.5652173913043478
 40
0.5652173913043478
 40
0.5652173913043478
 40
0.5652173913043478
 40
0.6086956521739131
 40
0.6086956521739131
 40
0.6086956521739131
 40
0.6086956521739131
 40
0.6521739130434783
 40
0.6521739130434783
 40
0.6521739130434783
 40
0.6521739130434783
 40
0.6956521739130435
 40
0.6956521739130435
 40
0.6956521739130435
 40
0.6956521739130435
 40
0.7391304347826086
 40
0.7391304347826086
 40
0.7391304347826086
 40
0.7391304347826086
 40
0.782608695652174
 40
0.782608695652174
 40
0.782608695652174
 40
0.782608695652174
 40
0.8260869565217391
 40
0.8260869565217391
 40
0.8260869565217391
 40
0.8260869565217391
 40
0.8695652173913043
 40
0.8695652173913043
 40
0.8695652173913043
 40
0.8695652173913043
 40
0.9130434782608695
 40
0.9130434782608695
 40
0.9130434782608695
 40
0.9130434782608695
 40
1.0
 40
1.0
 40
1.0
 40
1.0
 10
6.8564
 20
-31.0969
 30
0.0
 10
6.8564
 20
-31.0969
 30
0.0
 10
7.117
 20
-31.0748
 30
0.0
 10
7.117
 20
-31.0748
 30
0.0
 10
7.117
 20
-31.0748
 30
0.0
 10
7.1363
 20
-31.2018
 30
0.0
 10
7.181
 20
-31.2968
 30
0.0
 10
7.2511
 20
-31.3608
 30
0.0
 10
7.2511
 20
-31.3608
 30
0.0
 10
7.3216
 20
-31.4248
 30
0.0
 10
7.4063
 20
-31.4568
 30
0.0
 10
7.5055
 20
-31.4568
 30
0.0
 10
7.5055
 20
-31.4568
 30
0.0
 10
7.625
 20
-31.4568
 30
0.0
 10
7.7261
 20
-31.4116
 30
0.0
 10
7.8084
 20
-31.3218
 30
0.0
 10
7.8084
 20
-31.3218
 30
0.0
 10
7.8912
 20
-31.2315
 30
0.0
 10
7.9326
 20
-31.112
 30
0.0
 10
7.9326
 20
-30.9634
 30
0.0
 10
7.9326
 20
-30.9634
 30
0.0
 10
7.9326
 20
-30.8218
 30
0.0
 10
7.8931
 20
-30.7103
 30
0.0
 10
7.8136
 20
-30.6285
 30
0.0
 10
7.8136
 20
-30.6285
 30
0.0
 10
7.7341
 20
-30.5466
 30
0.0
 10
7.6302
 20
-30.5057
 30
0.0
 10
7.5013
 20
-30.5057
 30
0.0
 10
7.5013
 20
-30.5057
 30
0.0
 10
7.4213
 20
-30.5057
 30
0.0
 10
7.3494
 20
-30.524
 30
0.0
 10
7.2849
 20
-30.5602
 30
0.0
 10
7.2849
 20
-30.5602
 30
0.0
 10
7.2205
 20
-30.5965
 30
0.0
 10
7.1702
 20
-30.6435
 30
0.0
 10
7.1335
 20
-30.7014
 30
0.0
 10
7.1335
 20
-30.7014
 30
0.0
 10
7.1335
 20
-30.7014
 30
0.0
 10
6.9006
 20
-30.6713
 30
0.0
 10
6.9006
 20
-30.6713
 30
0.0
 10
6.9006
 20
-30.6713
 30
0.0
 10
6.9006
 20
-30.6713
 30
0.0
 10
7.0963
 20
-29.6336
 30
0.0
 10
7.0963
 20
-29.6336
 30
0.0
 10
7.0963
 20
-29.6336
 30
0.0
 10
7.0963
 20
-29.6336
 30
0.0
 10
8.101
 20
-29.6336
 30
0.0
 10
8.101
 20
-29.6336
 30
0.0
 10
8.101
 20
-29.6336
 30
0.0
 10
8.101
 20
-29.6336
 30
0.0
 10
8.101
 20
-29.8707
 30
0.0
 10
8.101
 20
-29.8707
 30
0.0
 10
8.101
 20
-29.8707
 30
0.0
 10
8.101
 20
-29.8707
 30
0.0
 10
7.2948
 20
-29.8707
 30
0.0
 10
7.2948
 20
-29.8707
 30
0.0
 10
7.2948
 20
-29.8707
 30
0.0
 10
7.2948
 20
-29.8707
 30
0.0
 10
7.1857
 20
-30.4135
 30
0.0
 10
7.1857
 20
-30.4135
 30
0.0
 10
7.1857
 20
-30.4135
 30
0.0
 10
7.307
 20
-30.3288
 30
0.0
 10
7.4345
 20
-30.2865
 30
0.0
 10
7.5676
 20
-30.2865
 30
0.0
 10
7.5676
 20
-30.2865
 30
0.0
 10
7.744
 20
-30.2865
 30
0.0
 10
7.8926
 20
-30.3476
 30
0.0
 10
8.014
 20
-30.4699
 30
0.0
 10
8.014
 20
-30.4699
 30
0.0
 10
8.1353
 20
-30.5922
 30
0.0
 10
8.196
 20
-30.7493
 30
0.0
 10
8.196
 20
-30.9412
 30
0.0
 10
8.196
 20
-30.9412
 30
0.0
 10
8.196
 20
-31.1242
 30
0.0
 10
8.1424
 20
-31.2823
 30
0.0
 10
8.0361
 20
-31.4154
 30
0.0
 10
8.0361
 20
-31.4154
 30
0.0
 10
7.9063
 20
-31.5786
 30
0.0
 10
7.7294
 20
-31.6604
 30
0.0
 10
7.5055
 20
-31.6604
 30
0.0
 10
7.5055
 20
-31.6604
 30
0.0
 10
7.3216
 20
-31.6604
 30
0.0
 10
7.1716
 20
-31.6092
 30
0.0
 10
7.0554
 20
-31.5062
 30
0.0
 10
7.0554
 20
-31.5062
 30
0.0
 10
6.9392
 20
-31.4031
 30
0.0
 10
6.8729
 20
-31.2667
 30
0.0
 10
6.8564
 20
-31.0969
 30
0.0
  0
SPLINE
  5
6D
330
1F
100
AcDbEntity
  8
DEFAULT_1
 62
   250
100
AcDbSpline
210
0.0
220
0.0
230
1.0
 70
    11
 71
     3
 72
    20
 73
    16
 74
     0
 42
0.0000000001
 43
0.0000000001
 40
0.0
 40
0.0
 40
0.0
 40
0.0
 40
0.2
 40
0.2
 40
0.2
 40
0.2
 40
0.4
 40
0.4
 40
0.4
 40
0.4
 40
0.6
 40
0.6
 40
0.6
 40
0.6
 40
1.0
 40
1.0
 40
1.0
 40
1.0
 10
12.3691
 20
-31.6436
 30
0.0
 10
12.3691
 20
-31.6436
 30
0.0
 10
15.45
 20
-32.0784
 30
0.0
 10
15.45
 20
-32.0784
 30
0.0
 10
15.45
 20
-32.0784
 30
0.0
 10
15.45
 20
-32.0784
 30
0.0
 10
15.45
 20
-32.175
 30
0.0
 10
15.45
 20
-32.175
 30
0.0
 10
15.45
 20
-32.175
 30
0.0
 10
15.45
 20
-32.175
 30
0.0
 10
12.3691
 20
-32.6387
 30
0.0
 10
12.3691
 20
-32.6387
 30
0.0
 10
12.3691
 20
-32.6387
 30
0.0
 10
12.3691
 20
-32.6387
 30
0.0
 10
12.3691
 20
-31.6436
 30
0.0
 10
12.3691
 20
-31.6436
 30
0.0
  0
SPLINE
  5
6E
330
1F
100
AcDbEntity
  8
DEFAULT_1
 62
   250
100
AcDbSpline
210
0.0
220
0.0
230
1.0
 70
    11
 71
     3
 72
    20
 73
    16
 74
     0
 42
0.0000000001
 43
0.0000000001
 40
0.0
 40
0.0
 40
0.0
 40
0.0
 40
0.2
 40
0.2
 40
0.2
 40
0.2
 40
0.4
 40
0.4
 40
0.4
 40
0.4
 40
0.6
 40
0.6
 40
0.6
 40
0.6
 40
1.0
 40
1.0
 40
1.0
 40
1.0
 10
-2.1056
 20
-32.6413
 30
0.0
 10
-2.1056
 20
-32.6413
 30
0.0
 10
-5.1866
 20
-32.2065
 30
0.0
 10
-5.1866
 20
-32.2065
 30
0.0
 10
-5.1866
 20
-32.2065
 30
0.0
 10
-5.1866
 20
-32.2065
 30
0.0
 10
-5.1866
 20
-32.1099
 30
0.0
 10
-5.1866
 20
-32.1099
 30
0.0
 10
-5.1866
 20
-32.1099
 30
0.0
 10
-5.1866
 20
-32.1099
 30
0.0
 10
-2.1056
 20
-31.6462
 30
0.0
 10
-2.1056
 20
-31.6462
 30
0.0
 10
-2.1056
 20
-31.6462
 30
0.0
 10
-2.1056
 20
-31.6462
 30
0.0
 10
-2.1056
 20
-32.6413
 30
0.0
 10
-2.1056
 20
-32.6413
 30
0.0
  0
SPLINE
  5
6F
330
1F
100
AcDbEntity
  8
DEFAULT_1
 62
   250
100
AcDbSpline
210
0.0
220
0.0
230
1.0
 70
    11
 71
     3
 72
    40
 73
    36
 74
     0
 42
0.0000000001
 43
0.0000000001
 40
0.0
 40
0.0
 40
0.0
 40
0.0
 40
0.1
 40
0.1
 40
0.1
 40
0.1
 40
0.2
 40
0.2
 40
0.2
 40
0.2
 40
0.3
 40
0.3
 40
0.3
 40
0.3
 40
0.4
 40
0.4
 40
0.4
 40
0.4
 40
0.5
 40
0.5
 40
0.5
 40
0.5
 40
0.6
 40
0.6
 40
0.6
 40
0.6
 40
0.7
 40
0.7
 40
0.7
 40
0.7
 40
0.8
 40
0.8
 40
0.8
 40
0.8
 40
1.0
 40
1.0
 40
1.0
 40
1.0
 10
-10.331
 20
-18.2357
 30
0.0
 10
-10.331
 20
-18.2357
 30
0.0
 10
-10.331
 20
-18.4836
 30
0.0
 10
-10.331
 20
-18.4836
 30
0.0
 10
-10.331
 20
-18.4836
 30
0.0
 10
-10.331
 20
-18.4836
 30
0.0
 10
-11.9114
 20
-18.4836
 30
0.0
 10
-11.9114
 20
-18.4836
 30
0.0
 10
-11.9114
 20
-18.4836
 30
0.0
 10
-11.8545
 20
-18.5434
 30
0.0
 10
-11.7976
 20
-18.6214
 30
0.0
 10
-11.7407
 20
-18.7183
 30
0.0
 10
-11.7407
 20
-18.7183
 30
0.0
 10
-11.6838
 20
-18.8157
 30
0.0
 10
-11.641
 20
-18.9027
 30
0.0
 10
-11.6127
 20
-18.9799
 30
0.0
 10
-11.6127
 20
-18.9799
 30
0.0
 10
-11.6127
 20
-18.9799
 30
0.0
 10
-11.8522
 20
-18.9799
 30
0.0
 10
-11.8522
 20
-18.9799
 30
0.0
 10
-11.8522
 20
-18.9799
 30
0.0
 10
-11.9175
 20
-18.8411
 30
0.0
 10
-11.9966
 20
-18.7197
 30
0.0
 10
-12.0892
 20
-18.6158
 30
0.0
 10
-12.0892
 20
-18.6158
 30
0.0
 10
-12.1824
 20
-18.5123
 30
0.0
 10
-12.2722
 20
-18.4385
 30
0.0
 10
-12.3597
 20
-18.3952
 30
0.0
 10
-12.3597
 20
-18.3952
 30
0.0
 10
-12.3597
 20
-18.3952
 30
0.0
 10
-12.3597
 20
-18.2357
 30
0.0
 10
-12.3597
 20
-18.2357
 30
0.0
 10
-12.3597
 20
-18.2357
 30
0.0
 10
-12.3597
 20
-18.2357
 30
0.0
 10
-10.331
 20
-18.2357
 30
0.0
 10
-10.331
 20
-18.2357
 30
0.0
  0
SPLINE
  5
70
330
1F
100
AcDbEntity
  8
DEFAULT_1
 62
   250
100
AcDbSpline
210
0.0
220
0.0
230
1.0
 70
    11
 71
     3
 72
    92
 73
    88
 74
     0
 42
0.0000000001
 43
0.0000000001
 40
0.0
 40
0.0
 40
0.0
 40
0.0
 40
0.0434782608695652
 40
0.0434782608695652
 40
0.0434782608695652
 40
0.0434782608695652
 40
0.0869565217391304
 40
0.0869565217391304
 40
0.0869565217391304
 40
0.0869565217391304
 40
0.1304347826086956
 40
0.1304347826086956
 40
0.1304347826086956
 40
0.1304347826086956
 40
0.1739130434782609
 40
0.1739130434782609
 40
0.1739130434782609
 40
0.1739130434782609
 40
0.2173913043478261
 40
0.2173913043478261
 40
0.2173913043478261
 40
0.2173913043478261
 40
0.2608695652173913
 40
0.2608695652173913
 40
0.2608695652173913
 40
0.2608695652173913
 40
0.3043478260869565
 40
0.3043478260869565
 40
0.3043478260869565
 40
0.3043478260869565
 40
0.3478260869565217
 40
0.3478260869565217
 40
0.3478260869565217
 40
0.3478260869565217
 40
0.391304347826087
 40
0.391304347826087
 40
0.391304347826087
 40
0.391304347826087
 40
0.4347826086956522
 40
0.4347826086956522
 40
0.4347826086956522
 40
0.4347826086956522
 40
0.4782608695652174
 40
0.4782608695652174
 40
0.4782608695652174
 40
0.4782608695652174
 40
0.5217391304347826
 40
0.5217391304347826
 40
0.5217391304347826
 40
0.5217391304347826
 40
0.5652173913043478
 40
0.5652173913043478
 40
0.5652173913043478
 40
0.5652173913043478
 40
0.6086956521739131
 40
0.6086956521739131
 40
0.6086956521739131
 40
0.6086956521739131
 40
0.6521739130434783
 40
0.6521739130434783
 40
0.6521739130434783
 40
0.6521739130434783
 40
0.6956521739130435
 40
0.6956521739130435
 40
0.6956521739130435
 40
0.6956521739130435
 40
0.7391304347826086
 40
0.7391304347826086
 40
0.7391304347826086
 40
0.7391304347826086
 40
0.782608695652174
 40
0.782608695652174
 40
0.782608695652174
 40
0.782608695652174
 40
0.8260869565217391
 40
0.8260869565217391
 40
0.8260869565217391
 40
0.8260869565217391
 40
0.8695652173913043
 40
0.8695652173913043
 40
0.8695652173913043
 40
0.8695652173913043
 40
0.9130434782608695
 40
0.9130434782608695
 40
0.9130434782608695
 40
0.9130434782608695
 40
1.0
 40
1.0
 40
1.0
 40
1.0
 10
-10.5695
 20
-16.2964
 30
0.0
 10
-10.5695
 20
-16.2964
 30
0.0
 10
-10.331
 20
-16.2964
 30
0.0
 10
-10.331
 20
-16.2964
 30
0.0
 10
-10.331
 20
-16.2964
 30
0.0
 10
-10.331
 20
-16.2964
 30
0.0
 10
-10.331
 20
-17.6318
 30
0.0
 10
-10.331
 20
-17.6318
 30
0.0
 10
-10.331
 20
-17.6318
 30
0.0
 10
-10.3907
 20
-17.6337
 30
0.0
 10
-10.4481
 20
-17.6243
 30
0.0
 10
-10.5032
 20
-17.6031
 30
0.0
 10
-10.5032
 20
-17.6031
 30
0.0
 10
-10.5944
 20
-17.5692
 30
0.0
 10
-10.6838
 20
-17.5147
 30
0.0
 10
-10.7722
 20
-17.4399
 30
0.0
 10
-10.7722
 20
-17.4399
 30
0.0
 10
-10.8602
 20
-17.3646
 30
0.0
 10
-10.9622
 20
-17.2564
 30
0.0
 10
-11.0779
 20
-17.1153
 30
0.0
 10
-11.0779
 20
-17.1153
 30
0.0
 10
-11.2581
 20
-16.8957
 30
0.0
 10
-11.4006
 20
-16.747
 30
0.0
 10
-11.506
 20
-16.6699
 30
0.0
 10
-11.506
 20
-16.6699
 30
0.0
 10
-11.6109
 20
-16.5928
 30
0.0
 10
-11.7106
 20
-16.5542
 30
0.0
 10
-11.8042
 20
-16.5542
 30
0.0
 10
-11.8042
 20
-16.5542
 30
0.0
 10
-11.9025
 20
-16.5542
 30
0.0
 10
-11.9853
 20
-16.5895
 30
0.0
 10
-12.053
 20
-16.6595
 30
0.0
 10
-12.053
 20
-16.6595
 30
0.0
 10
-12.1203
 20
-16.7301
 30
0.0
 10
-12.1541
 20
-16.8218
 30
0.0
 10
-12.1541
 20
-16.9347
 30
0.0
 10
-12.1541
 20
-16.9347
 30
0.0
 10
-12.1541
 20
-17.0542
 30
0.0
 10
-12.1184
 20
-17.1497
 30
0.0
 10
-12.0464
 20
-17.2212
 30
0.0
 10
-12.0464
 20
-17.2212
 30
0.0
 10
-11.9749
 20
-17.2931
 30
0.0
 10
-11.8757
 20
-17.3293
 30
0.0
 10
-11.7492
 20
-17.3303
 30
0.0
 10
-11.7492
 20
-17.3303
 30
0.0
 10
-11.7492
 20
-17.3303
 30
0.0
 10
-11.775
 20
-17.5852
 30
0.0
 10
-11.775
 20
-17.5852
 30
0.0
 10
-11.775
 20
-17.5852
 30
0.0
 10
-11.9655
 20
-17.5678
 30
0.0
 10
-12.1104
 20
-17.502
 30
0.0
 10
-12.2101
 20
-17.3881
 30
0.0
 10
-12.2101
 20
-17.3881
 30
0.0
 10
-12.3098
 20
-17.2743
 30
0.0
 10
-12.3597
 20
-17.121
 30
0.0
 10
-12.3597
 20
-16.9291
 30
0.0
 10
-12.3597
 20
-16.9291
 30
0.0
 10
-12.3597
 20
-16.7353
 30
0.0
 10
-12.3056
 20
-16.5819
 30
0.0
 10
-12.1984
 20
-16.469
 30
0.0
 10
-12.1984
 20
-16.469
 30
0.0
 10
-12.0906
 20
-16.3557
 30
0.0
 10
-11.9575
 20
-16.2992
 30
0.0
 10
-11.7985
 20
-16.2992
 30
0.0
 10
-11.7985
 20
-16.2992
 30
0.0
 10
-11.7176
 20
-16.2992
 30
0.0
 10
-11.6381
 20
-16.3157
 30
0.0
 10
-11.5601
 20
-16.3491
 30
0.0
 10
-11.5601
 20
-16.3491
 30
0.0
 10
-11.482
 20
-16.382
 30
0.0
 10
-11.3997
 20
-16.4371
 30
0.0
 10
-11.3136
 20
-16.5137
 30
0.0
 10
-11.3136
 20
-16.5137
 30
0.0
 10
-11.227
 20
-16.5904
 30
0.0
 10
-11.1085
 20
-16.7179
 30
0.0
 10
-10.958
 20
-16.8961
 30
0.0
 10
-10.958
 20
-16.8961
 30
0.0
 10
-10.8329
 20
-17.0448
 30
0.0
 10
-10.7482
 20
-17.1403
 30
0.0
 10
-10.7035
 20
-17.1826
 30
0.0
 10
-10.7035
 20
-17.1826
 30
0.0
 10
-10.6593
 20
-17.2249
 30
0.0
 10
-10.6146
 20
-17.2597
 30
0.0
 10
-10.5695
 20
-17.2875
 30
0.0
 10
-10.5695
 20
-17.2875
 30
0.0
 10
-10.5695
 20
-17.2875
 30
0.0
 10
-10.5695
 20
-16.2964
 30
0.0
 10
-10.5695
 20
-16.2964
 30
0.0
  0
SPLINE
  5
71
330
1F
100
AcDbEntity
  8
DEFAULT_1
 62
   250
100
AcDbSpline
210
0.0
220
0.0
230
1.0
 70
    11
 71
     3
 72
   124
 73
   120
 74
     0
 42
0.0000000001
 43
0.0000000001
 40
0.0
 40
0.0
 40
0.0
 40
0.0
 40
0.032258064516129
 40
0.032258064516129
 40
0.032258064516129
 40
0.032258064516129
 40
0.0645161290322581
 40
0.0645161290322581
 40
0.0645161290322581
 40
0.0645161290322581
 40
0.0967741935483871
 40
0.0967741935483871
 40
0.0967741935483871
 40
0.0967741935483871
 40
0.1290322580645161
 40
0.1290322580645161
 40
0.1290322580645161
 40
0.1290322580645161
 40
0.1612903225806452
 40
0.1612903225806452
 40
0.1612903225806452
 40
0.1612903225806452
 40
0.1935483870967742
 40
0.1935483870967742
 40
0.1935483870967742
 40
0.1935483870967742
 40
0.2258064516129032
 40
0.2258064516129032
 40
0.2258064516129032
 40
0.2258064516129032
 40
0.2580645161290323
 40
0.2580645161290323
 40
0.2580645161290323
 40
0.2580645161290323
 40
0.2903225806451613
 40
0.2903225806451613
 40
0.2903225806451613
 40
0.2903225806451613
 40
0.3225806451612903
 40
0.3225806451612903
 40
0.3225806451612903
 40
0.3225806451612903
 40
0.3548387096774194
 40
0.3548387096774194
 40
0.3548387096774194
 40
0.3548387096774194
 40
0.3870967741935484
 40
0.3870967741935484
 40
0.3870967741935484
 40
0.3870967741935484
 40
0.4193548387096774
 40
0.4193548387096774
 40
0.4193548387096774
 40
0.4193548387096774
 40
0.4516129032258064
 40
0.4516129032258064
 40
0.4516129032258064
 40
0.4516129032258064
 40
0.4838709677419355
 40
0.4838709677419355
 40
0.4838709677419355
 40
0.4838709677419355
 40
0.5161290322580645
 40
0.5161290322580645
 40
0.5161290322580645
 40
0.5161290322580645
 40
0.5483870967741935
 40
0.5483870967741935
 40
0.5483870967741935
 40
0.5483870967741935
 40
0.5806451612903226
 40
0.5806451612903226
 40
0.5806451612903226
 40
0.5806451612903226
 40
0.6129032258064516
 40
0.6129032258064516
 40
0.6129032258064516
 40
0.6129032258064516
 40
0.6451612903225806
 40
0.6451612903225806
 40
0.6451612903225806
 40
0.6451612903225806
 40
0.6774193548387096
 40
0.6774193548387096
 40
0.6774193548387096
 40
0.6774193548387096
 40
0.7096774193548387
 40
0.7096774193548387
 40
0.7096774193548387
 40
0.7096774193548387
 40
0.7419354838709677
 40
0.7419354838709677
 40
0.7419354838709677
 40
0.7419354838709677
 40
0.7741935483870968
 40
0.7741935483870968
 40
0.7741935483870968
 40
0.7741935483870968
 40
0.8064516129032258
 40
0.8064516129032258
 40
0.8064516129032258
 40
0.8064516129032258
 40
0.8387096774193549
 40
0.8387096774193549
 40
0.8387096774193549
 40
0.8387096774193549
 40
0.8709677419354839
 40
0.8709677419354839
 40
0.8709677419354839
 40
0.8709677419354839
 40
0.9032258064516129
 40
0.9032258064516129
 40
0.9032258064516129
 40
0.9032258064516129
 40
0.9354838709677419
 40
0.9354838709677419
 40
0.9354838709677419
 40
0.9354838709677419
 40
1.0
 40
1.0
 40
1.0
 40
1.0
 10
-17.9782
 20
1.6352
 30
0.0
 10
-17.9782
 20
1.6352
 30
0.0
 10
-18.0111
 20
1.8831
 30
0.0
 10
-18.0111
 20
1.8831
 30
0.0
 10
-18.0111
 20
1.8831
 30
0.0
 10
-17.8705
 20
1.9118
 30
0.0
 10
-17.7694
 20
1.9603
 30
0.0
 10
-17.7073
 20
2.0285
 30
0.0
 10
-17.7073
 20
2.0285
 30
0.0
 10
-17.6452
 20
2.0971
 30
0.0
 10
-17.6141
 20
2.1804
 30
0.0
 10
-17.6141
 20
2.2787
 30
0.0
 10
-17.6141
 20
2.2787
 30
0.0
 10
-17.6141
 20
2.3953
 30
0.0
 10
-17.6546
 20
2.4941
 30
0.0
 10
-17.7355
 20
2.5746
 30
0.0
 10
-17.7355
 20
2.5746
 30
0.0
 10
-17.8164
 20
2.6545
 30
0.0
 10
-17.9166
 20
2.695
 30
0.0
 10
-18.0361
 20
2.695
 30
0.0
 10
-18.0361
 20
2.695
 30
0.0
 10
-18.1499
 20
2.695
 30
0.0
 10
-18.244
 20
2.6578
 30
0.0
 10
-18.3178
 20
2.5835
 30
0.0
 10
-18.3178
 20
2.5835
 30
0.0
 10
-18.3916
 20
2.5087
 30
0.0
 10
-18.4288
 20
2.4142
 30
0.0
 10
-18.4288
 20
2.2994
 30
0.0
 10
-18.4288
 20
2.2994
 30
0.0
 10
-18.4288
 20
2.2524
 30
0.0
 10
-18.4194
 20
2.194
 30
0.0
 10
-18.4011
 20
2.1244
 30
0.0
 10
-18.4011
 20
2.1244
 30
0.0
 10
-18.4011
 20
2.1244
 30
0.0
 10
-18.6188
 20
2.1522
 30
0.0
 10
-18.6188
 20
2.1522
 30
0.0
 10
-18.6188
 20
2.1522
 30
0.0
 10
-18.617
 20
2.1686
 30
0.0
 10
-18.616
 20
2.1818
 30
0.0
 10
-18.616
 20
2.1921
 30
0.0
 10
-18.616
 20
2.1921
 30
0.0
 10
-18.616
 20
2.2975
 30
0.0
 10
-18.6438
 20
2.3925
 30
0.0
 10
-18.6988
 20
2.4772
 30
0.0
 10
-18.6988
 20
2.4772
 30
0.0
 10
-18.7538
 20
2.5619
 30
0.0
 10
-18.839
 20
2.6042
 30
0.0
 10
-18.9537
 20
2.6042
 30
0.0
 10
-18.9537
 20
2.6042
 30
0.0
 10
-19.0445
 20
2.6042
 30
0.0
 10
-19.1202
 20
2.5731
 30
0.0
 10
-19.1795
 20
2.5115
 30
0.0
 10
-19.1795
 20
2.5115
 30
0.0
 10
-19.2392
 20
2.4499
 30
0.0
 10
-19.2694
 20
2.3704
 30
0.0
 10
-19.2694
 20
2.273
 30
0.0
 10
-19.2694
 20
2.273
 30
0.0
 10
-19.2694
 20
2.1766
 30
0.0
 10
-19.2388
 20
2.0962
 30
0.0
 10
-19.1786
 20
2.0322
 30
0.0
 10
-19.1786
 20
2.0322
 30
0.0
 10
-19.1179
 20
1.9678
 30
0.0
 10
-19.0266
 20
1.9264
 30
0.0
 10
-18.9053
 20
1.908
 30
0.0
 10
-18.9053
 20
1.908
 30
0.0
 10
-18.9053
 20
1.908
 30
0.0
 10
-18.9495
 20
1.6602
 30
0.0
 10
-18.9495
 20
1.6602
 30
0.0
 10
-18.9495
 20
1.6602
 30
0.0
 10
-19.116
 20
1.6903
 30
0.0
 10
-19.2449
 20
1.7594
 30
0.0
 10
-19.3361
 20
1.8667
 30
0.0
 10
-19.3361
 20
1.8667
 30
0.0
 10
-19.4274
 20
1.9744
 30
0.0
 10
-19.4735
 20
2.108
 30
0.0
 10
-19.4735
 20
2.2679
 30
0.0
 10
-19.4735
 20
2.2679
 30
0.0
 10
-19.4735
 20
2.3779
 30
0.0
 10
-19.4495
 20
2.4795
 30
0.0
 10
-19.4025
 20
2.5722
 30
0.0
 10
-19.4025
 20
2.5722
 30
0.0
 10
-19.355
 20
2.6649
 30
0.0
 10
-19.2905
 20
2.7359
 30
0.0
 10
-19.2087
 20
2.7853
 30
0.0
 10
-19.2087
 20
2.7853
 30
0.0
 10
-19.1268
 20
2.8342
 30
0.0
 10
-19.0403
 20
2.8591
 30
0.0
 10
-18.9481
 20
2.8591
 30
0.0
 10
-18.9481
 20
2.8591
 30
0.0
 10
-18.8611
 20
2.8591
 30
0.0
 10
-18.7816
 20
2.8356
 30
0.0
 10
-18.7096
 20
2.7886
 30
0.0
 10
-18.7096
 20
2.7886
 30
0.0
 10
-18.6381
 20
2.7415
 30
0.0
 10
-18.5812
 20
2.6724
 30
0.0
 10
-18.5389
 20
2.5807
 30
0.0
 10
-18.5389
 20
2.5807
 30
0.0
 10
-18.5116
 20
2.7001
 30
0.0
 10
-18.4542
 20
2.7928
 30
0.0
 10
-18.3672
 20
2.8591
 30
0.0
 10
-18.3672
 20
2.8591
 30
0.0
 10
-18.2806
 20
2.925
 30
0.0
 10
-18.172
 20
2.9579
 30
0.0
 10
-18.0417
 20
2.9579
 30
0.0
 10
-18.0417
 20
2.9579
 30
0.0
 10
-17.8653
 20
2.9579
 30
0.0
 10
-17.7157
 20
2.8939
 30
0.0
 10
-17.593
 20
2.7651
 30
0.0
 10
-17.593
 20
2.7651
 30
0.0
 10
-17.4702
 20
2.6366
 30
0.0
 10
-17.4091
 20
2.4739
 30
0.0
 10
-17.4091
 20
2.2773
 30
0.0
 10
-17.4091
 20
2.2773
 30
0.0
 10
-17.4091
 20
2.1
 30
0.0
 10
-17.4617
 20
1.9527
 30
0.0
 10
-17.5676
 20
1.8356
 30
0.0
 10
-17.5676
 20
1.8356
 30
0.0
 10
-17.6729
 20
1.7185
 30
0.0
 10
-17.8098
 20
1.6517
 30
0.0
 10
-17.9782
 20
1.6352
 30
0.0
  0
SPLINE
  5
72
330
1F
100
AcDbEntity
  8
DEFAULT_1
 62
   250
100
AcDbSpline
210
0.0
220
0.0
230
1.0
 70
    11
 71
     3
 72
    92
 73
    88
 74
     0
 42
0.0000000001
 43
0.0000000001
 40
0.0
 40
0.0
 40
0.0
 40
0.0
 40
0.0434782608695652
 40
0.0434782608695652
 40
0.0434782608695652
 40
0.0434782608695652
 40
0.0869565217391304
 40
0.0869565217391304
 40
0.0869565217391304
 40
0.0869565217391304
 40
0.1304347826086956
 40
0.1304347826086956
 40
0.1304347826086956
 40
0.1304347826086956
 40
0.1739130434782609
 40
0.1739130434782609
 40
0.1739130434782609
 40
0.1739130434782609
 40
0.2173913043478261
 40
0.2173913043478261
 40
0.2173913043478261
 40
0.2173913043478261
 40
0.2608695652173913
 40
0.2608695652173913
 40
0.2608695652173913
 40
0.2608695652173913
 40
0.3043478260869565
 40
0.3043478260869565
 40
0.3043478260869565
 40
0.3043478260869565
 40
0.3478260869565217
 40
0.3478260869565217
 40
0.3478260869565217
 40
0.3478260869565217
 40
0.391304347826087
 40
0.391304347826087
 40
0.391304347826087
 40
0.391304347826087
 40
0.4347826086956522
 40
0.4347826086956522
 40
0.4347826086956522
 40
0.4347826086956522
 40
0.4782608695652174
 40
0.4782608695652174
 40
0.4782608695652174
 40
0.4782608695652174
 40
0.5217391304347826
 40
0.5217391304347826
 40
0.5217391304347826
 40
0.5217391304347826
 40
0.5652173913043478
 40
0.5652173913043478
 40
0.5652173913043478
 40
0.5652173913043478
 40
0.6086956521739131
 40
0.6086956521739131
 40
0.6086956521739131
 40
0.6086956521739131
 40
0.6521739130434783
 40
0.6521739130434783
 40
0.6521739130434783
 40
0.6521739130434783
 40
0.6956521739130435
 40
0.6956521739130435
 40
0.6956521739130435
 40
0.6956521739130435
 40
0.7391304347826086
 40
0.7391304347826086
 40
0.7391304347826086
 40
0.7391304347826086
 40
0.782608695652174
 40
0.782608695652174
 40
0.782608695652174
 40
0.782608695652174
 40
0.8260869565217391
 40
0.8260869565217391
 40
0.8260869565217391
 40
0.8260869565217391
 40
0.8695652173913043
 40
0.8695652173913043
 40
0.8695652173913043
 40
0.8695652173913043
 40
0.9130434782608695
 40
0.9130434782608695
 40
0.9130434782608695
 40
0.9130434782608695
 40
1.0
 40
1.0
 40
1.0
 40
1.0
 10
-17.974
 20
3.2034
 30
0.0
 10
-17.974
 20
3.2034
 30
0.0
 10
-17.9961
 20
3.464
 30
0.0
 10
-17.9961
 20
3.464
 30
0.0
 10
-17.9961
 20
3.464
 30
0.0
 10
-17.8691
 20
3.4833
 30
0.0
 10
-17.7741
 20
3.528
 30
0.0
 10
-17.7101
 20
3.5981
 30
0.0
 10
-17.7101
 20
3.5981
 30
0.0
 10
-17.6461
 20
3.6686
 30
0.0
 10
-17.6141
 20
3.7533
 30
0.0
 10
-17.6141
 20
3.8525
 30
0.0
 10
-17.6141
 20
3.8525
 30
0.0
 10
-17.6141
 20
3.972
 30
0.0
 10
-17.6593
 20
4.0731
 30
0.0
 10
-17.7491
 20
4.1554
 30
0.0
 10
-17.7491
 20
4.1554
 30
0.0
 10
-17.8394
 20
4.2382
 30
0.0
 10
-17.9589
 20
4.2796
 30
0.0
 10
-18.1075
 20
4.2796
 30
0.0
 10
-18.1075
 20
4.2796
 30
0.0
 10
-18.2491
 20
4.2796
 30
0.0
 10
-18.3606
 20
4.2401
 30
0.0
 10
-18.4424
 20
4.1606
 30
0.0
 10
-18.4424
 20
4.1606
 30
0.0
 10
-18.5243
 20
4.0811
 30
0.0
 10
-18.5652
 20
3.9772
 30
0.0
 10
-18.5652
 20
3.8483
 30
0.0
 10
-18.5652
 20
3.8483
 30
0.0
 10
-18.5652
 20
3.7683
 30
0.0
 10
-18.5469
 20
3.6964
 30
0.0
 10
-18.5107
 20
3.6319
 30
0.0
 10
-18.5107
 20
3.6319
 30
0.0
 10
-18.4744
 20
3.5675
 30
0.0
 10
-18.4274
 20
3.5172
 30
0.0
 10
-18.3695
 20
3.4805
 30
0.0
 10
-18.3695
 20
3.4805
 30
0.0
 10
-18.3695
 20
3.4805
 30
0.0
 10
-18.3996
 20
3.2476
 30
0.0
 10
-18.3996
 20
3.2476
 30
0.0
 10
-18.3996
 20
3.2476
 30
0.0
 10
-18.3996
 20
3.2476
 30
0.0
 10
-19.4373
 20
3.4433
 30
0.0
 10
-19.4373
 20
3.4433
 30
0.0
 10
-19.4373
 20
3.4433
 30
0.0
 10
-19.4373
 20
3.4433
 30
0.0
 10
-19.4373
 20
4.448
 30
0.0
 10
-19.4373
 20
4.448
 30
0.0
 10
-19.4373
 20
4.448
 30
0.0
 10
-19.4373
 20
4.448
 30
0.0
 10
-19.2002
 20
4.448
 30
0.0
 10
-19.2002
 20
4.448
 30
0.0
 10
-19.2002
 20
4.448
 30
0.0
 10
-19.2002
 20
4.448
 30
0.0
 10
-19.2002
 20
3.6418
 30
0.0
 10
-19.2002
 20
3.6418
 30
0.0
 10
-19.2002
 20
3.6418
 30
0.0
 10
-19.2002
 20
3.6418
 30
0.0
 10
-18.6574
 20
3.5327
 30
0.0
 10
-18.6574
 20
3.5327
 30
0.0
 10
-18.6574
 20
3.5327
 30
0.0
 10
-18.7421
 20
3.654
 30
0.0
 10
-18.7844
 20
3.7815
 30
0.0
 10
-18.7844
 20
3.9146
 30
0.0
 10
-18.7844
 20
3.9146
 30
0.0
 10
-18.7844
 20
4.091
 30
0.0
 10
-18.7233
 20
4.2396
 30
0.0
 10
-18.601
 20
4.361
 30
0.0
 10
-18.601
 20
4.361
 30
0.0
 10
-18.4787
 20
4.4823
 30
0.0
 10
-18.3216
 20
4.543
 30
0.0
 10
-18.1297
 20
4.543
 30
0.0
 10
-18.1297
 20
4.543
 30
0.0
 10
-17.9467
 20
4.543
 30
0.0
 10
-17.7886
 20
4.4894
 30
0.0
 10
-17.6555
 20
4.3831
 30
0.0
 10
-17.6555
 20
4.3831
 30
0.0
 10
-17.4923
 20
4.2533
 30
0.0
 10
-17.4105
 20
4.0764
 30
0.0
 10
-17.4105
 20
3.8525
 30
0.0
 10
-17.4105
 20
3.8525
 30
0.0
 10
-17.4105
 20
3.6686
 30
0.0
 10
-17.4617
 20
3.5186
 30
0.0
 10
-17.5647
 20
3.4024
 30
0.0
 10
-17.5647
 20
3.4024
 30
0.0
 10
-17.6678
 20
3.2862
 30
0.0
 10
-17.8042
 20
3.2199
 30
0.0
 10
-17.974
 20
3.2034
 30
0.0
  0
SPLINE
  5
73
330
1F
100
AcDbEntity
  8
DEFAULT_1
 62
   250
100
AcDbSpline
210
0.0
220
0.0
230
1.0
 70
    11
 71
     3
 72
    20
 73
    16
 74
     0
 42
0.0000000001
 43
0.0000000001
 40
0.0
 40
0.0
 40
0.0
 40
0.0
 40
0.2
 40
0.2
 40
0.2
 40
0.2
 40
0.4
 40
0.4
 40
0.4
 40
0.4
 40
0.6
 40
0.6
 40
0.6
 40
0.6
 40
1.0
 40
1.0
 40
1.0
 40
1.0
 10
-18.0511
 20
5.5294
 30
0.0
 10
-18.0511
 20
5.5294
 30
0.0
 10
-18.3004
 20
5.5294
 30
0.0
 10
-18.3004
 20
5.5294
 30
0.0
 10
-18.3004
 20
5.5294
 30
0.0
 10
-18.3004
 20
5.5294
 30
0.0
 10
-18.3004
 20
6.2918
 30
0.0
 10
-18.3004
 20
6.2918
 30
0.0
 10
-18.3004
 20
6.2918
 30
0.0
 10
-18.3004
 20
6.2918
 30
0.0
 10
-18.0511
 20
6.2918
 30
0.0
 10
-18.0511
 20
6.2918
 30
0.0
 10
-18.0511
 20
6.2918
 30
0.0
 10
-18.0511
 20
6.2918
 30
0.0
 10
-18.0511
 20
5.5294
 30
0.0
 10
-18.0511
 20
5.5294
 30
0.0
  0
SPLINE
  5
74
330
1F
100
AcDbEntity
  8
DEFAULT_1
 62
   250
100
AcDbSpline
210
0.0
220
0.0
230
1.0
 70
    11
 71
     3
 72
    92
 73
    88
 74
     0
 42
0.0000000001
 43
0.0000000001
 40
0.0
 40
0.0
 40
0.0
 40
0.0
 40
0.0434782608695652
 40
0.0434782608695652
 40
0.0434782608695652
 40
0.0434782608695652
 40
0.0869565217391304
 40
0.0869565217391304
 40
0.0869565217391304
 40
0.0869565217391304
 40
0.1304347826086956
 40
0.1304347826086956
 40
0.1304347826086956
 40
0.1304347826086956
 40
0.1739130434782609
 40
0.1739130434782609
 40
0.1739130434782609
 40
0.1739130434782609
 40
0.2173913043478261
 40
0.2173913043478261
 40
0.2173913043478261
 40
0.2173913043478261
 40
0.2608695652173913
 40
0.2608695652173913
 40
0.2608695652173913
 40
0.2608695652173913
 40
0.3043478260869565
 40
0.3043478260869565
 40
0.3043478260869565
 40
0.3043478260869565
 40
0.3478260869565217
 40
0.3478260869565217
 40
0.3478260869565217
 40
0.3478260869565217
 40
0.391304347826087
 40
0.391304347826087
 40
0.391304347826087
 40
0.391304347826087
 40
0.4347826086956522
 40
0.4347826086956522
 40
0.4347826086956522
 40
0.4347826086956522
 40
0.4782608695652174
 40
0.4782608695652174
 40
0.4782608695652174
 40
0.4782608695652174
 40
0.5217391304347826
 40
0.5217391304347826
 40
0.5217391304347826
 40
0.5217391304347826
 40
0.5652173913043478
 40
0.5652173913043478
 40
0.5652173913043478
 40
0.5652173913043478
 40
0.6086956521739131
 40
0.6086956521739131
 40
0.6086956521739131
 40
0.6086956521739131
 40
0.6521739130434783
 40
0.6521739130434783
 40
0.6521739130434783
 40
0.6521739130434783
 40
0.6956521739130435
 40
0.6956521739130435
 40
0.6956521739130435
 40
0.6956521739130435
 40
0.7391304347826086
 40
0.7391304347826086
 40
0.7391304347826086
 40
0.7391304347826086
 40
0.782608695652174
 40
0.782608695652174
 40
0.782608695652174
 40
0.782608695652174
 40
0.8260869565217391
 40
0.8260869565217391
 40
0.8260869565217391
 40
0.8260869565217391
 40
0.8695652173913043
 40
0.8695652173913043
 40
0.8695652173913043
 40
0.8695652173913043
 40
0.9130434782608695
 40
0.9130434782608695
 40
0.9130434782608695
 40
0.9130434782608695
 40
1.0
 40
1.0
 40
1.0
 40
1.0
 10
-17.974
 20
7.281
 30
0.0
 10
-17.974
 20
7.281
 30
0.0
 10
-17.9961
 20
7.5416
 30
0.0
 10
-17.9961
 20
7.5416
 30
0.0
 10
-17.9961
 20
7.5416
 30
0.0
 10
-17.8691
 20
7.5609
 30
0.0
 10
-17.7741
 20
7.6056
 30
0.0
 10
-17.7101
 20
7.6757
 30
0.0
 10
-17.7101
 20
7.6757
 30
0.0
 10
-17.6461
 20
7.7462
 30
0.0
 10
-17.6141
 20
7.8309
 30
0.0
 10
-17.6141
 20
7.9301
 30
0.0
 10
-17.6141
 20
7.9301
 30
0.0
 10
-17.6141
 20
8.0496
 30
0.0
 10
-17.6593
 20
8.1507
 30
0.0
 10
-17.7491
 20
8.233
 30
0.0
 10
-17.7491
 20
8.233
 30
0.0
 10
-17.8394
 20
8.3158
 30
0.0
 10
-17.9589
 20
8.3572
 30
0.0
 10
-18.1075
 20
8.3572
 30
0.0
 10
-18.1075
 20
8.3572
 30
0.0
 10
-18.2491
 20
8.3572
 30
0.0
 10
-18.3606
 20
8.3177
 30
0.0
 10
-18.4424
 20
8.2382
 30
0.0
 10
-18.4424
 20
8.2382
 30
0.0
 10
-18.5243
 20
8.1587
 30
0.0
 10
-18.5652
 20
8.0548
 30
0.0
 10
-18.5652
 20
7.9259
 30
0.0
 10
-18.5652
 20
7.9259
 30
0.0
 10
-18.5652
 20
7.8459
 30
0.0
 10
-18.5469
 20
7.774
 30
0.0
 10
-18.5107
 20
7.7095
 30
0.0
 10
-18.5107
 20
7.7095
 30
0.0
 10
-18.4744
 20
7.6451
 30
0.0
 10
-18.4274
 20
7.5948
 30
0.0
 10
-18.3695
 20
7.5581
 30
0.0
 10
-18.3695
 20
7.5581
 30
0.0
 10
-18.3695
 20
7.5581
 30
0.0
 10
-18.3996
 20
7.3252
 30
0.0
 10
-18.3996
 20
7.3252
 30
0.0
 10
-18.3996
 20
7.3252
 30
0.0
 10
-18.3996
 20
7.3252
 30
0.0
 10
-19.4373
 20
7.5209
 30
0.0
 10
-19.4373
 20
7.5209
 30
0.0
 10
-19.4373
 20
7.5209
 30
0.0
 10
-19.4373
 20
7.5209
 30
0.0
 10
-19.4373
 20
8.5256
 30
0.0
 10
-19.4373
 20
8.5256
 30
0.0
 10
-19.4373
 20
8.5256
 30
0.0
 10
-19.4373
 20
8.5256
 30
0.0
 10
-19.2002
 20
8.5256
 30
0.0
 10
-19.2002
 20
8.5256
 30
0.0
 10
-19.2002
 20
8.5256
 30
0.0
 10
-19.2002
 20
8.5256
 30
0.0
 10
-19.2002
 20
7.7194
 30
0.0
 10
-19.2002
 20
7.7194
 30
0.0
 10
-19.2002
 20
7.7194
 30
0.0
 10
-19.2002
 20
7.7194
 30
0.0
 10
-18.6574
 20
7.6103
 30
0.0
 10
-18.6574
 20
7.6103
 30
0.0
 10
-18.6574
 20
7.6103
 30
0.0
 10
-18.7421
 20
7.7316
 30
0.0
 10
-18.7844
 20
7.8591
 30
0.0
 10
-18.7844
 20
7.9922
 30
0.0
 10
-18.7844
 20
7.9922
 30
0.0
 10
-18.7844
 20
8.1686
 30
0.0
 10
-18.7233
 20
8.3172
 30
0.0
 10
-18.601
 20
8.4386
 30
0.0
 10
-18.601
 20
8.4386
 30
0.0
 10
-18.4787
 20
8.5599
 30
0.0
 10
-18.3216
 20
8.6206
 30
0.0
 10
-18.1297
 20
8.6206
 30
0.0
 10
-18.1297
 20
8.6206
 30
0.0
 10
-17.9467
 20
8.6206
 30
0.0
 10
-17.7886
 20
8.567
 30
0.0
 10
-17.6555
 20
8.4607
 30
0.0
 10
-17.6555
 20
8.4607
 30
0.0
 10
-17.4923
 20
8.3309
 30
0.0
 10
-17.4105
 20
8.154
 30
0.0
 10
-17.4105
 20
7.9301
 30
0.0
 10
-17.4105
 20
7.9301
 30
0.0
 10
-17.4105
 20
7.7462
 30
0.0
 10
-17.4617
 20
7.5962
 30
0.0
 10
-17.5647
 20
7.48
 30
0.0
 10
-17.5647
 20
7.48
 30
0.0
 10
-17.6678
 20
7.3638
 30
0.0
 10
-17.8042
 20
7.2975
 30
0.0
 10
-17.974
 20
7.281
 30
0.0
  0
SPLINE
  5
75
330
1F
100
AcDbEntity
  8
DEFAULT_1
 62
   250
100
AcDbSpline
210
0.0
220
0.0
230
1.0
 70
    11
 71
     3
 72
    52
 73
    48
 74
     0
 42
0.0000000001
 43
0.0000000001
 40
0.0
 40
0.0
 40
0.0
 40
0.0
 40
0.0769230769230769
 40
0.0769230769230769
 40
0.0769230769230769
 40
0.0769230769230769
 40
0.1538461538461539
 40
0.1538461538461539
 40
0.1538461538461539
 40
0.1538461538461539
 40
0.2307692307692308
 40
0.2307692307692308
 40
0.2307692307692308
 40
0.2307692307692308
 40
0.3076923076923077
 40
0.3076923076923077
 40
0.3076923076923077
 40
0.3076923076923077
 40
0.3846153846153846
 40
0.3846153846153846
 40
0.3846153846153846
 40
0.3846153846153846
 40
0.4615384615384616
 40
0.4615384615384616
 40
0.4615384615384616
 40
0.4615384615384616
 40
0.5384615384615384
 40
0.5384615384615384
 40
0.5384615384615384
 40
0.5384615384615384
 40
0.6153846153846154
 40
0.6153846153846154
 40
0.6153846153846154
 40
0.6153846153846154
 40
0.6923076923076923
 40
0.6923076923076923
 40
0.6923076923076923
 40
0.6923076923076923
 40
0.7692307692307693
 40
0.7692307692307693
 40
0.7692307692307693
 40
0.7692307692307693
 40
0.8461538461538461
 40
0.8461538461538461
 40
0.8461538461538461
 40
0.8461538461538461
 40
1.0
 40
1.0
 40
1.0
 40
1.0
 10
-18.441
 20
8.8506
 30
0.0
 10
-18.68
 20
8.8506
 30
0.0
 10
-18.8724
 20
8.8751
 30
0.0
 10
-19.0177
 20
8.9245
 30
0.0
 10
-19.0177
 20
8.9245
 30
0.0
 10
-19.1635
 20
8.9734
 30
0.0
 10
-19.2759
 20
9.0468
 30
0.0
 10
-19.355
 20
9.1437
 30
0.0
 10
-19.355
 20
9.1437
 30
0.0
 10
-19.434
 20
9.2406
 30
0.0
 10
-19.4735
 20
9.3624
 30
0.0
 10
-19.4735
 20
9.5091
 30
0.0
 10
-19.4735
 20
9.5091
 30
0.0
 10
-19.4735
 20
9.6178
 30
0.0
 10
-19.4514
 20
9.7128
 30
0.0
 10
-19.4076
 20
9.7946
 30
0.0
 10
-19.4076
 20
9.7946
 30
0.0
 10
-19.3644
 20
9.8765
 30
0.0
 10
-19.3013
 20
9.9438
 30
0.0
 10
-19.219
 20
9.9974
 30
0.0
 10
-19.219
 20
9.9974
 30
0.0
 10
-19.1367
 20
10.0505
 30
0.0
 10
-19.0365
 20
10.0924
 30
0.0
 10
-18.9185
 20
10.1225
 30
0.0
 10
-18.9185
 20
10.1225
 30
0.0
 10
-18.8004
 20
10.1531
 30
0.0
 10
-18.6414
 20
10.1681
 30
0.0
 10
-18.441
 20
10.1681
 30
0.0
 10
-18.441
 20
10.1681
 30
0.0
 10
-18.204
 20
10.1681
 30
0.0
 10
-18.013
 20
10.1437
 30
0.0
 10
-17.8672
 20
10.0952
 30
0.0
 10
-17.8672
 20
10.0952
 30
0.0
 10
-17.7214
 20
10.0463
 30
0.0
 10
-17.609
 20
9.9734
 30
0.0
 10
-17.5295
 20
9.8765
 30
0.0
 10
-17.5295
 20
9.8765
 30
0.0
 10
-17.45
 20
9.7796
 30
0.0
 10
-17.4105
 20
9.6573
 30
0.0
 10
-17.4105
 20
9.5091
 30
0.0
 10
-17.4105
 20
9.5091
 30
0.0
 10
-17.4105
 20
9.3144
 30
0.0
 10
-17.4801
 20
9.1615
 30
0.0
 10
-17.6198
 20
9.0505
 30
0.0
 10
-17.6198
 20
9.0505
 30
0.0
 10
-17.7877
 20
8.9174
 30
0.0
 10
-18.0619
 20
8.8506
 30
0.0
 10
-18.441
 20
8.8506
 30
0.0
  0
SPLINE
  5
76
330
1F
100
AcDbEntity
  8
DEFAULT_1
 62
   250
100
AcDbSpline
210
0.0
220
0.0
230
1.0
 70
    11
 71
     3
 72
    36
 73
    32
 74
     0
 42
0.0000000001
 43
0.0000000001
 40
0.0
 40
0.0
 40
0.0
 40
0.0
 40
0.1111111111111111
 40
0.1111111111111111
 40
0.1111111111111111
 40
0.1111111111111111
 40
0.2222222222222222
 40
0.2222222222222222
 40
0.2222222222222222
 40
0.2222222222222222
 40
0.3333333333333333
 40
0.3333333333333333
 40
0.3333333333333333
 40
0.3333333333333333
 40
0.4444444444444444
 40
0.4444444444444444
 40
0.4444444444444444
 40
0.4444444444444444
 40
0.5555555555555556
 40
0.5555555555555556
 40
0.5555555555555556
 40
0.5555555555555556
 40
0.6666666666666666
 40
0.6666666666666666
 40
0.6666666666666666
 40
0.6666666666666666
 40
0.7777777777777778
 40
0.7777777777777778
 40
0.7777777777777778
 40
0.7777777777777778
 40
1.0
 40
1.0
 40
1.0
 40
1.0
 10
-18.441
 20
9.1056
 30
0.0
 10
-18.1094
 20
9.1056
 30
0.0
 10
-17.8888
 20
9.1446
 30
0.0
 10
-17.7788
 20
9.2222
 30
0.0
 10
-17.7788
 20
9.2222
 30
0.0
 10
-17.6692
 20
9.2998
 30
0.0
 10
-17.6141
 20
9.3953
 30
0.0
 10
-17.6141
 20
9.5091
 30
0.0
 10
-17.6141
 20
9.5091
 30
0.0
 10
-17.6141
 20
9.6234
 30
0.0
 10
-17.6696
 20
9.7189
 30
0.0
 10
-17.7797
 20
9.7965
 30
0.0
 10
-17.7797
 20
9.7965
 30
0.0
 10
-17.8898
 20
9.8741
 30
0.0
 10
-18.1104
 20
9.9132
 30
0.0
 10
-18.441
 20
9.9132
 30
0.0
 10
-18.441
 20
9.9132
 30
0.0
 10
-18.7736
 20
9.9132
 30
0.0
 10
-18.9947
 20
9.8741
 30
0.0
 10
-19.1038
 20
9.7965
 30
0.0
 10
-19.1038
 20
9.7965
 30
0.0
 10
-19.2134
 20
9.7189
 30
0.0
 10
-19.2679
 20
9.6225
 30
0.0
 10
-19.2679
 20
9.5068
 30
0.0
 10
-19.2679
 20
9.5068
 30
0.0
 10
-19.2679
 20
9.3925
 30
0.0
 10
-19.2195
 20
9.3017
 30
0.0
 10
-19.1231
 20
9.2335
 30
0.0
 10
-19.1231
 20
9.2335
 30
0.0
 10
-19.0003
 20
9.1484
 30
0.0
 10
-18.7726
 20
9.1056
 30
0.0
 10
-18.441
 20
9.1056
 30
0.0
  0
SPLINE
  5
77
330
1F
100
AcDbEntity
  8
DEFAULT_1
 62
   250
100
AcDbSpline
210
0.0
220
0.0
230
1.0
 70
    11
 71
     3
 72
    20
 73
    16
 74
     0
 42
0.0000000001
 43
0.0000000001
 40
0.0
 40
0.0
 40
0.0
 40
0.0
 40
0.2
 40
0.2
 40
0.2
 40
0.2
 40
0.4
 40
0.4
 40
0.4
 40
0.4
 40
0.6
 40
0.6
 40
0.6
 40
0.6
 40
1.0
 40
1.0
 40
1.0
 40
1.0
 10
-16.8667
 20
-3.4055
 30
0.0
 10
-16.8667
 20
-3.4055
 30
0.0
 10
-16.4319
 20
-0.3245
 30
0.0
 10
-16.4319
 20
-0.3245
 30
0.0
 10
-16.4319
 20
-0.3245
 30
0.0
 10
-16.4319
 20
-0.3245
 30
0.0
 10
-16.3353
 20
-0.3245
 30
0.0
 10
-16.3353
 20
-0.3245
 30
0.0
 10
-16.3353
 20
-0.3245
 30
0.0
 10
-16.3353
 20
-0.3245
 30
0.0
 10
-15.8716
 20
-3.4055
 30
0.0
 10
-15.8716
 20
-3.4055
 30
0.0
 10
-15.8716
 20
-3.4055
 30
0.0
 10
-15.8716
 20
-3.4055
 30
0.0
 10
-16.8667
 20
-3.4055
 30
0.0
 10
-16.8667
 20
-3.4055
 30
0.0
  0
SPLINE
  5
78
330
1F
100
AcDbEntity
  8
DEFAULT_1
 62
   250
100
AcDbSpline
210
0.0
220
0.0
230
1.0
 70
    11
 71
     3
 72
    20
 73
    16
 74
     0
 42
0.0000000001
 43
0.0000000001
 40
0.0
 40
0.0
 40
0.0
 40
0.0
 40
0.2
 40
0.2
 40
0.2
 40
0.2
 40
0.4
 40
0.4
 40
0.4
 40
0.4
 40
0.6
 40
0.6
 40
0.6
 40
0.6
 40
1.0
 40
1.0
 40
1.0
 40
1.0
 10
-15.8942
 20
-16.5729
 30
0.0
 10
-15.8942
 20
-16.5729
 30
0.0
 10
-16.329
 20
-19.6538
 30
0.0
 10
-16.329
 20
-19.6538
 30
0.0
 10
-16.329
 20
-19.6538
 30
0.0
 10
-16.329
 20
-19.6538
 30
0.0
 10
-16.4256
 20
-19.6538
 30
0.0
 10
-16.4256
 20
-19.6538
 30
0.0
 10
-16.4256
 20
-19.6538
 30
0.0
 10
-16.4256
 20
-19.6538
 30
0.0
 10
-16.8893
 20
-16.5729
 30
0.0
 10
-16.8893
 20
-16.5729
 30
0.0
 10
-16.8893
 20
-16.5729
 30
0.0
 10
-16.8893
 20
-16.5729
 30
0.0
 10
-15.8942
 20
-16.5729
 30
0.0
 10
-15.8942
 20
-16.5729
 30
0.0
  0
SPLINE
  5
79
330
1F
100
AcDbEntity
  8
DEFAULT_1
 62
   250
100
AcDbSpline
210
0.0
220
0.0
230
1.0
 70
    11
 71
     3
 72
    20
 73
    16
 74
     0
 42
0.0000000001
 43
0.0000000001
 40
0.0
 40
0.0
 40
0.0
 40
0.0
 40
0.2
 40
0.2
 40
0.2
 40
0.2
 40
0.4
 40
0.4
 40
0.4
 40
0.4
 40
0.6
 40
0.6
 40
0.6
 40
0.6
 40
1.0
 40
1.0
 40
1.0
 40
1.0
 10
-16.8343
 20
11.4493
 30
0.0
 10
-16.8343
 20
11.4493
 30
0.0
 10
-16.3995
 20
14.5302
 30
0.0
 10
-16.3995
 20
14.5302
 30
0.0
 10
-16.3995
 20
14.5302
 30
0.0
 10
-16.3995
 20
14.5302
 30
0.0
 10
-16.3029
 20
14.5302
 30
0.0
 10
-16.3029
 20
14.5302
 30
0.0
 10
-16.3029
 20
14.5302
 30
0.0
 10
-16.3029
 20
14.5302
 30
0.0
 10
-15.8392
 20
11.4493
 30
0.0
 10
-15.8392
 20
11.4493
 30
0.0
 10
-15.8392
 20
11.4493
 30
0.0
 10
-15.8392
 20
11.4493
 30
0.0
 10
-16.8343
 20
11.4493
 30
0.0
 10
-16.8343
 20
11.4493
 30
0.0
  0
SPLINE
  5
7A
330
1F
100
AcDbEntity
  8
DEFAULT_1
 62
   250
100
AcDbSpline
210
0.0
220
0.0
230
1.0
 70
    11
 71
     3
 72
    20
 73
    16
 74
     0
 42
0.0000000001
 43
0.0000000001
 40
0.0
 40
0.0
 40
0.0
 40
0.0
 40
0.2
 40
0.2
 40
0.2
 40
0.2
 40
0.4
 40
0.4
 40
0.4
 40
0.4
 40
0.6
 40
0.6
 40
0.6
 40
0.6
 40
1.0
 40
1.0
 40
1.0
 40
1.0
 10
-15.8969
 20
3.1449
 30
0.0
 10
-15.8969
 20
3.1449
 30
0.0
 10
-16.3317
 20
0.064
 30
0.0
 10
-16.3317
 20
0.064
 30
0.0
 10
-16.3317
 20
0.064
 30
0.0
 10
-16.3317
 20
0.064
 30
0.0
 10
-16.4283
 20
0.064
 30
0.0
 10
-16.4283
 20
0.064
 30
0.0
 10
-16.4283
 20
0.064
 30
0.0
 10
-16.4283
 20
0.064
 30
0.0
 10
-16.892
 20
3.1449
 30
0.0
 10
-16.892
 20
3.1449
 30
0.0
 10
-16.892
 20
3.1449
 30
0.0
 10
-16.892
 20
3.1449
 30
0.0
 10
-15.8969
 20
3.1449
 30
0.0
 10
-15.8969
 20
3.1449
 30
0.0
  0
SPLINE
  5
7B
330
1F
100
AcDbEntity
  8
DEFAULT_1
 62
   250
100
AcDbSpline
210
0.0
220
0.0
230
1.0
 70
    11
 71
     3
 72
    20
 73
    16
 74
     0
 42
0.0000000001
 43
0.0000000001
 40
0.0
 40
0.0
 40
0.0
 40
0.0
 40
0.2
 40
0.2
 40
0.2
 40
0.2
 40
0.4
 40
0.4
 40
0.4
 40
0.4
 40
0.6
 40
0.6
 40
0.6
 40
0.6
 40
1.0
 40
1.0
 40
1.0
 40
1.0
 10
-10.3543
 20
-23.0572
 30
0.0
 10
-10.3543
 20
-23.0572
 30
0.0
 10
-9.9195
 20
-19.9762
 30
0.0
 10
-9.9195
 20
-19.9762
 30
0.0
 10
-9.9195
 20
-19.9762
 30
0.0
 10
-9.9195
 20
-19.9762
 30
0.0
 10
-9.8229
 20
-19.9762
 30
0.0
 10
-9.8229
 20
-19.9762
 30
0.0
 10
-9.8229
 20
-19.9762
 30
0.0
 10
-9.8229
 20
-19.9762
 30
0.0
 10
-9.3592
 20
-23.0572
 30
0.0
 10
-9.3592
 20
-23.0572
 30
0.0
 10
-9.3592
 20
-23.0572
 30
0.0
 10
-9.3592
 20
-23.0572
 30
0.0
 10
-10.3543
 20
-23.0572
 30
0.0
 10
-10.3543
 20
-23.0572
 30
0.0
  0
SPLINE
  5
7C
330
1F
100
AcDbEntity
  8
DEFAULT_1
 62
   250
100
AcDbSpline
210
0.0
220
0.0
230
1.0
 70
    11
 71
     3
 72
    20
 73
    16
 74
     0
 42
0.0000000001
 43
0.0000000001
 40
0.0
 40
0.0
 40
0.0
 40
0.0
 40
0.2
 40
0.2
 40
0.2
 40
0.2
 40
0.4
 40
0.4
 40
0.4
 40
0.4
 40
0.6
 40
0.6
 40
0.6
 40
0.6
 40
1.0
 40
1.0
 40
1.0
 40
1.0
 10
-9.376
 20
-11.2875
 30
0.0
 10
-9.376
 20
-11.2875
 30
0.0
 10
-9.8108
 20
-14.3684
 30
0.0
 10
-9.8108
 20
-14.3684
 30
0.0
 10
-9.8108
 20
-14.3684
 30
0.0
 10
-9.8108
 20
-14.3684
 30
0.0
 10
-9.9074
 20
-14.3684
 30
0.0
 10
-9.9074
 20
-14.3684
 30
0.0
 10
-9.9074
 20
-14.3684
 30
0.0
 10
-9.9074
 20
-14.3684
 30
0.0
 10
-10.3711
 20
-11.2875
 30
0.0
 10
-10.3711
 20
-11.2875
 30
0.0
 10
-10.3711
 20
-11.2875
 30
0.0
 10
-10.3711
 20
-11.2875
 30
0.0
 10
-9.376
 20
-11.2875
 30
0.0
 10
-9.376
 20
-11.2875
 30
0.0
  0
SPLINE
  5
7D
330
1F
100
AcDbEntity
  8
DEFAULT_1
 62
   250
100
AcDbSpline
210
0.0
220
0.0
230
1.0
 70
    11
 71
     3
 72
    84
 73
    80
 74
     0
 42
0.0000000001
 43
0.0000000001
 40
0.0
 40
0.0
 40
0.0
 40
0.0
 40
0.0476190476190476
 40
0.0476190476190476
 40
0.0476190476190476
 40
0.0476190476190476
 40
0.0952380952380952
 40
0.0952380952380952
 40
0.0952380952380952
 40
0.0952380952380952
 40
0.1428571428571428
 40
0.1428571428571428
 40
0.1428571428571428
 40
0.1428571428571428
 40
0.1904761904761905
 40
0.1904761904761905
 40
0.1904761904761905
 40
0.1904761904761905
 40
0.2380952380952381
 40
0.2380952380952381
 40
0.2380952380952381
 40
0.2380952380952381
 40
0.2857142857142857
 40
0.2857142857142857
 40
0.2857142857142857
 40
0.2857142857142857
 40
0.3333333333333333
 40
0.3333333333333333
 40
0.3333333333333333
 40
0.3333333333333333
 40
0.3809523809523809
 40
0.3809523809523809
 40
0.3809523809523809
 40
0.3809523809523809
 40
0.4285714285714285
 40
0.4285714285714285
 40
0.4285714285714285
 40
0.4285714285714285
 40
0.4761904761904762
 40
0.4761904761904762
 40
0.4761904761904762
 40
0.4761904761904762
 40
0.5238095238095238
 40
0.5238095238095238
 40
0.5238095238095238
 40
0.5238095238095238
 40
0.5714285714285714
 40
0.5714285714285714
 40
0.5714285714285714
 40
0.5714285714285714
 40
0.6190476190476191
 40
0.6190476190476191
 40
0.6190476190476191
 40
0.6190476190476191
 40
0.6666666666666666
 40
0.6666666666666666
 40
0.6666666666666666
 40
0.6666666666666666
 40
0.7142857142857143
 40
0.7142857142857143
 40
0.7142857142857143
 40
0.7142857142857143
 40
0.7619047619047619
 40
0.7619047619047619
 40
0.7619047619047619
 40
0.7619047619047619
 40
0.8095238095238095
 40
0.8095238095238095
 40
0.8095238095238095
 40
0.8095238095238095
 40
0.8571428571428571
 40
0.8571428571428571
 40
0.8571428571428571
 40
0.8571428571428571
 40
0.9047619047619048
 40
0.9047619047619048
 40
0.9047619047619048
 40
0.9047619047619048
 40
1.0
 40
1.0
 40
1.0
 40
1.0
 10
4.1164
 20
26.9817
 30
0.0
 10
4.1164
 20
26.9817
 30
0.0
 10
4.3478
 20
27.2408
 30
0.0
 10
4.3478
 20
27.2408
 30
0.0
 10
4.3478
 20
27.2408
 30
0.0
 10
4.3478
 20
27.2408
 30
0.0
 10
4.4842
 20
27.1251
 30
0.0
 10
4.4842
 20
27.1251
 30
0.0
 10
4.4842
 20
27.1251
 30
0.0
 10
4.4842
 20
27.1251
 30
0.0
 10
4.242
 20
26.8523
 30
0.0
 10
4.242
 20
26.8523
 30
0.0
 10
4.242
 20
26.8523
 30
0.0
 10
4.321
 20
26.7347
 30
0.0
 10
4.3741
 20
26.6317
 30
0.0
 10
4.4019
 20
26.5438
 30
0.0
 10
4.4019
 20
26.5438
 30
0.0
 10
4.4386
 20
26.428
 30
0.0
 10
4.4569
 20
26.2982
 30
0.0
 10
4.4569
 20
26.1552
 30
0.0
 10
4.4569
 20
26.1552
 30
0.0
 10
4.4569
 20
25.9483
 30
0.0
 10
4.4151
 20
25.7639
 30
0.0
 10
4.3313
 20
25.6026
 30
0.0
 10
4.3313
 20
25.6026
 30
0.0
 10
4.2476
 20
25.4407
 30
0.0
 10
4.1305
 20
25.3185
 30
0.0
 10
3.9795
 20
25.2357
 30
0.0
 10
3.9795
 20
25.2357
 30
0.0
 10
3.828
 20
25.1534
 30
0.0
 10
3.6677
 20
25.112
 30
0.0
 10
3.4979
 20
25.112
 30
0.0
 10
3.4979
 20
25.112
 30
0.0
 10
3.3709
 20
25.112
 30
0.0
 10
3.2561
 20
25.1298
 30
0.0
 10
3.1531
 20
25.1656
 30
0.0
 10
3.1531
 20
25.1656
 30
0.0
 10
3.0741
 20
25.1933
 30
0.0
 10
2.9819
 20
25.246
 30
0.0
 10
2.876
 20
25.3241
 30
0.0
 10
2.876
 20
25.3241
 30
0.0
 10
2.876
 20
25.3241
 30
0.0
 10
2.6446
 20
25.0649
 30
0.0
 10
2.6446
 20
25.0649
 30
0.0
 10
2.6446
 20
25.0649
 30
0.0
 10
2.6446
 20
25.0649
 30
0.0
 10
2.5082
 20
25.1806
 30
0.0
 10
2.5082
 20
25.1806
 30
0.0
 10
2.5082
 20
25.1806
 30
0.0
 10
2.5082
 20
25.1806
 30
0.0
 10
2.7509
 20
25.452
 30
0.0
 10
2.7509
 20
25.452
 30
0.0
 10
2.7509
 20
25.452
 30
0.0
 10
2.6606
 20
25.5889
 30
0.0
 10
2.6004
 20
25.706
 30
0.0
 10
2.5703
 20
25.8029
 30
0.0
 10
2.5703
 20
25.8029
 30
0.0
 10
2.5402
 20
25.8998
 30
0.0
 10
2.5247
 20
26.0165
 30
0.0
 10
2.5247
 20
26.1524
 30
0.0
 10
2.5247
 20
26.1524
 30
0.0
 10
2.5247
 20
26.3598
 30
0.0
 10
2.5661
 20
26.5447
 30
0.0
 10
2.6488
 20
26.707
 30
0.0
 10
2.6488
 20
26.707
 30
0.0
 10
2.7316
 20
26.8693
 30
0.0
 10
2.8473
 20
26.992
 30
0.0
 10
2.9969
 20
27.0757
 30
0.0
 10
2.9969
 20
27.0757
 30
0.0
 10
3.146
 20
27.159
 30
0.0
 10
3.3121
 20
27.2009
 30
0.0
 10
3.495
 20
27.2009
 30
0.0
 10
3.495
 20
27.2009
 30
0.0
 10
3.6183
 20
27.2009
 30
0.0
 10
3.726
 20
27.1849
 30
0.0
 10
3.8182
 20
27.1519
 30
0.0
 10
3.8182
 20
27.1519
 30
0.0
 10
3.9104
 20
27.1195
 30
0.0
 10
4.0101
 20
27.0626
 30
0.0
 10
4.1164
 20
26.9817
 30
0.0
  0
SPLINE
  5
7E
330
1F
100
AcDbEntity
  8
DEFAULT_1
 62
   250
100
AcDbSpline
210
0.0
220
0.0
230
1.0
 70
    11
 71
     3
 72
    32
 73
    28
 74
     0
 42
0.0000000001
 43
0.0000000001
 40
0.0
 40
0.0
 40
0.0
 40
0.0
 40
0.125
 40
0.125
 40
0.125
 40
0.125
 40
0.25
 40
0.25
 40
0.25
 40
0.25
 40
0.375
 40
0.375
 40
0.375
 40
0.375
 40
0.5
 40
0.5
 40
0.5
 40
0.5
 40
0.625
 40
0.625
 40
0.625
 40
0.625
 40
0.75
 40
0.75
 40
0.75
 40
0.75
 40
1.0
 40
1.0
 40
1.0
 40
1.0
 10
3.9513
 20
26.7959
 30
0.0
 10
3.8647
 20
26.8636
 30
0.0
 10
3.789
 20
26.9102
 30
0.0
 10
3.7246
 20
26.9351
 30
0.0
 10
3.7246
 20
26.9351
 30
0.0
 10
3.6597
 20
26.9596
 30
0.0
 10
3.5835
 20
26.9723
 30
0.0
 10
3.4964
 20
26.9723
 30
0.0
 10
3.4964
 20
26.9723
 30
0.0
 10
3.2951
 20
26.9723
 30
0.0
 10
3.1291
 20
26.9041
 30
0.0
 10
2.9974
 20
26.7677
 30
0.0
 10
2.9974
 20
26.7677
 30
0.0
 10
2.8661
 20
26.6312
 30
0.0
 10
2.8003
 20
26.4276
 30
0.0
 10
2.8003
 20
26.1562
 30
0.0
 10
2.8003
 20
26.1562
 30
0.0
 10
2.8003
 20
26.0499
 30
0.0
 10
2.8106
 20
25.9553
 30
0.0
 10
2.8309
 20
25.8725
 30
0.0
 10
2.8309
 20
25.8725
 30
0.0
 10
2.8455
 20
25.8109
 30
0.0
 10
2.876
 20
25.7352
 30
0.0
 10
2.9231
 20
25.6454
 30
0.0
 10
2.9231
 20
25.6454
 30
0.0
 10
2.9231
 20
25.6454
 30
0.0
 10
3.9513
 20
26.7959
 30
0.0
 10
3.9513
 20
26.7959
 30
0.0
  0
SPLINE
  5
7F
330
1F
100
AcDbEntity
  8
DEFAULT_1
 62
   250
100
AcDbSpline
210
0.0
220
0.0
230
1.0
 70
    11
 71
     3
 72
    28
 73
    24
 74
     0
 42
0.0000000001
 43
0.0000000001
 40
0.0
 40
0.0
 40
0.0
 40
0.0
 40
0.1428571428571428
 40
0.1428571428571428
 40
0.1428571428571428
 40
0.1428571428571428
 40
0.2857142857142857
 40
0.2857142857142857
 40
0.2857142857142857
 40
0.2857142857142857
 40
0.4285714285714285
 40
0.4285714285714285
 40
0.4285714285714285
 40
0.4285714285714285
 40
0.5714285714285714
 40
0.5714285714285714
 40
0.5714285714285714
 40
0.5714285714285714
 40
0.7142857142857143
 40
0.7142857142857143
 40
0.7142857142857143
 40
0.7142857142857143
 40
1.0
 40
1.0
 40
1.0
 40
1.0
 10
4.0642
 20
26.6538
 30
0.0
 10
4.0642
 20
26.6538
 30
0.0
 10
3.0402
 20
25.5075
 30
0.0
 10
3.0402
 20
25.5075
 30
0.0
 10
3.0402
 20
25.5075
 30
0.0
 10
3.1107
 20
25.4497
 30
0.0
 10
3.1761
 20
25.4092
 30
0.0
 10
3.2359
 20
25.3862
 30
0.0
 10
3.2359
 20
25.3862
 30
0.0
 10
3.3139
 20
25.3556
 30
0.0
 10
3.3986
 20
25.3406
 30
0.0
 10
3.4894
 20
25.3406
 30
0.0
 10
3.4894
 20
25.3406
 30
0.0
 10
3.6898
 20
25.3406
 30
0.0
 10
3.8549
 20
25.4111
 30
0.0
 10
3.9856
 20
25.5527
 30
0.0
 10
3.9856
 20
25.5527
 30
0.0
 10
4.1159
 20
25.6943
 30
0.0
 10
4.1813
 20
25.8928
 30
0.0
 10
4.1813
 20
26.1482
 30
0.0
 10
4.1813
 20
26.1482
 30
0.0
 10
4.1813
 20
26.3391
 30
0.0
 10
4.1423
 20
26.508
 30
0.0
 10
4.0642
 20
26.6538
 30
0.0
  0
SPLINE
  5
80
330
1F
100
AcDbEntity
  8
DEFAULT_1
 62
   250
100
AcDbSpline
210
0.0
220
0.0
230
1.0
 70
    11
 71
     3
 72
   124
 73
   120
 74
     0
 42
0.0000000001
 43
0.0000000001
 40
0.0
 40
0.0
 40
0.0
 40
0.0
 40
0.032258064516129
 40
0.032258064516129
 40
0.032258064516129
 40
0.032258064516129
 40
0.0645161290322581
 40
0.0645161290322581
 40
0.0645161290322581
 40
0.0645161290322581
 40
0.0967741935483871
 40
0.0967741935483871
 40
0.0967741935483871
 40
0.0967741935483871
 40
0.1290322580645161
 40
0.1290322580645161
 40
0.1290322580645161
 40
0.1290322580645161
 40
0.1612903225806452
 40
0.1612903225806452
 40
0.1612903225806452
 40
0.1612903225806452
 40
0.1935483870967742
 40
0.1935483870967742
 40
0.1935483870967742
 40
0.1935483870967742
 40
0.2258064516129032
 40
0.2258064516129032
 40
0.2258064516129032
 40
0.2258064516129032
 40
0.2580645161290323
 40
0.2580645161290323
 40
0.2580645161290323
 40
0.2580645161290323
 40
0.2903225806451613
 40
0.2903225806451613
 40
0.2903225806451613
 40
0.2903225806451613
 40
0.3225806451612903
 40
0.3225806451612903
 40
0.3225806451612903
 40
0.3225806451612903
 40
0.3548387096774194
 40
0.3548387096774194
 40
0.3548387096774194
 40
0.3548387096774194
 40
0.3870967741935484
 40
0.3870967741935484
 40
0.3870967741935484
 40
0.3870967741935484
 40
0.4193548387096774
 40
0.4193548387096774
 40
0.4193548387096774
 40
0.4193548387096774
 40
0.4516129032258064
 40
0.4516129032258064
 40
0.4516129032258064
 40
0.4516129032258064
 40
0.4838709677419355
 40
0.4838709677419355
 40
0.4838709677419355
 40
0.4838709677419355
 40
0.5161290322580645
 40
0.5161290322580645
 40
0.5161290322580645
 40
0.5161290322580645
 40
0.5483870967741935
 40
0.5483870967741935
 40
0.5483870967741935
 40
0.5483870967741935
 40
0.5806451612903226
 40
0.5806451612903226
 40
0.5806451612903226
 40
0.5806451612903226
 40
0.6129032258064516
 40
0.6129032258064516
 40
0.6129032258064516
 40
0.6129032258064516
 40
0.6451612903225806
 40
0.6451612903225806
 40
0.6451612903225806
 40
0.6451612903225806
 40
0.6774193548387096
 40
0.6774193548387096
 40
0.6774193548387096
 40
0.6774193548387096
 40
0.7096774193548387
 40
0.7096774193548387
 40
0.7096774193548387
 40
0.7096774193548387
 40
0.7419354838709677
 40
0.7419354838709677
 40
0.7419354838709677
 40
0.7419354838709677
 40
0.7741935483870968
 40
0.7741935483870968
 40
0.7741935483870968
 40
0.7741935483870968
 40
0.8064516129032258
 40
0.8064516129032258
 40
0.8064516129032258
 40
0.8064516129032258
 40
0.8387096774193549
 40
0.8387096774193549
 40
0.8387096774193549
 40
0.8387096774193549
 40
0.8709677419354839
 40
0.8709677419354839
 40
0.8709677419354839
 40
0.8709677419354839
 40
0.9032258064516129
 40
0.9032258064516129
 40
0.9032258064516129
 40
0.9032258064516129
 40
0.9354838709677419
 40
0.9354838709677419
 40
0.9354838709677419
 40
0.9354838709677419
 40
1.0
 40
1.0
 40
1.0
 40
1.0
 10
4.7076
 20
25.6797
 30
0.0
 10
4.7076
 20
25.6797
 30
0.0
 10
4.9555
 20
25.7126
 30
0.0
 10
4.9555
 20
25.7126
 30
0.0
 10
4.9555
 20
25.7126
 30
0.0
 10
4.9842
 20
25.572
 30
0.0
 10
5.0327
 20
25.4709
 30
0.0
 10
5.1009
 20
25.4088
 30
0.0
 10
5.1009
 20
25.4088
 30
0.0
 10
5.1695
 20
25.3467
 30
0.0
 10
5.2528
 20
25.3156
 30
0.0
 10
5.3511
 20
25.3156
 30
0.0
 10
5.3511
 20
25.3156
 30
0.0
 10
5.4677
 20
25.3156
 30
0.0
 10
5.5665
 20
25.3561
 30
0.0
 10
5.647
 20
25.437
 30
0.0
 10
5.647
 20
25.437
 30
0.0
 10
5.7269
 20
25.5179
 30
0.0
 10
5.7674
 20
25.6181
 30
0.0
 10
5.7674
 20
25.7376
 30
0.0
 10
5.7674
 20
25.7376
 30
0.0
 10
5.7674
 20
25.8514
 30
0.0
 10
5.7302
 20
25.9455
 30
0.0
 10
5.6559
 20
26.0193
 30
0.0
 10
5.6559
 20
26.0193
 30
0.0
 10
5.5811
 20
26.0931
 30
0.0
 10
5.4866
 20
26.1303
 30
0.0
 10
5.3718
 20
26.1303
 30
0.0
 10
5.3718
 20
26.1303
 30
0.0
 10
5.3248
 20
26.1303
 30
0.0
 10
5.2664
 20
26.1209
 30
0.0
 10
5.1968
 20
26.1026
 30
0.0
 10
5.1968
 20
26.1026
 30
0.0
 10
5.1968
 20
26.1026
 30
0.0
 10
5.2246
 20
26.3203
 30
0.0
 10
5.2246
 20
26.3203
 30
0.0
 10
5.2246
 20
26.3203
 30
0.0
 10
5.241
 20
26.3185
 30
0.0
 10
5.2542
 20
26.3175
 30
0.0
 10
5.2645
 20
26.3175
 30
0.0
 10
5.2645
 20
26.3175
 30
0.0
 10
5.3699
 20
26.3175
 30
0.0
 10
5.4649
 20
26.3453
 30
0.0
 10
5.5496
 20
26.4003
 30
0.0
 10
5.5496
 20
26.4003
 30
0.0
 10
5.6343
 20
26.4553
 30
0.0
 10
5.6766
 20
26.5405
 30
0.0
 10
5.6766
 20
26.6552
 30
0.0
 10
5.6766
 20
26.6552
 30
0.0
 10
5.6766
 20
26.746
 30
0.0
 10
5.6455
 20
26.8217
 30
0.0
 10
5.5839
 20
26.881
 30
0.0
 10
5.5839
 20
26.881
 30
0.0
 10
5.5223
 20
26.9407
 30
0.0
 10
5.4428
 20
26.9709
 30
0.0
 10
5.3454
 20
26.9709
 30
0.0
 10
5.3454
 20
26.9709
 30
0.0
 10
5.249
 20
26.9709
 30
0.0
 10
5.1686
 20
26.9403
 30
0.0
 10
5.1046
 20
26.8801
 30
0.0
 10
5.1046
 20
26.8801
 30
0.0
 10
5.0402
 20
26.8194
 30
0.0
 10
4.9988
 20
26.7281
 30
0.0
 10
4.9804
 20
26.6068
 30
0.0
 10
4.9804
 20
26.6068
 30
0.0
 10
4.9804
 20
26.6068
 30
0.0
 10
4.7326
 20
26.651
 30
0.0
 10
4.7326
 20
26.651
 30
0.0
 10
4.7326
 20
26.651
 30
0.0
 10
4.7627
 20
26.8175
 30
0.0
 10
4.8318
 20
26.9464
 30
0.0
 10
4.9391
 20
27.0376
 30
0.0
 10
4.9391
 20
27.0376
 30
0.0
 10
5.0468
 20
27.1289
 30
0.0
 10
5.1804
 20
27.175
 30
0.0
 10
5.3403
 20
27.175
 30
0.0
 10
5.3403
 20
27.175
 30
0.0
 10
5.4503
 20
27.175
 30
0.0
 10
5.5519
 20
27.151
 30
0.0
 10
5.6446
 20
27.104
 30
0.0
 10
5.6446
 20
27.104
 30
0.0
 10
5.7373
 20
27.0565
 30
0.0
 10
5.8083
 20
26.992
 30
0.0
 10
5.8577
 20
26.9102
 30
0.0
 10
5.8577
 20
26.9102
 30
0.0
 10
5.9066
 20
26.8283
 30
0.0
 10
5.9315
 20
26.7418
 30
0.0
 10
5.9315
 20
26.6496
 30
0.0
 10
5.9315
 20
26.6496
 30
0.0
 10
5.9315
 20
26.5626
 30
0.0
 10
5.908
 20
26.4831
 30
0.0
 10
5.861
 20
26.4111
 30
0.0
 10
5.861
 20
26.4111
 30
0.0
 10
5.8139
 20
26.3396
 30
0.0
 10
5.7448
 20
26.2827
 30
0.0
 10
5.6531
 20
26.2404
 30
0.0
 10
5.6531
 20
26.2404
 30
0.0
 10
5.7725
 20
26.2131
 30
0.0
 10
5.8652
 20
26.1557
 30
0.0
 10
5.9315
 20
26.0687
 30
0.0
 10
5.9315
 20
26.0687
 30
0.0
 10
5.9974
 20
25.9821
 30
0.0
 10
6.0303
 20
25.8735
 30
0.0
 10
6.0303
 20
25.7432
 30
0.0
 10
6.0303
 20
25.7432
 30
0.0
 10
6.0303
 20
25.5668
 30
0.0
 10
5.9663
 20
25.4172
 30
0.0
 10
5.8375
 20
25.2945
 30
0.0
 10
5.8375
 20
25.2945
 30
0.0
 10
5.709
 20
25.1717
 30
0.0
 10
5.5463
 20
25.1106
 30
0.0
 10
5.3497
 20
25.1106
 30
0.0
 10
5.3497
 20
25.1106
 30
0.0
 10
5.1724
 20
25.1106
 30
0.0
 10
5.0251
 20
25.1632
 30
0.0
 10
4.908
 20
25.2691
 30
0.0
 10
4.908
 20
25.2691
 30
0.0
 10
4.7909
 20
25.3744
 30
0.0
 10
4.7241
 20
25.5113
 30
0.0
 10
4.7076
 20
25.6797
 30
0.0
  0
SPLINE
  5
81
330
1F
100
AcDbEntity
  8
DEFAULT_1
 62
   250
100
AcDbSpline
210
0.0
220
0.0
230
1.0
 70
    11
 71
     3
 72
    48
 73
    44
 74
     0
 42
0.0000000001
 43
0.0000000001
 40
0.0
 40
0.0
 40
0.0
 40
0.0
 40
0.0833333333333333
 40
0.0833333333333333
 40
0.0833333333333333
 40
0.0833333333333333
 40
0.1666666666666667
 40
0.1666666666666667
 40
0.1666666666666667
 40
0.1666666666666667
 40
0.25
 40
0.25
 40
0.25
 40
0.25
 40
0.3333333333333333
 40
0.3333333333333333
 40
0.3333333333333333
 40
0.3333333333333333
 40
0.4166666666666667
 40
0.4166666666666667
 40
0.4166666666666667
 40
0.4166666666666667
 40
0.5
 40
0.5
 40
0.5
 40
0.5
 40
0.5833333333333334
 40
0.5833333333333334
 40
0.5833333333333334
 40
0.5833333333333334
 40
0.6666666666666666
 40
0.6666666666666666
 40
0.6666666666666666
 40
0.6666666666666666
 40
0.75
 40
0.75
 40
0.75
 40
0.75
 40
0.8333333333333334
 40
0.8333333333333334
 40
0.8333333333333334
 40
0.8333333333333334
 40
1.0
 40
1.0
 40
1.0
 40
1.0
 10
6.2923
 20
26.9017
 30
0.0
 10
6.2923
 20
26.9017
 30
0.0
 10
6.2923
 20
27.1402
 30
0.0
 10
6.2923
 20
27.1402
 30
0.0
 10
6.2923
 20
27.1402
 30
0.0
 10
6.2923
 20
27.1402
 30
0.0
 10
7.5999
 20
27.1402
 30
0.0
 10
7.5999
 20
27.1402
 30
0.0
 10
7.5999
 20
27.1402
 30
0.0
 10
7.5999
 20
27.1402
 30
0.0
 10
7.5999
 20
26.9473
 30
0.0
 10
7.5999
 20
26.9473
 30
0.0
 10
7.5999
 20
26.9473
 30
0.0
 10
7.4715
 20
26.8105
 30
0.0
 10
7.344
 20
26.6284
 30
0.0
 10
7.2175
 20
26.4017
 30
0.0
 10
7.2175
 20
26.4017
 30
0.0
 10
7.0914
 20
26.175
 30
0.0
 10
6.9936
 20
25.9412
 30
0.0
 10
6.9249
 20
25.7018
 30
0.0
 10
6.9249
 20
25.7018
 30
0.0
 10
6.8751
 20
25.5325
 30
0.0
 10
6.8436
 20
25.3476
 30
0.0
 10
6.8299
 20
25.1463
 30
0.0
 10
6.8299
 20
25.1463
 30
0.0
 10
6.8299
 20
25.1463
 30
0.0
 10
6.575
 20
25.1463
 30
0.0
 10
6.575
 20
25.1463
 30
0.0
 10
6.575
 20
25.1463
 30
0.0
 10
6.5778
 20
25.3053
 30
0.0
 10
6.6088
 20
25.4972
 30
0.0
 10
6.6686
 20
25.7225
 30
0.0
 10
6.6686
 20
25.7225
 30
0.0
 10
6.7283
 20
25.9473
 30
0.0
 10
6.8139
 20
26.1646
 30
0.0
 10
6.9254
 20
26.3735
 30
0.0
 10
6.9254
 20
26.3735
 30
0.0
 10
7.0373
 20
26.5823
 30
0.0
 10
7.1559
 20
26.7587
 30
0.0
 10
7.2819
 20
26.9017
 30
0.0
 10
7.2819
 20
26.9017
 30
0.0
 10
7.2819
 20
26.9017
 30
0.0
 10
6.2923
 20
26.9017
 30
0.0
 10
6.2923
 20
26.9017
 30
0.0
  0
SPLINE
  5
82
330
1F
100
AcDbEntity
  8
DEFAULT_1
 62
   250
100
AcDbSpline
210
0.0
220
0.0
230
1.0
 70
    11
 71
     3
 72
    20
 73
    16
 74
     0
 42
0.0000000001
 43
0.0000000001
 40
0.0
 40
0.0
 40
0.0
 40
0.0
 40
0.2
 40
0.2
 40
0.2
 40
0.2
 40
0.4
 40
0.4
 40
0.4
 40
0.4
 40
0.6
 40
0.6
 40
0.6
 40
0.6
 40
1.0
 40
1.0
 40
1.0
 40
1.0
 10
10.4305
 20
24.9654
 30
0.0
 10
10.4305
 20
24.9654
 30
0.0
 10
13.5114
 20
24.5306
 30
0.0
 10
13.5114
 20
24.5306
 30
0.0
 10
13.5114
 20
24.5306
 30
0.0
 10
13.5114
 20
24.5306
 30
0.0
 10
13.5114
 20
24.434
 30
0.0
 10
13.5114
 20
24.434
 30
0.0
 10
13.5114
 20
24.434
 30
0.0
 10
13.5114
 20
24.434
 30
0.0
 10
10.4305
 20
23.9703
 30
0.0
 10
10.4305
 20
23.9703
 30
0.0
 10
10.4305
 20
23.9703
 30
0.0
 10
10.4305
 20
23.9703
 30
0.0
 10
10.4305
 20
24.9654
 30
0.0
 10
10.4305
 20
24.9654
 30
0.0
  0
SPLINE
  5
83
330
1F
100
AcDbEntity
  8
DEFAULT_1
 62
   250
100
AcDbSpline
210
0.0
220
0.0
230
1.0
 70
    11
 71
     3
 72
    20
 73
    16
 74
     0
 42
0.0000000001
 43
0.0000000001
 40
0.0
 40
0.0
 40
0.0
 40
0.0
 40
0.2
 40
0.2
 40
0.2
 40
0.2
 40
0.4
 40
0.4
 40
0.4
 40
0.4
 40
0.6
 40
0.6
 40
0.6
 40
0.6
 40
1.0
 40
1.0
 40
1.0
 40
1.0
 10
-0.25
 20
24.0475
 30
0.0
 10
-0.25
 20
24.0475
 30
0.0
 10
-3.3309
 20
24.4823
 30
0.0
 10
-3.3309
 20
24.4823
 30
0.0
 10
-3.3309
 20
24.4823
 30
0.0
 10
-3.3309
 20
24.4823
 30
0.0
 10
-3.3309
 20
24.5789
 30
0.0
 10
-3.3309
 20
24.5789
 30
0.0
 10
-3.3309
 20
24.5789
 30
0.0
 10
-3.3309
 20
24.5789
 30
0.0
 10
-0.25
 20
25.0426
 30
0.0
 10
-0.25
 20
25.0426
 30
0.0
 10
-0.25
 20
25.0426
 30
0.0
 10
-0.25
 20
25.0426
 30
0.0
 10
-0.25
 20
24.0475
 30
0.0
 10
-0.25
 20
24.0475
 30
0.0
  0
SPLINE
  5
84
330
1F
100
AcDbEntity
  8
DEFAULT_1
 62
   250
100
AcDbSpline
210
0.0
220
0.0
230
1.0
 70
    24
 71
     3
 72
     8
 73
     4
 74
     0
 42
0.0000000001
 43
0.0000000001
 40
0.0
 40
0.0
 40
0.0
 40
0.0
 40
1.0
 40
1.0
 40
1.0
 40
1.0
 10
19.4549
 20
15.6402
 30
0.0
 10
19.4549
 20
15.6402
 30
0.0
 10
19.4549
 20
31.345
 30
0.0
 10
19.4549
 20
31.345
 30
0.0
  0
SPLINE
  5
85
330
1F
100
AcDbEntity
  8
DEFAULT_1
 62
   250
100
AcDbSpline
210
0.0
220
0.0
230
1.0
 70
    24
 71
     3
 72
     8
 73
     4
 74
     0
 42
0.0000000001
 43
0.0000000001
 40
0.0
 40
0.0
 40
0.0
 40
0.0
 40
1.0
 40
1.0
 40
1.0
 40
1.0
 10
-9.3239
 20
15.6906
 30
0.0
 10
-9.3239
 20
15.6906
 30
0.0
 10
-9.3239
 20
31.1139
 30
0.0
 10
-9.3239
 20
31.1139
 30
0.0
  0
SPLINE
  5
86
330
1F
100
AcDbEntity
  8
DEFAULT_1
 62
   250
100
AcDbSpline
210
0.0
220
0.0
230
1.0
 70
    24
 71
     3
 72
     8
 73
     4
 74
     0
 42
0.0000000001
 43
0.0000000001
 40
0.0
 40
0.0
 40
0.0
 40
0.0
 40
1.0
 40
1.0
 40
1.0
 40
1.0
 10
-8.7082
 20
30.2476
 30
0.0
 10
-8.7082
 20
30.2476
 30
0.0
 10
19.1074
 20
30.2476
 30
0.0
 10
19.1074
 20
30.2476
 30
0.0
  0
SPLINE
  5
87
330
1F
100
AcDbEntity
  8
DEFAULT_1
 62
   250
100
AcDbSpline
210
0.0
220
0.0
230
1.0
 70
    11
 71
     3
 72
    20
 73
    16
 74
     0
 42
0.0000000001
 43
0.0000000001
 40
0.0
 40
0.0
 40
0.0
 40
0.0
 40
0.2
 40
0.2
 40
0.2
 40
0.2
 40
0.4
 40
0.4
 40
0.4
 40
0.4
 40
0.6
 40
0.6
 40
0.6
 40
0.6
 40
1.0
 40
1.0
 40
1.0
 40
1.0
 10
16.2117
 20
30.7752
 30
0.0
 10
16.2117
 20
30.7752
 30
0.0
 10
19.2926
 20
30.3404
 30
0.0
 10
19.2926
 20
30.3404
 30
0.0
 10
19.2926
 20
30.3404
 30
0.0
 10
19.2926
 20
30.3404
 30
0.0
 10
19.2926
 20
30.2438
 30
0.0
 10
19.2926
 20
30.2438
 30
0.0
 10
19.2926
 20
30.2438
 30
0.0
 10
19.2926
 20
30.2438
 30
0.0
 10
16.2117
 20
29.7801
 30
0.0
 10
16.2117
 20
29.7801
 30
0.0
 10
16.2117
 20
29.7801
 30
0.0
 10
16.2117
 20
29.7801
 30
0.0
 10
16.2117
 20
30.7752
 30
0.0
 10
16.2117
 20
30.7752
 30
0.0
  0
SPLINE
  5
88
330
1F
100
AcDbEntity
  8
DEFAULT_1
 62
   250
100
AcDbSpline
210
0.0
220
0.0
230
1.0
 70
    11
 71
     3
 72
    20
 73
    16
 74
     0
 42
0.0000000001
 43
0.0000000001
 40
0.0
 40
0.0
 40
0.0
 40
0.0
 40
0.2
 40
0.2
 40
0.2
 40
0.2
 40
0.4
 40
0.4
 40
0.4
 40
0.4
 40
0.6
 40
0.6
 40
0.6
 40
0.6
 40
1.0
 40
1.0
 40
1.0
 40
1.0
 10
-6.0356
 20
29.7637
 30
0.0
 10
-6.0356
 20
29.7637
 30
0.0
 10
-9.1166
 20
30.1985
 30
0.0
 10
-9.1166
 20
30.1985
 30
0.0
 10
-9.1166
 20
30.1985
 30
0.0
 10
-9.1166
 20
30.1985
 30
0.0
 10
-9.1166
 20
30.295
 30
0.0
 10
-9.1166
 20
30.295
 30
0.0
 10
-9.1166
 20
30.295
 30
0.0
 10
-9.1166
 20
30.295
 30
0.0
 10
-6.0356
 20
30.7588
 30
0.0
 10
-6.0356
 20
30.7588
 30
0.0
 10
-6.0356
 20
30.7588
 30
0.0
 10
-6.0356
 20
30.7588
 30
0.0
 10
-6.0356
 20
29.7637
 30
0.0
 10
-6.0356
 20
29.7637
 30
0.0
  0
SPLINE
  5
89
330
1F
100
AcDbEntity
  8
DEFAULT_1
 62
   250
100
AcDbSpline
210
0.0
220
0.0
230
1.0
 70
    24
 71
     3
 72
     8
 73
     4
 74
     0
 42
0.0000000001
 43
0.0000000001
 40
0.0
 40
0.0
 40
0.0
 40
0.0
 40
1.0
 40
1.0
 40
1.0
 40
1.0
 10
11.384
 20
1.9216
 30
0.0
 10
11.384
 20
1.9216
 30
0.0
 10
14.4526
 20
2.0517
 30
0.0
 10
14.4526
 20
2.0517
 30
0.0
  0
SPLINE
  5
8A
330
1F
100
AcDbEntity
  8
DEFAULT_1
 62
   250
100
AcDbSpline
210
0.0
220
0.0
230
1.0
 70
    24
 71
     3
 72
     8
 73
     4
 74
     0
 42
0.0000000001
 43
0.0000000001
 40
0.0
 40
0.0
 40
0.0
 40
0.0
 40
1.0
 40
1.0
 40
1.0
 40
1.0
 10
-4.1546
 20
12.4728
 30
0.0
 10
-4.1546
 20
12.4728
 30
0.0
 10
13.1164
 20
13.2055
 30
0.0
 10
13.1164
 20
13.2055
 30
0.0
  0
SPLINE
  5
8B
330
1F
100
AcDbEntity
  8
DEFAULT_1
 62
   250
100
AcDbSpline
210
0.0
220
0.0
230
1.0
 70
    24
 71
     3
 72
     8
 73
     4
 74
     0
 42
0.0000000001
 43
0.0000000001
 40
0.0
 40
0.0
 40
0.0
 40
0.0
 40
1.0
 40
1.0
 40
1.0
 40
1.0
 10
11.2715
 20
3.0031
 30
0.0
 10
11.2715
 20
3.0031
 30
0.0
 10
14.3387
 20
3.1335
 30
0.0
 10
14.3387
 20
3.1335
 30
0.0
  0
SPLINE
  5
8C
330
1F
100
AcDbEntity
  8
DEFAULT_1
 62
   250
100
AcDbSpline
210
0.0
220
0.0
230
1.0
 70
    24
 71
     3
 72
     8
 73
     4
 74
     0
 42
0.0000000001
 43
0.0000000001
 40
0.0
 40
0.0
 40
0.0
 40
0.0
 40
1.0
 40
1.0
 40
1.0
 40
1.0
 10
-4.2452
 20
2.3451
 30
0.0
 10
-4.2452
 20
2.3451
 30
0.0
 10
-0.9631
 20
2.4854
 30
0.0
 10
-0.9631
 20
2.4854
 30
0.0
  0
SPLINE
  5
8D
330
1F
100
AcDbEntity
  8
DEFAULT_1
 62
   250
100
AcDbSpline
210
0.0
220
0.0
230
1.0
 70
    24
 71
     3
 72
     8
 73
     4
 74
     0
 42
0.0000000001
 43
0.0000000001
 40
0.0
 40
0.0
 40
0.0
 40
0.0
 40
1.0
 40
1.0
 40
1.0
 40
1.0
 10
-4.1614
 20
3.7764
 30
0.0
 10
-4.1614
 20
3.7764
 30
0.0
 10
-1.075
 20
3.907
 30
0.0
 10
-1.075
 20
3.907
 30
0.0
  0
SPLINE
  5
8E
330
1F
100
AcDbEntity
  8
DEFAULT_1
 62
   250
100
AcDbSpline
210
0.0
220
0.0
230
1.0
 70
    24
 71
     3
 72
     8
 73
     4
 74
     0
 42
0.0000000001
 43
0.0000000001
 40
0.0
 40
0.0
 40
0.0
 40
0.0
 40
1.0
 40
1.0
 40
1.0
 40
1.0
 10
11.3033
 20
4.4331
 30
0.0
 10
11.3033
 20
4.4331
 30
0.0
 10
14.2964
 20
4.5594
 30
0.0
 10
14.2964
 20
4.5594
 30
0.0
  0
SPLINE
  5
8F
330
1F
100
AcDbEntity
  8
DEFAULT_1
 62
   250
100
AcDbSpline
210
0.0
220
0.0
230
1.0
 70
    24
 71
     3
 72
     8
 73
     4
 74
     0
 42
0.0000000001
 43
0.0000000001
 40
0.0
 40
0.0
 40
0.0
 40
0.0
 40
1.0
 40
1.0
 40
1.0
 40
1.0
 10
11.336
 20
5.7976
 30
0.0
 10
11.336
 20
5.7976
 30
0.0
 10
14.3047
 20
5.9248
 30
0.0
 10
14.3047
 20
5.9248
 30
0.0
  0
SPLINE
  5
90
330
1F
100
AcDbEntity
  8
DEFAULT_1
 62
   250
100
AcDbSpline
210
0.0
220
0.0
230
1.0
 70
    24
 71
     3
 72
     8
 73
     4
 74
     0
 42
0.0000000001
 43
0.0000000001
 40
0.0
 40
0.0
 40
0.0
 40
0.0
 40
1.0
 40
1.0
 40
1.0
 40
1.0
 10
-4.212
 20
5.1392
 30
0.0
 10
-4.212
 20
5.1392
 30
0.0
 10
-1.0287
 20
5.2744
 30
0.0
 10
-1.0287
 20
5.2744
 30
0.0
  0
SPLINE
  5
91
330
1F
100
AcDbEntity
  8
DEFAULT_1
 62
   250
100
AcDbSpline
210
0.0
220
0.0
230
1.0
 70
    24
 71
     3
 72
     8
 73
     4
 74
     0
 42
0.0000000001
 43
0.0000000001
 40
0.0
 40
0.0
 40
0.0
 40
0.0
 40
1.0
 40
1.0
 40
1.0
 40
1.0
 10
-4.2393
 20
6.4907
 30
0.0
 10
-4.2393
 20
6.4907
 30
0.0
 10
14.4157
 20
7.2821
 30
0.0
 10
14.4157
 20
7.2821
 30
0.0
  0
SPLINE
  5
92
330
1F
100
AcDbEntity
  8
DEFAULT_1
 62
   250
100
AcDbSpline
210
0.0
220
0.0
230
1.0
 70
    24
 71
     3
 72
     8
 73
     4
 74
     0
 42
0.0000000001
 43
0.0000000001
 40
0.0
 40
0.0
 40
0.0
 40
0.0
 40
1.0
 40
1.0
 40
1.0
 40
1.0
 10
-4.2861
 20
7.7049
 30
0.0
 10
-4.2861
 20
7.7049
 30
0.0
 10
14.3689
 20
8.4963
 30
0.0
 10
14.3689
 20
8.4963
 30
0.0
  0
SPLINE
  5
93
330
1F
100
AcDbEntity
  8
DEFAULT_1
 62
   250
100
AcDbSpline
210
0.0
220
0.0
230
1.0
 70
    24
 71
     3
 72
     8
 73
     4
 74
     0
 42
0.0000000001
 43
0.0000000001
 40
0.0
 40
0.0
 40
0.0
 40
0.0
 40
1.0
 40
1.0
 40
1.0
 40
1.0
 10
-4.2861
 20
10.0467
 30
0.0
 10
-4.2861
 20
10.0467
 30
0.0
 10
14.3689
 20
10.8378
 30
0.0
 10
14.3689
 20
10.8378
 30
0.0
  0
SPLINE
  5
94
330
1F
100
AcDbEntity
  8
DEFAULT_1
 62
   250
100
AcDbSpline
210
0.0
220
0.0
230
1.0
 70
    24
 71
     3
 72
     8
 73
     4
 74
     0
 42
0.0000000001
 43
0.0000000001
 40
0.0
 40
0.0
 40
0.0
 40
0.0
 40
1.0
 40
1.0
 40
1.0
 40
1.0
 10
-4.015
 20
11.3774
 30
0.0
 10
-4.015
 20
11.3774
 30
0.0
 10
14.4177
 20
12.1595
 30
0.0
 10
14.4177
 20
12.1595
 30
0.0
  0
SPLINE
  5
95
330
1F
100
AcDbEntity
  8
DEFAULT_1
 62
   250
100
AcDbSpline
210
0.0
220
0.0
230
1.0
 70
    24
 71
     3
 72
     8
 73
     4
 74
     0
 42
0.0000000001
 43
0.0000000001
 40
0.0
 40
0.0
 40
0.0
 40
0.0
 40
1.0
 40
1.0
 40
1.0
 40
1.0
 10
-4.3985
 20
-16.4933
 30
0.0
 10
-4.3985
 20
-16.4933
 30
0.0
 10
14.6078
 20
-16.0211
 30
0.0
 10
14.6078
 20
-16.0211
 30
0.0
  0
SPLINE
  5
96
330
1F
100
AcDbEntity
  8
DEFAULT_1
 62
   250
100
AcDbSpline
210
0.0
220
0.0
230
1.0
 70
    24
 71
     3
 72
     8
 73
     4
 74
     0
 42
0.0000000001
 43
0.0000000001
 40
0.0
 40
0.0
 40
0.0
 40
0.0
 40
1.0
 40
1.0
 40
1.0
 40
1.0
 10
-4.3483
 20
-15.1938
 30
0.0
 10
-4.3483
 20
-15.1938
 30
0.0
 10
14.658
 20
-14.7216
 30
0.0
 10
14.658
 20
-14.7216
 30
0.0
  0
SPLINE
  5
97
330
1F
100
AcDbEntity
  8
DEFAULT_1
 62
   250
100
AcDbSpline
210
0.0
220
0.0
230
1.0
 70
    24
 71
     3
 72
     8
 73
     4
 74
     0
 42
0.0000000001
 43
0.0000000001
 40
0.0
 40
0.0
 40
0.0
 40
0.0
 40
1.0
 40
1.0
 40
1.0
 40
1.0
 10
-4.3483
 20
-19.1534
 30
0.0
 10
-4.3483
 20
-19.1534
 30
0.0
 10
14.658
 20
-18.6811
 30
0.0
 10
14.658
 20
-18.6811
 30
0.0
  0
SPLINE
  5
98
330
1F
100
AcDbEntity
  8
DEFAULT_1
 62
   250
100
AcDbSpline
210
0.0
220
0.0
230
1.0
 70
    24
 71
     3
 72
     8
 73
     4
 74
     0
 42
0.0000000001
 43
0.0000000001
 40
0.0
 40
0.0
 40
0.0
 40
0.0
 40
1.0
 40
1.0
 40
1.0
 40
1.0
 10
-4.3483
 20
-17.7426
 30
0.0
 10
-4.3483
 20
-17.7426
 30
0.0
 10
14.658
 20
-17.2703
 30
0.0
 10
14.658
 20
-17.2703
 30
0.0
  0
SPLINE
  5
99
330
1F
100
AcDbEntity
  8
DEFAULT_1
 62
   250
100
AcDbSpline
210
0.0
220
0.0
230
1.0
 70
     8
 71
     3
 72
    32
 73
    28
 74
     0
 42
0.0000000001
 43
0.0000000001
 40
0.0
 40
0.0
 40
0.0
 40
0.0
 40
0.125
 40
0.125
 40
0.125
 40
0.125
 40
0.25
 40
0.25
 40
0.25
 40
0.25
 40
0.375
 40
0.375
 40
0.375
 40
0.375
 40
0.5
 40
0.5
 40
0.5
 40
0.5
 40
0.625
 40
0.625
 40
0.625
 40
0.625
 40
0.75
 40
0.75
 40
0.75
 40
0.75
 40
1.0
 40
1.0
 40
1.0
 40
1.0
 10
-6.6504
 20
-1.5565
 30
0.0
 10
-6.6504
 20
-1.5565
 30
0.0
 10
-6.6698
 20
-4.6555
 30
0.0
 10
-6.6698
 20
-4.6555
 30
0.0
 10
-6.6698
 20
-4.6555
 30
0.0
 10
-6.6698
 20
-4.6555
 30
0.0
 10
-1.6347
 20
-4.6555
 30
0.0
 10
-1.6347
 20
-4.6555
 30
0.0
 10
-1.6347
 20
-4.6555
 30
0.0
 10
-1.6347
 20
-4.6555
 30
0.0
 10
0.3891
 20
-4.6555
 30
0.0
 10
0.3891
 20
-4.6555
 30
0.0
 10
0.3891
 20
-4.6555
 30
0.0
 10
0.3891
 20
-4.6555
 30
0.0
 10
9.8335
 20
-4.6555
 30
0.0
 10
9.8335
 20
-4.6555
 30
0.0
 10
9.8335
 20
-4.6555
 30
0.0
 10
9.8335
 20
-4.6555
 30
0.0
 10
11.8575
 20
-4.6555
 30
0.0
 10
11.8575
 20
-4.6555
 30
0.0
 10
11.8575
 20
-4.6555
 30
0.0
 10
11.8575
 20
-4.6555
 30
0.0
 10
16.8926
 20
-4.6555
 30
0.0
 10
16.8926
 20
-4.6555
 30
0.0
 10
16.8926
 20
-4.6555
 30
0.0
 10
16.8926
 20
-4.6555
 30
0.0
 10
16.8754
 20
-1.5565
 30
0.0
 10
16.8754
 20
-1.5565
 30
0.0
  0
SPLINE
  5
9A
330
1F
100
AcDbEntity
  8
DEFAULT_1
 62
   250
100
AcDbSpline
210
0.0
220
0.0
230
1.0
 70
     8
 71
     3
 72
    40
 73
    36
 74
     0
 42
0.0000000001
 43
0.0000000001
 40
0.0
 40
0.0
 40
0.0
 40
0.0
 40
0.1
 40
0.1
 40
0.1
 40
0.1
 40
0.2
 40
0.2
 40
0.2
 40
0.2
 40
0.3
 40
0.3
 40
0.3
 40
0.3
 40
0.4
 40
0.4
 40
0.4
 40
0.4
 40
0.5
 40
0.5
 40
0.5
 40
0.5
 40
0.6
 40
0.6
 40
0.6
 40
0.6
 40
0.7
 40
0.7
 40
0.7
 40
0.7
 40
0.8
 40
0.8
 40
0.8
 40
0.8
 40
1.0
 40
1.0
 40
1.0
 40
1.0
 10
-5.3947
 20
-4.6555
 30
0.0
 10
-5.3947
 20
-4.6555
 30
0.0
 10
-5.382
 20
-14.1572
 30
0.0
 10
-5.382
 20
-14.1572
 30
0.0
 10
-5.382
 20
-14.1572
 30
0.0
 10
-5.382
 20
-14.1572
 30
0.0
 10
-4.441
 20
-14.6481
 30
0.0
 10
-4.441
 20
-14.6481
 30
0.0
 10
-4.441
 20
-14.6481
 30
0.0
 10
-4.441
 20
-14.6481
 30
0.0
 10
-4.441
 20
-19.1896
 30
0.0
 10
-4.441
 20
-19.1896
 30
0.0
 10
-4.441
 20
-19.1896
 30
0.0
 10
-4.441
 20
-19.1896
 30
0.0
 10
-4.0025
 20
-19.7102
 30
0.0
 10
-4.0025
 20
-19.7102
 30
0.0
 10
-4.0025
 20
-19.7102
 30
0.0
 10
-4.0025
 20
-19.7102
 30
0.0
 10
14.2253
 20
-19.7102
 30
0.0
 10
14.2253
 20
-19.7102
 30
0.0
 10
14.2253
 20
-19.7102
 30
0.0
 10
14.2253
 20
-19.7102
 30
0.0
 10
14.7578
 20
-19.3191
 30
0.0
 10
14.7578
 20
-19.3191
 30
0.0
 10
14.7578
 20
-19.3191
 30
0.0
 10
14.7578
 20
-19.3191
 30
0.0
 10
14.7578
 20
-14.6316
 30
0.0
 10
14.7578
 20
-14.6316
 30
0.0
 10
14.7578
 20
-14.6316
 30
0.0
 10
14.7578
 20
-14.6316
 30
0.0
 10
15.7659
 20
-14.2284
 30
0.0
 10
15.7659
 20
-14.2284
 30
0.0
 10
15.7659
 20
-14.2284
 30
0.0
 10
15.7659
 20
-14.2284
 30
0.0
 10
15.7223
 20
-4.6555
 30
0.0
 10
15.7223
 20
-4.6555
 30
0.0
  0
SPLINE
  5
9B
330
1F
100
AcDbEntity
  8
DEFAULT_1
 62
   250
100
AcDbSpline
210
0.0
220
0.0
230
1.0
 70
    11
 71
     3
 72
   128
 73
   124
 74
     0
 42
0.0000000001
 43
0.0000000001
 40
0.0
 40
0.0
 40
0.0
 40
0.0
 40
0.03125
 40
0.03125
 40
0.03125
 40
0.03125
 40
0.0625
 40
0.0625
 40
0.0625
 40
0.0625
 40
0.09375
 40
0.09375
 40
0.09375
 40
0.09375
 40
0.125
 40
0.125
 40
0.125
 40
0.125
 40
0.15625
 40
0.15625
 40
0.15625
 40
0.15625
 40
0.1875
 40
0.1875
 40
0.1875
 40
0.1875
 40
0.21875
 40
0.21875
 40
0.21875
 40
0.21875
 40
0.25
 40
0.25
 40
0.25
 40
0.25
 40
0.28125
 40
0.28125
 40
0.28125
 40
0.28125
 40
0.3125
 40
0.3125
 40
0.3125
 40
0.3125
 40
0.34375
 40
0.34375
 40
0.34375
 40
0.34375
 40
0.375
 40
0.375
 40
0.375
 40
0.375
 40
0.40625
 40
0.40625
 40
0.40625
 40
0.40625
 40
0.4375
 40
0.4375
 40
0.4375
 40
0.4375
 40
0.46875
 40
0.46875
 40
0.46875
 40
0.46875
 40
0.5
 40
0.5
 40
0.5
 40
0.5
 40
0.53125
 40
0.53125
 40
0.53125
 40
0.53125
 40
0.5625
 40
0.5625
 40
0.5625
 40
0.5625
 40
0.59375
 40
0.59375
 40
0.59375
 40
0.59375
 40
0.625
 40
0.625
 40
0.625
 40
0.625
 40
0.65625
 40
0.65625
 40
0.65625
 40
0.65625
 40
0.6875
 40
0.6875
 40
0.6875
 40
0.6875
 40
0.71875
 40
0.71875
 40
0.71875
 40
0.71875
 40
0.75
 40
0.75
 40
0.75
 40
0.75
 40
0.78125
 40
0.78125
 40
0.78125
 40
0.78125
 40
0.8125
 40
0.8125
 40
0.8125
 40
0.8125
 40
0.84375
 40
0.84375
 40
0.84375
 40
0.84375
 40
0.875
 40
0.875
 40
0.875
 40
0.875
 40
0.90625
 40
0.90625
 40
0.90625
 40
0.90625
 40
0.9375
 40
0.9375
 40
0.9375
 40
0.9375
 40
1.0
 40
1.0
 40
1.0
 40
1.0
 10
-1.6347
 20
-1.5815
 30
0.0
 10
-1.6347
 20
-1.5815
 30
0.0
 10
-2.311
 20
-1.7109
 30
0.0
 10
-2.311
 20
-1.7109
 30
0.0
 10
-2.311
 20
-1.7109
 30
0.0
 10
-2.311
 20
-1.7109
 30
0.0
 10
-2.9835
 20
-1.7999
 30
0.0
 10
-2.9835
 20
-1.7999
 30
0.0
 10
-2.9835
 20
-1.7999
 30
0.0
 10
-2.9835
 20
-1.7999
 30
0.0
 10
-3.6578
 20
-1.8455
 30
0.0
 10
-3.6578
 20
-1.8455
 30
0.0
 10
-3.6578
 20
-1.8455
 30
0.0
 10
-3.6578
 20
-1.8455
 30
0.0
 10
-4.3337
 20
-1.8455
 30
0.0
 10
-4.3337
 20
-1.8455
 30
0.0
 10
-4.3337
 20
-1.8455
 30
0.0
 10
-4.3337
 20
-1.8455
 30
0.0
 10
-5.008
 20
-1.7999
 30
0.0
 10
-5.008
 20
-1.7999
 30
0.0
 10
-5.008
 20
-1.7999
 30
0.0
 10
-5.008
 20
-1.7999
 30
0.0
 10
-5.6805
 20
-1.7109
 30
0.0
 10
-5.6805
 20
-1.7109
 30
0.0
 10
-5.6805
 20
-1.7109
 30
0.0
 10
-5.6805
 20
-1.7109
 30
0.0
 10
-6.3568
 20
-1.5815
 30
0.0
 10
-6.3568
 20
-1.5815
 30
0.0
 10
-6.3568
 20
-1.5815
 30
0.0
 10
-6.3568
 20
-1.5815
 30
0.0
 10
-8.5561
 20
-1.0589
 30
0.0
 10
-8.5561
 20
-1.0589
 30
0.0
 10
-8.5561
 20
-1.0589
 30
0.0
 10
-8.5561
 20
-1.0589
 30
0.0
 10
-8.7529
 20
-0.8945
 30
0.0
 10
-8.7529
 20
-0.8945
 30
0.0
 10
-8.7529
 20
-0.8945
 30
0.0
 10
-8.7529
 20
-0.8945
 30
0.0
 10
-8.8514
 20
-0.5657
 30
0.0
 10
-8.8514
 20
-0.5657
 30
0.0
 10
-8.8514
 20
-0.5657
 30
0.0
 10
-8.8514
 20
-0.5657
 30
0.0
 10
-8.8843
 20
-0.3355
 30
0.0
 10
-8.8843
 20
-0.3355
 30
0.0
 10
-8.8843
 20
-0.3355
 30
0.0
 10
-8.8843
 20
-0.3355
 30
0.0
 10
-8.7201
 20
-0.1054
 30
0.0
 10
-8.7201
 20
-0.1054
 30
0.0
 10
-8.7201
 20
-0.1054
 30
0.0
 10
-8.7201
 20
-0.1054
 30
0.0
 10
-8.4576
 20
0.059
 30
0.0
 10
-8.4576
 20
0.059
 30
0.0
 10
-8.4576
 20
0.059
 30
0.0
 10
-8.4576
 20
0.059
 30
0.0
 10
18.8112
 20
0.0261
 30
0.0
 10
18.8112
 20
0.0261
 30
0.0
 10
18.8112
 20
0.0261
 30
0.0
 10
18.8112
 20
0.0261
 30
0.0
 10
19.0737
 20
-0.1383
 30
0.0
 10
19.0737
 20
-0.1383
 30
0.0
 10
19.0737
 20
-0.1383
 30
0.0
 10
19.0737
 20
-0.1383
 30
0.0
 10
19.1393
 20
-0.4671
 30
0.0
 10
19.1393
 20
-0.4671
 30
0.0
 10
19.1393
 20
-0.4671
 30
0.0
 10
19.1393
 20
-0.4671
 30
0.0
 10
19.0081
 20
-0.8945
 30
0.0
 10
19.0081
 20
-0.8945
 30
0.0
 10
19.0081
 20
-0.8945
 30
0.0
 10
19.0081
 20
-0.8945
 30
0.0
 10
18.6142
 20
-1.0918
 30
0.0
 10
18.6142
 20
-1.0918
 30
0.0
 10
18.6142
 20
-1.0918
 30
0.0
 10
18.6142
 20
-1.0918
 30
0.0
 10
15.2671
 20
-1.8152
 30
0.0
 10
15.2671
 20
-1.8152
 30
0.0
 10
15.2671
 20
-1.8152
 30
0.0
 10
15.2671
 20
-1.8152
 30
0.0
 10
14.4797
 20
-1.9139
 30
0.0
 10
14.4797
 20
-1.9139
 30
0.0
 10
14.4797
 20
-1.9139
 30
0.0
 10
14.4797
 20
-1.9139
 30
0.0
 10
13.364
 20
-1.881
 30
0.0
 10
13.364
 20
-1.881
 30
0.0
 10
13.364
 20
-1.881
 30
0.0
 10
13.364
 20
-1.881
 30
0.0
 10
12.1498
 20
-1.6179
 30
0.0
 10
12.1498
 20
-1.6179
 30
0.0
 10
12.1498
 20
-1.6179
 30
0.0
 10
12.1498
 20
-1.6179
 30
0.0
 10
11.3295
 20
-1.5193
 30
0.0
 10
11.3295
 20
-1.5193
 30
0.0
 10
11.3295
 20
-1.5193
 30
0.0
 10
11.3295
 20
-1.5193
 30
0.0
 10
10.3122
 20
-1.4864
 30
0.0
 10
10.3122
 20
-1.4864
 30
0.0
 10
10.3122
 20
-1.4864
 30
0.0
 10
10.3122
 20
-1.4864
 30
0.0
 10
9.1309
 20
-1.6179
 30
0.0
 10
9.1309
 20
-1.6179
 30
0.0
 10
9.1309
 20
-1.6179
 30
0.0
 10
9.1309
 20
-1.6179
 30
0.0
 10
6.5714
 20
-1.8481
 30
0.0
 10
6.5714
 20
-1.8481
 30
0.0
 10
6.5714
 20
-1.8481
 30
0.0
 10
6.5714
 20
-1.8481
 30
0.0
 10
4.6681
 20
-1.881
 30
0.0
 10
4.6681
 20
-1.881
 30
0.0
 10
4.6681
 20
-1.881
 30
0.0
 10
4.6681
 20
-1.881
 30
0.0
 10
1.8132
 20
-1.7166
 30
0.0
 10
1.8132
 20
-1.7166
 30
0.0
 10
1.8132
 20
-1.7166
 30
0.0
 10
1.8132
 20
-1.7166
 30
0.0
 10
0.2382
 20
-1.4864
 30
0.0
 10
0.2382
 20
-1.4864
 30
0.0
 10
0.2382
 20
-1.4864
 30
0.0
 10
0.2382
 20
-1.4864
 30
0.0
 10
-1.0087
 20
-1.4535
 30
0.0
 10
-1.0087
 20
-1.4535
 30
0.0
 10
-1.0087
 20
-1.4535
 30
0.0
 10
-1.0087
 20
-1.4535
 30
0.0
 10
-1.6347
 20
-1.5815
 30
0.0
 10
-1.6347
 20
-1.5815
 30
0.0
  0
SPLINE
  5
9C
330
1F
100
AcDbEntity
  8
DEFAULT_1
 62
   250
100
AcDbSpline
210
0.0
220
0.0
230
1.0
 70
    27
 71
     3
 72
    20
 73
    16
 74
     0
 42
0.0000000001
 43
0.0000000001
 40
0.0
 40
0.0
 40
0.0
 40
0.0
 40
0.2
 40
0.2
 40
0.2
 40
0.2
 40
0.4
 40
0.4
 40
0.4
 40
0.4
 40
0.6
 40
0.6
 40
0.6
 40
0.6
 40
1.0
 40
1.0
 40
1.0
 40
1.0
 10
11.8575
 20
-1.5815
 30
0.0
 10
11.8575
 20
-1.5815
 30
0.0
 10
11.8575
 20
-4.6343
 30
0.0
 10
11.8575
 20
-4.6343
 30
0.0
 10
11.8575
 20
-4.6343
 30
0.0
 10
11.8575
 20
-4.6343
 30
0.0
 10
11.8575
 20
-4.6555
 30
0.0
 10
11.8575
 20
-4.6555
 30
0.0
 10
11.8575
 20
-4.6555
 30
0.0
 10
11.8575
 20
-4.6555
 30
0.0
 10
11.8575
 20
-4.6343
 30
0.0
 10
11.8575
 20
-4.6343
 30
0.0
 10
11.8575
 20
-4.6343
 30
0.0
 10
11.8575
 20
-4.6343
 30
0.0
 10
11.8575
 20
-1.5815
 30
0.0
 10
11.8575
 20
-1.5815
 30
0.0
  0
SPLINE
  5
9D
330
1F
100
AcDbEntity
  8
DEFAULT_1
 62
   250
100
AcDbSpline
210
0.0
220
0.0
230
1.0
 70
    27
 71
     3
 72
    12
 73
     8
 74
     0
 42
0.0000000001
 43
0.0000000001
 40
0.0
 40
0.0
 40
0.0
 40
0.0
 40
0.3333333333333333
 40
0.3333333333333333
 40
0.3333333333333333
 40
0.3333333333333333
 40
1.0
 40
1.0
 40
1.0
 40
1.0
 10
-4.4698
 20
-14.569
 30
0.0
 10
-4.4698
 20
-14.569
 30
0.0
 10
14.6926
 20
-14.569
 30
0.0
 10
14.6926
 20
-14.569
 30
0.0
 10
14.6926
 20
-14.569
 30
0.0
 10
14.6926
 20
-14.569
 30
0.0
 10
-4.4698
 20
-14.569
 30
0.0
 10
-4.4698
 20
-14.569
 30
0.0
  0
SPLINE
  5
9E
330
1F
100
AcDbEntity
  8
DEFAULT_1
 62
   250
100
AcDbSpline
210
0.0
220
0.0
230
1.0
 70
    27
 71
     3
 72
    12
 73
     8
 74
     0
 42
0.0000000001
 43
0.0000000001
 40
0.0
 40
0.0
 40
0.0
 40
0.0
 40
0.3333333333333333
 40
0.3333333333333333
 40
0.3333333333333333
 40
0.3333333333333333
 40
1.0
 40
1.0
 40
1.0
 40
1.0
 10
-1.6347
 20
-1.5815
 30
0.0
 10
-1.6347
 20
-1.5815
 30
0.0
 10
-1.6347
 20
-4.6555
 30
0.0
 10
-1.6347
 20
-4.6555
 30
0.0
 10
-1.6347
 20
-4.6555
 30
0.0
 10
-1.6347
 20
-4.6555
 30
0.0
 10
-1.6347
 20
-1.5815
 30
0.0
 10
-1.6347
 20
-1.5815
 30
0.0
  0
SPLINE
  5
9F
330
1F
100
AcDbEntity
  8
DEFAULT_1
 62
   250
100
AcDbSpline
210
0.0
220
0.0
230
1.0
 70
    27
 71
     3
 72
    20
 73
    16
 74
     0
 42
0.0000000001
 43
0.0000000001
 40
0.0
 40
0.0
 40
0.0
 40
0.0
 40
0.2
 40
0.2
 40
0.2
 40
0.2
 40
0.4
 40
0.4
 40
0.4
 40
0.4
 40
0.6
 40
0.6
 40
0.6
 40
0.6
 40
1.0
 40
1.0
 40
1.0
 40
1.0
 10
9.8335
 20
-1.5815
 30
0.0
 10
9.8335
 20
-1.5815
 30
0.0
 10
9.8335
 20
-4.6409
 30
0.0
 10
9.8335
 20
-4.6409
 30
0.0
 10
9.8335
 20
-4.6409
 30
0.0
 10
9.8335
 20
-4.6409
 30
0.0
 10
9.8335
 20
-4.6555
 30
0.0
 10
9.8335
 20
-4.6555
 30
0.0
 10
9.8335
 20
-4.6555
 30
0.0
 10
9.8335
 20
-4.6555
 30
0.0
 10
9.8335
 20
-4.6409
 30
0.0
 10
9.8335
 20
-4.6409
 30
0.0
 10
9.8335
 20
-4.6409
 30
0.0
 10
9.8335
 20
-4.6409
 30
0.0
 10
9.8335
 20
-1.5815
 30
0.0
 10
9.8335
 20
-1.5815
 30
0.0
  0
SPLINE
  5
A0
330
1F
100
AcDbEntity
  8
DEFAULT_1
 62
   250
100
AcDbSpline
210
0.0
220
0.0
230
1.0
 70
    27
 71
     3
 72
    12
 73
     8
 74
     0
 42
0.0000000001
 43
0.0000000001
 40
0.0
 40
0.0
 40
0.0
 40
0.0
 40
0.3333333333333333
 40
0.3333333333333333
 40
0.3333333333333333
 40
0.3333333333333333
 40
1.0
 40
1.0
 40
1.0
 40
1.0
 10
0.3891
 20
-1.5815
 30
0.0
 10
0.3891
 20
-1.5815
 30
0.0
 10
0.3891
 20
-4.6555
 30
0.0
 10
0.3891
 20
-4.6555
 30
0.0
 10
0.3891
 20
-4.6555
 30
0.0
 10
0.3891
 20
-4.6555
 30
0.0
 10
0.3891
 20
-1.5815
 30
0.0
 10
0.3891
 20
-1.5815
 30
0.0
  0
SPLINE
  5
A1
330
1F
100
AcDbEntity
  8
DEFAULT_1
 62
   250
100
AcDbSpline
210
0.0
220
0.0
230
1.0
 70
    11
 71
     3
 72
    20
 73
    16
 74
     0
 42
0.0000000001
 43
0.0000000001
 40
0.0
 40
0.0
 40
0.0
 40
0.0
 40
0.2
 40
0.2
 40
0.2
 40
0.2
 40
0.4
 40
0.4
 40
0.4
 40
0.4
 40
0.6
 40
0.6
 40
0.6
 40
0.6
 40
1.0
 40
1.0
 40
1.0
 40
1.0
 10
-8.8597
 20
1.62
 30
0.0
 10
-8.8597
 20
1.62
 30
0.0
 10
19.1257
 20
1.62
 30
0.0
 10
19.1257
 20
1.62
 30
0.0
 10
19.1257
 20
1.62
 30
0.0
 10
19.1257
 20
1.62
 30
0.0
 10
19.1257
 20
0.7756
 30
0.0
 10
19.1257
 20
0.7756
 30
0.0
 10
19.1257
 20
0.7756
 30
0.0
 10
19.1257
 20
0.7756
 30
0.0
 10
-8.8597
 20
0.7756
 30
0.0
 10
-8.8597
 20
0.7756
 30
0.0
 10
-8.8597
 20
0.7756
 30
0.0
 10
-8.8597
 20
0.7756
 30
0.0
 10
-8.8597
 20
1.62
 30
0.0
 10
-8.8597
 20
1.62
 30
0.0
  0
SPLINE
  5
A2
330
1F
100
AcDbEntity
  8
DEFAULT_1
 62
   250
100
AcDbSpline
210
0.0
220
0.0
230
1.0
 70
    11
 71
     3
 72
    20
 73
    16
 74
     0
 42
0.0000000001
 43
0.0000000001
 40
0.0
 40
0.0
 40
0.0
 40
0.0
 40
0.2
 40
0.2
 40
0.2
 40
0.2
 40
0.4
 40
0.4
 40
0.4
 40
0.4
 40
0.6
 40
0.6
 40
0.6
 40
0.6
 40
1.0
 40
1.0
 40
1.0
 40
1.0
 10
-8.8961
 20
9.4726
 30
0.0
 10
-8.8961
 20
9.4726
 30
0.0
 10
19.0893
 20
9.4726
 30
0.0
 10
19.0893
 20
9.4726
 30
0.0
 10
19.0893
 20
9.4726
 30
0.0
 10
19.0893
 20
9.4726
 30
0.0
 10
19.0893
 20
8.6282
 30
0.0
 10
19.0893
 20
8.6282
 30
0.0
 10
19.0893
 20
8.6282
 30
0.0
 10
19.0893
 20
8.6282
 30
0.0
 10
-8.8961
 20
8.6282
 30
0.0
 10
-8.8961
 20
8.6282
 30
0.0
 10
-8.8961
 20
8.6282
 30
0.0
 10
-8.8961
 20
8.6282
 30
0.0
 10
-8.8961
 20
9.4726
 30
0.0
 10
-8.8961
 20
9.4726
 30
0.0
  0
SPLINE
  5
A3
330
1F
100
AcDbEntity
  8
DEFAULT_1
 62
   250
100
AcDbSpline
210
0.0
220
0.0
230
1.0
 70
     8
 71
     3
 72
    32
 73
    28
 74
     0
 42
0.0000000001
 43
0.0000000001
 40
0.0
 40
0.0
 40
0.0
 40
0.0
 40
0.125
 40
0.125
 40
0.125
 40
0.125
 40
0.25
 40
0.25
 40
0.25
 40
0.25
 40
0.375
 40
0.375
 40
0.375
 40
0.375
 40
0.5
 40
0.5
 40
0.5
 40
0.5
 40
0.625
 40
0.625
 40
0.625
 40
0.625
 40
0.75
 40
0.75
 40
0.75
 40
0.75
 40
1.0
 40
1.0
 40
1.0
 40
1.0
 10
-1.0207
 20
1.6971
 30
0.0
 10
-1.0207
 20
1.6971
 30
0.0
 10
-1.0207
 20
6.3308
 30
0.0
 10
-1.0207
 20
6.3308
 30
0.0
 10
-1.0207
 20
6.3308
 30
0.0
 10
-1.0207
 20
6.3308
 30
0.0
 10
0.0916
 20
6.3304
 30
0.0
 10
0.0916
 20
6.3304
 30
0.0
 10
0.0916
 20
6.3304
 30
0.0
 10
0.0916
 20
6.3304
 30
0.0
 10
3.2556
 20
6.3296
 30
0.0
 10
3.2556
 20
6.3296
 30
0.0
 10
3.2556
 20
6.3296
 30
0.0
 10
3.2556
 20
6.3296
 30
0.0
 10
6.9625
 20
6.3285
 30
0.0
 10
6.9625
 20
6.3285
 30
0.0
 10
6.9625
 20
6.3285
 30
0.0
 10
6.9625
 20
6.3285
 30
0.0
 10
10.1265
 20
6.3276
 30
0.0
 10
10.1265
 20
6.3276
 30
0.0
 10
10.1265
 20
6.3276
 30
0.0
 10
10.1265
 20
6.3276
 30
0.0
 10
11.2966
 20
6.3272
 30
0.0
 10
11.2966
 20
6.3272
 30
0.0
 10
11.2966
 20
6.3272
 30
0.0
 10
11.2966
 20
6.3272
 30
0.0
 10
11.2966
 20
1.62
 30
0.0
 10
11.2966
 20
1.62
 30
0.0
  0
SPLINE
  5
A4
330
1F
100
AcDbEntity
  8
DEFAULT_1
 62
   250
100
AcDbSpline
210
0.0
220
0.0
230
1.0
 70
    11
 71
     3
 72
    36
 73
    32
 74
     0
 42
0.0000000001
 43
0.0000000001
 40
0.0
 40
0.0
 40
0.0
 40
0.0
 40
0.1111111111111111
 40
0.1111111111111111
 40
0.1111111111111111
 40
0.1111111111111111
 40
0.2222222222222222
 40
0.2222222222222222
 40
0.2222222222222222
 40
0.2222222222222222
 40
0.3333333333333333
 40
0.3333333333333333
 40
0.3333333333333333
 40
0.3333333333333333
 40
0.4444444444444444
 40
0.4444444444444444
 40
0.4444444444444444
 40
0.4444444444444444
 40
0.5555555555555556
 40
0.5555555555555556
 40
0.5555555555555556
 40
0.5555555555555556
 40
0.6666666666666666
 40
0.6666666666666666
 40
0.6666666666666666
 40
0.6666666666666666
 40
0.7777777777777778
 40
0.7777777777777778
 40
0.7777777777777778
 40
0.7777777777777778
 40
1.0
 40
1.0
 40
1.0
 40
1.0
 10
19.4736
 20
14.6715
 30
0.0
 10
19.4736
 20
14.6715
 30
0.0
 10
-9.2554
 20
14.6715
 30
0.0
 10
-9.2554
 20
14.6715
 30
0.0
 10
-9.2554
 20
14.6715
 30
0.0
 10
-9.2554
 20
14.6715
 30
0.0
 10
-9.2452
 20
14.3297
 30
0.0
 10
-9.2452
 20
14.3297
 30
0.0
 10
-9.2452
 20
14.3297
 30
0.0
 10
-9.2452
 20
14.3297
 30
0.0
 10
-8.4904
 20
13.5405
 30
0.0
 10
-8.4904
 20
13.5405
 30
0.0
 10
-8.4904
 20
13.5405
 30
0.0
 10
-8.4904
 20
13.5405
 30
0.0
 10
-4.0604
 20
13.2117
 30
0.0
 10
-4.0604
 20
13.2117
 30
0.0
 10
-4.0604
 20
13.2117
 30
0.0
 10
-4.0604
 20
13.2117
 30
0.0
 10
14.3484
 20
13.2117
 30
0.0
 10
14.3484
 20
13.2117
 30
0.0
 10
14.3484
 20
13.2117
 30
0.0
 10
14.3484
 20
13.2117
 30
0.0
 10
18.7455
 20
13.5734
 30
0.0
 10
18.7455
 20
13.5734
 30
0.0
 10
18.7455
 20
13.5734
 30
0.0
 10
18.7455
 20
13.5734
 30
0.0
 10
19.4674
 20
14.2639
 30
0.0
 10
19.4674
 20
14.2639
 30
0.0
 10
19.4674
 20
14.2639
 30
0.0
 10
19.4674
 20
14.2639
 30
0.0
 10
19.4736
 20
14.6715
 30
0.0
 10
19.4736
 20
14.6715
 30
0.0
  0
SPLINE
  5
A5
330
1F
100
AcDbEntity
  8
DEFAULT_1
 62
   250
100
AcDbSpline
210
0.0
220
0.0
230
1.0
 70
    27
 71
     3
 72
    12
 73
     8
 74
     0
 42
0.0000000001
 43
0.0000000001
 40
0.0
 40
0.0
 40
0.0
 40
0.0
 40
0.3333333333333333
 40
0.3333333333333333
 40
0.3333333333333333
 40
0.3333333333333333
 40
1.0
 40
1.0
 40
1.0
 40
1.0
 10
-4.1584
 20
0.8631
 30
0.0
 10
-4.1584
 20
0.8631
 30
0.0
 10
-4.1584
 20
-0.0637
 30
0.0
 10
-4.1584
 20
-0.0637
 30
0.0
 10
-4.1584
 20
-0.0637
 30
0.0
 10
-4.1584
 20
-0.0637
 30
0.0
 10
-4.1584
 20
0.8631
 30
0.0
 10
-4.1584
 20
0.8631
 30
0.0
  0
SPLINE
  5
A6
330
1F
100
AcDbEntity
  8
DEFAULT_1
 62
   250
100
AcDbSpline
210
0.0
220
0.0
230
1.0
 70
    27
 71
     3
 72
    16
 73
    12
 74
     0
 42
0.0000000001
 43
0.0000000001
 40
0.0
 40
0.0
 40
0.0
 40
0.0
 40
0.25
 40
0.25
 40
0.25
 40
0.25
 40
0.5
 40
0.5
 40
0.5
 40
0.5
 40
1.0
 40
1.0
 40
1.0
 40
1.0
 10
10.1265
 20
6.3308
 30
0.0
 10
10.1265
 20
6.3308
 30
0.0
 10
10.1265
 20
6.3276
 30
0.0
 10
10.1265
 20
6.3276
 30
0.0
 10
10.1265
 20
6.3276
 30
0.0
 10
10.1265
 20
6.3276
 30
0.0
 10
10.1265
 20
1.6971
 30
0.0
 10
10.1265
 20
1.6971
 30
0.0
 10
10.1265
 20
1.6971
 30
0.0
 10
10.1265
 20
1.6971
 30
0.0
 10
10.1265
 20
6.3308
 30
0.0
 10
10.1265
 20
6.3308
 30
0.0
  0
SPLINE
  5
A7
330
1F
100
AcDbEntity
  8
DEFAULT_1
 62
   250
100
AcDbSpline
210
0.0
220
0.0
230
1.0
 70
    27
 71
     3
 72
    20
 73
    16
 74
     0
 42
0.0000000001
 43
0.0000000001
 40
0.0
 40
0.0
 40
0.0
 40
0.0
 40
0.2
 40
0.2
 40
0.2
 40
0.2
 40
0.4
 40
0.4
 40
0.4
 40
0.4
 40
0.6
 40
0.6
 40
0.6
 40
0.6
 40
1.0
 40
1.0
 40
1.0
 40
1.0
 10
6.9625
 20
6.3308
 30
0.0
 10
6.9625
 20
6.3308
 30
0.0
 10
6.9625
 20
6.3285
 30
0.0
 10
6.9625
 20
6.3285
 30
0.0
 10
6.9625
 20
6.3285
 30
0.0
 10
6.9625
 20
6.3285
 30
0.0
 10
6.9625
 20
1.6971
 30
0.0
 10
6.9625
 20
1.6971
 30
0.0
 10
6.9625
 20
1.6971
 30
0.0
 10
6.9625
 20
1.6971
 30
0.0
 10
6.9625
 20
6.3285
 30
0.0
 10
6.9625
 20
6.3285
 30
0.0
 10
6.9625
 20
6.3285
 30
0.0
 10
6.9625
 20
6.3285
 30
0.0
 10
6.9625
 20
6.3308
 30
0.0
 10
6.9625
 20
6.3308
 30
0.0
  0
SPLINE
  5
A8
330
1F
100
AcDbEntity
  8
DEFAULT_1
 62
   250
100
AcDbSpline
210
0.0
220
0.0
230
1.0
 70
    27
 71
     3
 72
    20
 73
    16
 74
     0
 42
0.0000000001
 43
0.0000000001
 40
0.0
 40
0.0
 40
0.0
 40
0.0
 40
0.2
 40
0.2
 40
0.2
 40
0.2
 40
0.4
 40
0.4
 40
0.4
 40
0.4
 40
0.6
 40
0.6
 40
0.6
 40
0.6
 40
1.0
 40
1.0
 40
1.0
 40
1.0
 10
3.2556
 20
6.3308
 30
0.0
 10
3.2556
 20
6.3308
 30
0.0
 10
3.2556
 20
6.3296
 30
0.0
 10
3.2556
 20
6.3296
 30
0.0
 10
3.2556
 20
6.3296
 30
0.0
 10
3.2556
 20
6.3296
 30
0.0
 10
3.2556
 20
1.6971
 30
0.0
 10
3.2556
 20
1.6971
 30
0.0
 10
3.2556
 20
1.6971
 30
0.0
 10
3.2556
 20
1.6971
 30
0.0
 10
3.2556
 20
6.3296
 30
0.0
 10
3.2556
 20
6.3296
 30
0.0
 10
3.2556
 20
6.3296
 30
0.0
 10
3.2556
 20
6.3296
 30
0.0
 10
3.2556
 20
6.3308
 30
0.0
 10
3.2556
 20
6.3308
 30
0.0
  0
SPLINE
  5
A9
330
1F
100
AcDbEntity
  8
DEFAULT_1
 62
   250
100
AcDbSpline
210
0.0
220
0.0
230
1.0
 70
    27
 71
     3
 72
    20
 73
    16
 74
     0
 42
0.0000000001
 43
0.0000000001
 40
0.0
 40
0.0
 40
0.0
 40
0.0
 40
0.2
 40
0.2
 40
0.2
 40
0.2
 40
0.4
 40
0.4
 40
0.4
 40
0.4
 40
0.6
 40
0.6
 40
0.6
 40
0.6
 40
1.0
 40
1.0
 40
1.0
 40
1.0
 10
0.0916
 20
6.3308
 30
0.0
 10
0.0916
 20
6.3308
 30
0.0
 10
0.0916
 20
6.3304
 30
0.0
 10
0.0916
 20
6.3304
 30
0.0
 10
0.0916
 20
6.3304
 30
0.0
 10
0.0916
 20
6.3304
 30
0.0
 10
0.0916
 20
1.6971
 30
0.0
 10
0.0916
 20
1.6971
 30
0.0
 10
0.0916
 20
1.6971
 30
0.0
 10
0.0916
 20
1.6971
 30
0.0
 10
0.0916
 20
6.3304
 30
0.0
 10
0.0916
 20
6.3304
 30
0.0
 10
0.0916
 20
6.3304
 30
0.0
 10
0.0916
 20
6.3304
 30
0.0
 10
0.0916
 20
6.3308
 30
0.0
 10
0.0916
 20
6.3308
 30
0.0
  0
SPLINE
  5
AA
330
1F
100
AcDbEntity
  8
DEFAULT_1
 62
   250
100
AcDbSpline
210
0.0
220
0.0
230
1.0
 70
    27
 71
     3
 72
    12
 73
     8
 74
     0
 42
0.0000000001
 43
0.0000000001
 40
0.0
 40
0.0
 40
0.0
 40
0.0
 40
0.3333333333333333
 40
0.3333333333333333
 40
0.3333333333333333
 40
0.3333333333333333
 40
1.0
 40
1.0
 40
1.0
 40
1.0
 10
14.3765
 20
0.8631
 30
0.0
 10
14.3765
 20
0.8631
 30
0.0
 10
14.3765
 20
-0.0637
 30
0.0
 10
14.3765
 20
-0.0637
 30
0.0
 10
14.3765
 20
-0.0637
 30
0.0
 10
14.3765
 20
-0.0637
 30
0.0
 10
14.3765
 20
0.8631
 30
0.0
 10
14.3765
 20
0.8631
 30
0.0
  0
SPLINE
  5
AB
330
1F
100
AcDbEntity
  8
DEFAULT_1
 62
   250
100
AcDbSpline
210
0.0
220
0.0
230
1.0
 70
    27
 71
     3
 72
    12
 73
     8
 74
     0
 42
0.0000000001
 43
0.0000000001
 40
0.0
 40
0.0
 40
0.0
 40
0.0
 40
0.3333333333333333
 40
0.3333333333333333
 40
0.3333333333333333
 40
0.3333333333333333
 40
1.0
 40
1.0
 40
1.0
 40
1.0
 10
-4.1584
 20
13.2814
 30
0.0
 10
-4.1584
 20
13.2814
 30
0.0
 10
-4.1584
 20
9.4818
 30
0.0
 10
-4.1584
 20
9.4818
 30
0.0
 10
-4.1584
 20
9.4818
 30
0.0
 10
-4.1584
 20
9.4818
 30
0.0
 10
-4.1584
 20
13.2814
 30
0.0
 10
-4.1584
 20
13.2814
 30
0.0
  0
SPLINE
  5
AC
330
1F
100
AcDbEntity
  8
DEFAULT_1
 62
   250
100
AcDbSpline
210
0.0
220
0.0
230
1.0
 70
    27
 71
     3
 72
    12
 73
     8
 74
     0
 42
0.0000000001
 43
0.0000000001
 40
0.0
 40
0.0
 40
0.0
 40
0.0
 40
0.3333333333333333
 40
0.3333333333333333
 40
0.3333333333333333
 40
0.3333333333333333
 40
1.0
 40
1.0
 40
1.0
 40
1.0
 10
-4.1584
 20
8.6478
 30
0.0
 10
-4.1584
 20
8.6478
 30
0.0
 10
-4.1584
 20
1.6971
 30
0.0
 10
-4.1584
 20
1.6971
 30
0.0
 10
-4.1584
 20
1.6971
 30
0.0
 10
-4.1584
 20
1.6971
 30
0.0
 10
-4.1584
 20
8.6478
 30
0.0
 10
-4.1584
 20
8.6478
 30
0.0
  0
SPLINE
  5
AD
330
1F
100
AcDbEntity
  8
DEFAULT_1
 62
   250
100
AcDbSpline
210
0.0
220
0.0
230
1.0
 70
    27
 71
     3
 72
    12
 73
     8
 74
     0
 42
0.0000000001
 43
0.0000000001
 40
0.0
 40
0.0
 40
0.0
 40
0.0
 40
0.3333333333333333
 40
0.3333333333333333
 40
0.3333333333333333
 40
0.3333333333333333
 40
1.0
 40
1.0
 40
1.0
 40
1.0
 10
14.3765
 20
8.6478
 30
0.0
 10
14.3765
 20
8.6478
 30
0.0
 10
14.3765
 20
1.6971
 30
0.0
 10
14.3765
 20
1.6971
 30
0.0
 10
14.3765
 20
1.6971
 30
0.0
 10
14.3765
 20
1.6971
 30
0.0
 10
14.3765
 20
8.6478
 30
0.0
 10
14.3765
 20
8.6478
 30
0.0
  0
SPLINE
  5
AE
330
1F
100
AcDbEntity
  8
DEFAULT_1
 62
   250
100
AcDbSpline
210
0.0
220
0.0
230
1.0
 70
    27
 71
     3
 72
    12
 73
     8
 74
     0
 42
0.0000000001
 43
0.0000000001
 40
0.0
 40
0.0
 40
0.0
 40
0.0
 40
0.3333333333333333
 40
0.3333333333333333
 40
0.3333333333333333
 40
0.3333333333333333
 40
1.0
 40
1.0
 40
1.0
 40
1.0
 10
14.3765
 20
13.2814
 30
0.0
 10
14.3765
 20
13.2814
 30
0.0
 10
14.3765
 20
9.4818
 30
0.0
 10
14.3765
 20
9.4818
 30
0.0
 10
14.3765
 20
9.4818
 30
0.0
 10
14.3765
 20
9.4818
 30
0.0
 10
14.3765
 20
13.2814
 30
0.0
 10
14.3765
 20
13.2814
 30
0.0
  0
SPLINE
  5
AF
330
1F
100
AcDbEntity
  8
DEFAULT_1
 62
   250
100
AcDbSpline
210
0.0
220
0.0
230
1.0
 70
    11
 71
     3
 72
    68
 73
    64
 74
     0
 42
0.0000000001
 43
0.0000000001
 40
0.0
 40
0.0
 40
0.0
 40
0.0
 40
0.0588235294117647
 40
0.0588235294117647
 40
0.0588235294117647
 40
0.0588235294117647
 40
0.1176470588235294
 40
0.1176470588235294
 40
0.1176470588235294
 40
0.1176470588235294
 40
0.1764705882352941
 40
0.1764705882352941
 40
0.1764705882352941
 40
0.1764705882352941
 40
0.2352941176470588
 40
0.2352941176470588
 40
0.2352941176470588
 40
0.2352941176470588
 40
0.2941176470588235
 40
0.2941176470588235
 40
0.2941176470588235
 40
0.2941176470588235
 40
0.3529411764705883
 40
0.3529411764705883
 40
0.3529411764705883
 40
0.3529411764705883
 40
0.4117647058823529
 40
0.4117647058823529
 40
0.4117647058823529
 40
0.4117647058823529
 40
0.4705882352941176
 40
0.4705882352941176
 40
0.4705882352941176
 40
0.4705882352941176
 40
0.5294117647058824
 40
0.5294117647058824
 40
0.5294117647058824
 40
0.5294117647058824
 40
0.5882352941176471
 40
0.5882352941176471
 40
0.5882352941176471
 40
0.5882352941176471
 40
0.6470588235294118
 40
0.6470588235294118
 40
0.6470588235294118
 40
0.6470588235294118
 40
0.7058823529411765
 40
0.7058823529411765
 40
0.7058823529411765
 40
0.7058823529411765
 40
0.7647058823529411
 40
0.7647058823529411
 40
0.7647058823529411
 40
0.7647058823529411
 40
0.8235294117647058
 40
0.8235294117647058
 40
0.8235294117647058
 40
0.8235294117647058
 40
0.8823529411764706
 40
0.8823529411764706
 40
0.8823529411764706
 40
0.8823529411764706
 40
1.0
 40
1.0
 40
1.0
 40
1.0
 10
13.6312
 20
18.632
 30
0.0
 10
13.6312
 20
18.632
 30
0.0
 10
12.8436
 20
18.632
 30
0.0
 10
12.8436
 20
18.632
 30
0.0
 10
12.8436
 20
18.632
 30
0.0
 10
12.8436
 20
18.632
 30
0.0
 10
-2.7257
 20
18.632
 30
0.0
 10
-2.7257
 20
18.632
 30
0.0
 10
-2.7257
 20
18.632
 30
0.0
 10
-2.7257
 20
18.632
 30
0.0
 10
-3.5133
 20
18.632
 30
0.0
 10
-3.5133
 20
18.632
 30
0.0
 10
-3.5133
 20
18.632
 30
0.0
 10
-3.5133
 20
18.632
 30
0.0
 10
-3.524
 20
19.0545
 30
0.0
 10
-3.524
 20
19.0545
 30
0.0
 10
-3.524
 20
19.0545
 30
0.0
 10
-3.524
 20
19.0545
 30
0.0
 10
-2.8496
 20
19.2021
 30
0.0
 10
-2.8496
 20
19.2021
 30
0.0
 10
-2.8496
 20
19.2021
 30
0.0
 10
-2.8496
 20
19.2021
 30
0.0
 10
-1.2902
 20
19.5603
 30
0.0
 10
-1.2902
 20
19.5603
 30
0.0
 10
-1.2902
 20
19.5603
 30
0.0
 10
-1.2902
 20
19.5603
 30
0.0
 10
0.796
 20
19.8553
 30
0.0
 10
0.796
 20
19.8553
 30
0.0
 10
0.796
 20
19.8553
 30
0.0
 10
0.796
 20
19.8553
 30
0.0
 10
2.6926
 20
20.045
 30
0.0
 10
2.6926
 20
20.045
 30
0.0
 10
2.6926
 20
20.045
 30
0.0
 10
2.6926
 20
20.045
 30
0.0
 10
4.2942
 20
20.0871
 30
0.0
 10
4.2942
 20
20.0871
 30
0.0
 10
4.2942
 20
20.0871
 30
0.0
 10
4.2942
 20
20.0871
 30
0.0
 10
5.9379
 20
20.1293
 30
0.0
 10
5.9379
 20
20.1293
 30
0.0
 10
5.9379
 20
20.1293
 30
0.0
 10
5.9379
 20
20.1293
 30
0.0
 10
7.687
 20
20.045
 30
0.0
 10
7.687
 20
20.045
 30
0.0
 10
7.687
 20
20.045
 30
0.0
 10
7.687
 20
20.045
 30
0.0
 10
9.7944
 20
19.8132
 30
0.0
 10
9.7944
 20
19.8132
 30
0.0
 10
9.7944
 20
19.8132
 30
0.0
 10
9.7944
 20
19.8132
 30
0.0
 10
11.4592
 20
19.5392
 30
0.0
 10
11.4592
 20
19.5392
 30
0.0
 10
11.4592
 20
19.5392
 30
0.0
 10
11.4592
 20
19.5392
 30
0.0
 10
12.6603
 20
19.3074
 30
0.0
 10
12.6603
 20
19.3074
 30
0.0
 10
12.6603
 20
19.3074
 30
0.0
 10
12.6603
 20
19.3074
 30
0.0
 10
13.6719
 20
19.0545
 30
0.0
 10
13.6719
 20
19.0545
 30
0.0
 10
13.6719
 20
19.0545
 30
0.0
 10
13.6719
 20
19.0545
 30
0.0
 10
13.6312
 20
18.632
 30
0.0
 10
13.6312
 20
18.632
 30
0.0
  0
SPLINE
  5
B0
330
1F
100
AcDbEntity
  8
DEFAULT_1
 62
   250
100
AcDbSpline
210
0.0
220
0.0
230
1.0
 70
    11
 71
     3
 72
    68
 73
    64
 74
     0
 42
0.0000000001
 43
0.0000000001
 40
0.0
 40
0.0
 40
0.0
 40
0.0
 40
0.0588235294117647
 40
0.0588235294117647
 40
0.0588235294117647
 40
0.0588235294117647
 40
0.1176470588235294
 40
0.1176470588235294
 40
0.1176470588235294
 40
0.1176470588235294
 40
0.1764705882352941
 40
0.1764705882352941
 40
0.1764705882352941
 40
0.1764705882352941
 40
0.2352941176470588
 40
0.2352941176470588
 40
0.2352941176470588
 40
0.2352941176470588
 40
0.2941176470588235
 40
0.2941176470588235
 40
0.2941176470588235
 40
0.2941176470588235
 40
0.3529411764705883
 40
0.3529411764705883
 40
0.3529411764705883
 40
0.3529411764705883
 40
0.4117647058823529
 40
0.4117647058823529
 40
0.4117647058823529
 40
0.4117647058823529
 40
0.4705882352941176
 40
0.4705882352941176
 40
0.4705882352941176
 40
0.4705882352941176
 40
0.5294117647058824
 40
0.5294117647058824
 40
0.5294117647058824
 40
0.5294117647058824
 40
0.5882352941176471
 40
0.5882352941176471
 40
0.5882352941176471
 40
0.5882352941176471
 40
0.6470588235294118
 40
0.6470588235294118
 40
0.6470588235294118
 40
0.6470588235294118
 40
0.7058823529411765
 40
0.7058823529411765
 40
0.7058823529411765
 40
0.7058823529411765
 40
0.7647058823529411
 40
0.7647058823529411
 40
0.7647058823529411
 40
0.7647058823529411
 40
0.8235294117647058
 40
0.8235294117647058
 40
0.8235294117647058
 40
0.8235294117647058
 40
0.8823529411764706
 40
0.8823529411764706
 40
0.8823529411764706
 40
0.8823529411764706
 40
1.0
 40
1.0
 40
1.0
 40
1.0
 10
3.2054
 20
16.2589
 30
0.0
 10
3.2054
 20
16.2589
 30
0.0
 10
3.2054
 20
14.6469
 30
0.0
 10
3.2054
 20
14.6469
 30
0.0
 10
3.2054
 20
14.6469
 30
0.0
 10
3.2054
 20
14.6469
 30
0.0
 10
3.2054
 20
16.2589
 30
0.0
 10
3.2054
 20
16.2589
 30
0.0
 10
3.2054
 20
16.2589
 30
0.0
 10
3.2054
 20
16.2589
 30
0.0
 10
-2.9667
 20
16.2589
 30
0.0
 10
-2.9667
 20
16.2589
 30
0.0
 10
-2.9667
 20
16.2589
 30
0.0
 10
-2.9667
 20
16.2589
 30
0.0
 10
-2.9667
 20
16.785
 30
0.0
 10
-2.9667
 20
16.785
 30
0.0
 10
-2.9667
 20
16.785
 30
0.0
 10
-2.9667
 20
16.785
 30
0.0
 10
-2.7257
 20
16.785
 30
0.0
 10
-2.7257
 20
16.785
 30
0.0
 10
-2.7257
 20
16.785
 30
0.0
 10
-2.7257
 20
16.785
 30
0.0
 10
-2.7257
 20
17.384
 30
0.0
 10
-2.7257
 20
17.384
 30
0.0
 10
-2.7257
 20
17.384
 30
0.0
 10
-2.7257
 20
17.384
 30
0.0
 10
-2.7257
 20
16.785
 30
0.0
 10
-2.7257
 20
16.785
 30
0.0
 10
-2.7257
 20
16.785
 30
0.0
 10
-2.7257
 20
16.785
 30
0.0
 10
12.8436
 20
16.785
 30
0.0
 10
12.8436
 20
16.785
 30
0.0
 10
12.8436
 20
16.785
 30
0.0
 10
12.8436
 20
16.785
 30
0.0
 10
12.8436
 20
17.384
 30
0.0
 10
12.8436
 20
17.384
 30
0.0
 10
12.8436
 20
17.384
 30
0.0
 10
12.8436
 20
17.384
 30
0.0
 10
12.8436
 20
16.785
 30
0.0
 10
12.8436
 20
16.785
 30
0.0
 10
12.8436
 20
16.785
 30
0.0
 10
12.8436
 20
16.785
 30
0.0
 10
13.0907
 20
16.785
 30
0.0
 10
13.0907
 20
16.785
 30
0.0
 10
13.0907
 20
16.785
 30
0.0
 10
13.0907
 20
16.785
 30
0.0
 10
13.0907
 20
16.2589
 30
0.0
 10
13.0907
 20
16.2589
 30
0.0
 10
13.0907
 20
16.2589
 30
0.0
 10
13.0907
 20
16.2589
 30
0.0
 10
6.9125
 20
16.2589
 30
0.0
 10
6.9125
 20
16.2589
 30
0.0
 10
6.9125
 20
16.2589
 30
0.0
 10
6.9125
 20
16.2589
 30
0.0
 10
6.9125
 20
14.6469
 30
0.0
 10
6.9125
 20
14.6469
 30
0.0
 10
6.9125
 20
14.6469
 30
0.0
 10
6.9125
 20
14.6469
 30
0.0
 10
6.9125
 20
16.2589
 30
0.0
 10
6.9125
 20
16.2589
 30
0.0
 10
6.9125
 20
16.2589
 30
0.0
 10
6.9125
 20
16.2589
 30
0.0
 10
3.2054
 20
16.2589
 30
0.0
 10
3.2054
 20
16.2589
 30
0.0
  0
SPLINE
  5
B1
330
1F
100
AcDbEntity
  8
DEFAULT_1
 62
   250
100
AcDbSpline
210
0.0
220
0.0
230
1.0
 70
    27
 71
     3
 72
    12
 73
     8
 74
     0
 42
0.0000000001
 43
0.0000000001
 40
0.0
 40
0.0
 40
0.0
 40
0.0
 40
0.3333333333333333
 40
0.3333333333333333
 40
0.3333333333333333
 40
0.3333333333333333
 40
1.0
 40
1.0
 40
1.0
 40
1.0
 10
12.8436
 20
18.0264
 30
0.0
 10
12.8436
 20
18.0264
 30
0.0
 10
12.8436
 20
18.632
 30
0.0
 10
12.8436
 20
18.632
 30
0.0
 10
12.8436
 20
18.632
 30
0.0
 10
12.8436
 20
18.632
 30
0.0
 10
12.8436
 20
18.0264
 30
0.0
 10
12.8436
 20
18.0264
 30
0.0
  0
SPLINE
  5
B2
330
1F
100
AcDbEntity
  8
DEFAULT_1
 62
   250
100
AcDbSpline
210
0.0
220
0.0
230
1.0
 70
    27
 71
     3
 72
    12
 73
     8
 74
     0
 42
0.0000000001
 43
0.0000000001
 40
0.0
 40
0.0
 40
0.0
 40
0.0
 40
0.3333333333333333
 40
0.3333333333333333
 40
0.3333333333333333
 40
0.3333333333333333
 40
1.0
 40
1.0
 40
1.0
 40
1.0
 10
-2.7257
 20
18.0264
 30
0.0
 10
-2.7257
 20
18.0264
 30
0.0
 10
-2.7257
 20
18.632
 30
0.0
 10
-2.7257
 20
18.632
 30
0.0
 10
-2.7257
 20
18.632
 30
0.0
 10
-2.7257
 20
18.632
 30
0.0
 10
-2.7257
 20
18.0264
 30
0.0
 10
-2.7257
 20
18.0264
 30
0.0
  0
ENDSEC
  0
SECTION
  2
OBJECTS
  0
DICTIONARY
  5
C
330
0
100
AcDbDictionary
  3
ACAD_GROUP
350
D
  3
ACAD_LAYOUT
350
1A
  3
ACAD_MATERIAL
350
3B
  3
ACAD_MLEADERSTYLE
350
D5
  3
ACAD_MLINESTYLE
350
17
  3
ACAD_PLOTSETTINGS
350
19
  3
ACAD_VISUALSTYLE
350
2A
  3
ACDBHEADERROUNDTRIPXREC
350
B3
  3
ACDBVARIABLEDICTIONARY
350
D3
  0
DICTIONARY
  5
D
102
{ACAD_REACTORS
330
C
102
}
330
C
100
AcDbDictionary
  0
DICTIONARY
  5
1A
102
{ACAD_REACTORS
330
C
102
}
330
C
100
AcDbDictionary
  0
DICTIONARY
  5
3B
102
{ACAD_REACTORS
330
C
102
}
330
C
100
AcDbDictionary
  3
BYBLOCK
350
3D
  3
BYLAYER
350
3C
  3
GLOBAL
350
3E
  0
DICTIONARY
  5
D5
102
{ACAD_REACTORS
330
C
102
}
330
C
100
AcDbDictionary
  0
DICTIONARY
  5
17
102
{ACAD_REACTORS
330
C
102
}
330
C
100
AcDbDictionary
  3
STANDARD
350
18
  0
DICTIONARY
  5
19
102
{ACAD_REACTORS
330
C
102
}
330
C
100
AcDbDictionary
  0
DICTIONARY
  5
2A
102
{ACAD_REACTORS
330
C
102
}
330
C
100
AcDbDictionary
  3
2DWIREFRAME
350
2F
  3
3D_HIDDEN
350
31
  3
3DWIREFRAME
350
30
  3
BASIC
350
32
  3
BRIGHTEN
350
36
  3
COLORCHANGE
350
3A
  3
CONCEPTUAL
350
34
  3
DIM
350
35
  3
FACEPATTERN
350
39
  3
FLAT
350
2B
  3
FLATWITHEDGES
350
2C
  3
GOURAUD
350
2D
  3
GOURAUDWITHEDGES
350
2E
  3
LINEPATTERN
350
38
  3
REALISTIC
350
33
  3
THICKEN
350
37
  0
DICTIONARY
  5
B3
102
{ACAD_REACTORS
330
C
102
}
330
C
100
AcDbDictionary
  3
CEPSNTYPE
350
BC
  3
DIMSTYLEDATA
350
D2
  3
FINGERPRINTGUID
350
BD
  3
HYPERLINKBASE
350
B6
  3
INSUNITS
350
BB
  3
LAYOUTDICT
350
B8
  3
LWETCUNION
350
BA
  3
PLOTSETDICT
350
B9
  3
PSVPSCALE
350
BF
  3
PUCSBASE
350
C2
  3
PUCSORGBACK
350
C8
  3
PUCSORGBOTTOM
350
C4
  3
PUCSORGFRONT
350
C7
  3
PUCSORGLEFT
350
C5
  3
PUCSORGRIGHT
350
C6
  3
PUCSORGTOP
350
C3
  3
PUCSORTHOREF
350
C0
  3
PUCSORTHOVIEW
350
C1
  3
STYLESHEET
350
B7
  3
TSTACKALIGN
350
B4
  3
TSTACKSIZE
350
B5
  3
UCSBASE
350
CB
  3
UCSORGBACK
350
D1
  3
UCSORGBOTTOM
350
CD
  3
UCSORGFRONT
350
D0
  3
UCSORGLEFT
350
CE
  3
UCSORGRIGHT
350
CF
  3
UCSORGTOP
350
CC
  3
UCSORTHOREF
350
C9
  3
UCSORTHOVIEW
350
CA
  3
VERSIONGUID
350
BE
  0
DICTIONARY
  5
D3
102
{ACAD_REACTORS
330
C
102
}
330
C
100
AcDbDictionary
  3
DIMASSOC
350
D6
  3
HIDETEXT
350
D7
  0
MATERIAL
  5
3D
102
{ACAD_REACTORS
330
3B
102
}
102
{ACAD_XDICTIONARY
360
DA
102
}
330
3B
100
AcDbMaterial
  1
ByBlock
  0
MATERIAL
  5
3C
102
{ACAD_REACTORS
330
3B
102
}
102
{ACAD_XDICTIONARY
360
D8
102
}
330
3B
100
AcDbMaterial
  1
ByLayer
  0
MATERIAL
  5
3E
102
{ACAD_REACTORS
330
3B
102
}
102
{ACAD_XDICTIONARY
360
DC
102
}
330
3B
100
AcDbMaterial
  1
Global
  0
MLINESTYLE
  5
18
102
{ACAD_REACTORS
330
17
102
}
330
17
100
AcDbMlineStyle
  2
Standard
 70
     0
  3

 62
   256
 51
90.0
 52
90.0
 71
     2
 49
0.5
 62
   256
  6
BYLAYER
 49
-0.5
 62
   256
  6
BYLAYER
  0
ACAD_PROXY_OBJECT
  5
2F
102
{ACAD_REACTORS
330
2A
102
}
330
2A
100
AcDbProxyObject
 90
      499
 91
      501
 93
      436
310
42CC9915DA5C99599C985B595049028333333333333E3BF0000000000000FB0107901411070040501600405405064090741402480A0340
1001
ACAD
1000
AcDbSavedByObjectVersion
1070
     0
  0
ACAD_PROXY_OBJECT
  5
31
102
{ACAD_REACTORS
330
2A
102
}
330
2A
100
AcDbProxyObject
 90
      499
 91
      501
 93
      500
310
424CD108121A5919195B90640502408333333333333E3BF0000000000000FB01079024090700405020000000000001110200405405064090740C02480A0340
1001
ACAD
1000
AcDbSavedByObjectVersion
1070
     0
  0
ACAD_PROXY_OBJECT
  5
30
102
{ACAD_REACTORS
330
2A
102
}
330
2A
100
AcDbProxyObject
 90
      499
 91
      501
 93
      436
310
42CCD915DA5C99599C985B595059028333333333333E3BF0000000000000FB0107901411070040501600405405064090741402480A0340
1001
ACAD
1000
AcDbSavedByObjectVersion
1070
     0
  0
ACAD_PROXY_OBJECT
  5
32
102
{ACAD_REACTORS
330
2A
102
}
330
2A
100
AcDbProxyObject
 90
      499
 91
      501
 93
      388
310
4150985CDA58D07406404333333333333E3BF0000000000000FB0107A41107004050150841D405064090741402480A0350
1001
ACAD
1000
AcDbSavedByObjectVersion
1070
     0
  0
ACAD_PROXY_OBJECT
  5
36
102
{ACAD_REACTORS
330
2A
102
}
330
2A
100
AcDbProxyObject
 90
      499
 91
      501
 93
      428
310
42109C9A59DA1D195B90C409028333333333333E3BF0000000000000FB010790141107004050150841D405064090741402480A029950
1001
ACAD
1000
AcDbSavedByObjectVersion
1070
     0
  0
ACAD_PROXY_OBJECT
  5
3A
102
{ACAD_REACTORS
330
2A
102
}
330
2A
100
AcDbProxyObject
 90
      499
 91
      501
 93
      452
310
42D0DBDB1BDC90DA185B99D95104090240C333333333333E3BF0000000000000FB0108901411070040501508421405064090741402480A0350
1001
ACAD
1000
AcDbSavedByObjectVersion
1070
     0
  0
ACAD_PROXY_OBJECT
  5
34
102
{ACAD_REACTORS
330
2A
102
}
330
2A
100
AcDbProxyObject
 90
      499
 91
      501
 93
      500
310
4290DBDB98D95C1D1D585B10940D028333333333333E3BF0000000000000FB0107902409070040501000000000000111010841D405064090740C02480A0340
1001
ACAD
1000
AcDbSavedByObjectVersion
1070
     0
  0
ACAD_PROXY_OBJECT
  5
35
102
{ACAD_REACTORS
330
2A
102
}
330
2A
100
AcDbProxyObject
 90
      499
 91
      501
 93
      412
310
40D11A5B50B409028333333333333E3BF0000000000000FB010790141107004050150841D405064090741402480A02677FFFFFD0
1001
ACAD
1000
AcDbSavedByObjectVersion
1070
     0
  0
ACAD_PROXY_OBJECT
  5
39
102
{ACAD_REACTORS
330
2A
102
}
330
2A
100
AcDbProxyObject
 90
      499
 91
      501
 93
      444
310
42D19858D95C185D1D195C9B90F409028333333333333E3BF0000000000000FB010790141107004050150841D405064090741402480A0350
1001
ACAD
1000
AcDbSavedByObjectVersion
1070
     0
  0
ACAD_PROXY_OBJECT
  5
2B
102
{ACAD_REACTORS
330
2A
102
}
330
2A
100
AcDbProxyObject
 90
      499
 91
      501
 93
      388
310
41119B185D240901404333333333333E3BF0000000000000F9010740A41107004050150841D405064090741402480A1B50
1001
ACAD
1000
AcDbSavedByObjectVersion
1070
     0
  0
ACAD_PROXY_OBJECT
  5
2C
102
{ACAD_REACTORS
330
2A
102
}
330
2A
100
AcDbProxyObject
 90
      499
 91
      501
 93
      476
310
43519B185D15DA5D1A115919D95CD0140901404333333333333E3BF0000000000000F9010740901411070040501600405405064090741402480A1B50
1001
ACAD
1000
AcDbSavedByObjectVersion
1070
     0
  0
ACAD_PROXY_OBJECT
  5
2D
102
{ACAD_REACTORS
330
2A
102
}
330
2A
100
AcDbProxyObject
 90
      499
 91
      501
 93
      412
310
41D1DBDD5C985D5910240902404333333333333E3BF0000000000000F9010740A411070040501641D405064090741402480A1B50
1001
ACAD
1000
AcDbSavedByObjectVersion
1070
     0
  0
ACAD_PROXY_OBJECT
  5
2E
102
{ACAD_REACTORS
330
2A
102
}
330
2A
100
AcDbProxyObject
 90
      499
 91
      501
 93
      500
310
4411DBDD5C985D5915DA5D1A115919D95CD0340902404333333333333E3BF0000000000000F9010740901411070040501600405405064090741402480A1B50
1001
ACAD
1000
AcDbSavedByObjectVersion
1070
     0
  0
ACAD_PROXY_OBJECT
  5
38
102
{ACAD_REACTORS
330
2A
102
}
330
2A
100
AcDbProxyObject
 90
      499
 91
      501
 93
      444
310
42D31A5B995C185D1D195C9B90E409028333333333333E3BF0000000000000FB010790141107004050750841D405064090741402483A0350
1001
ACAD
1000
AcDbSavedByObjectVersion
1070
     0
  0
ACAD_PROXY_OBJECT
  5
33
102
{ACAD_REACTORS
330
2A
102
}
330
2A
100
AcDbProxyObject
 90
      499
 91
      501
 93
      420
310
425499585B1A5CDD1A58D08409028333333333333E3BF0000000000000FB01079019070040501508421405064090741402480A1B40
1001
ACAD
1000
AcDbSavedByObjectVersion
1070
     0
  0
ACAD_PROXY_OBJECT
  5
37
102
{ACAD_REACTORS
330
2A
102
}
330
2A
100
AcDbProxyObject
 90
      499
 91
      501
 93
      412
310
41D51A1A58DAD95B90D409028333333333333E3BF0000000000000FB010790141107004050150C41D405064090741402480A0350
1001
ACAD
1000
AcDbSavedByObjectVersion
1070
     0
  0
XRECORD
  5
BC
102
{ACAD_REACTORS
330
B3
102
}
330
B3
100
AcDbXrecord
 90
        0
  0
XRECORD
  5
D2
102
{ACAD_REACTORS
330
B3
102
}
330
B3
100
AcDbXrecord
1000
DSTYLE
1002
{
1070
   340
340
11
1002
}
  0
XRECORD
  5
BD
102
{ACAD_REACTORS
330
B3
102
}
330
B3
100
AcDbXrecord
  1
{66528A8E-A55C-4594-90F1-D32A2926391D}
  0
XRECORD
  5
B6
102
{ACAD_REACTORS
330
B3
102
}
330
B3
100
AcDbXrecord
  1

  0
XRECORD
  5
BB
102
{ACAD_REACTORS
330
B3
102
}
330
B3
100
AcDbXrecord
 90
        4
  0
XRECORD
  5
B8
102
{ACAD_REACTORS
330
B3
102
}
330
B3
100
AcDbXrecord
340
1A
  0
XRECORD
  5
BA
102
{ACAD_REACTORS
330
B3
102
}
330
B3
100
AcDbXrecord
 90
    10781
  0
XRECORD
  5
B9
102
{ACAD_REACTORS
330
B3
102
}
330
B3
100
AcDbXrecord
340
19
  0
XRECORD
  5
BF
102
{ACAD_REACTORS
330
B3
102
}
330
B3
100
AcDbXrecord
 40
0.0
  0
XRECORD
  5
C2
102
{ACAD_REACTORS
330
B3
102
}
330
B3
100
AcDbXrecord
340
0
  0
XRECORD
  5
C8
102
{ACAD_REACTORS
330
B3
102
}
330
B3
100
AcDbXrecord
 10
0.0
 20
0.0
 30
0.0
  0
XRECORD
  5
C4
102
{ACAD_REACTORS
330
B3
102
}
330
B3
100
AcDbXrecord
 10
0.0
 20
0.0
 30
0.0
  0
XRECORD
  5
C7
102
{ACAD_REACTORS
330
B3
102
}
330
B3
100
AcDbXrecord
 10
0.0
 20
0.0
 30
0.0
  0
XRECORD
  5
C5
102
{ACAD_REACTORS
330
B3
102
}
330
B3
100
AcDbXrecord
 10
0.0
 20
0.0
 30
0.0
  0
XRECORD
  5
C6
102
{ACAD_REACTORS
330
B3
102
}
330
B3
100
AcDbXrecord
 10
0.0
 20
0.0
 30
0.0
  0
XRECORD
  5
C3
102
{ACAD_REACTORS
330
B3
102
}
330
B3
100
AcDbXrecord
 10
0.0
 20
0.0
 30
0.0
  0
XRECORD
  5
C0
102
{ACAD_REACTORS
330
B3
102
}
330
B3
100
AcDbXrecord
340
0
  0
XRECORD
  5
C1
102
{ACAD_REACTORS
330
B3
102
}
330
B3
100
AcDbXrecord
 70
     0
  0
XRECORD
  5
B7
102
{ACAD_REACTORS
330
B3
102
}
330
B3
100
AcDbXrecord
  1

  0
XRECORD
  5
B4
102
{ACAD_REACTORS
330
B3
102
}
330
B3
100
AcDbXrecord
 90
        1
  0
XRECORD
  5
B5
102
{ACAD_REACTORS
330
B3
102
}
330
B3
100
AcDbXrecord
 90
       70
  0
XRECORD
  5
CB
102
{ACAD_REACTORS
330
B3
102
}
330
B3
100
AcDbXrecord
340
0
  0
XRECORD
  5
D1
102
{ACAD_REACTORS
330
B3
102
}
330
B3
100
AcDbXrecord
 10
0.0
 20
0.0
 30
0.0
  0
XRECORD
  5
CD
102
{ACAD_REACTORS
330
B3
102
}
330
B3
100
AcDbXrecord
 10
0.0
 20
0.0
 30
0.0
  0
XRECORD
  5
D0
102
{ACAD_REACTORS
330
B3
102
}
330
B3
100
AcDbXrecord
 10
0.0
 20
0.0
 30
0.0
  0
XRECORD
  5
CE
102
{ACAD_REACTORS
330
B3
102
}
330
B3
100
AcDbXrecord
 10
0.0
 20
0.0
 30
0.0
  0
XRECORD
  5
CF
102
{ACAD_REACTORS
330
B3
102
}
330
B3
100
AcDbXrecord
 10
0.0
 20
0.0
 30
0.0
  0
XRECORD
  5
CC
102
{ACAD_REACTORS
330
B3
102
}
330
B3
100
AcDbXrecord
 10
0.0
 20
0.0
 30
0.0
  0
XRECORD
  5
C9
102
{ACAD_REACTORS
330
B3
102
}
330
B3
100
AcDbXrecord
340
0
  0
XRECORD
  5
CA
102
{ACAD_REACTORS
330
B3
102
}
330
B3
100
AcDbXrecord
 70
     0
  0
XRECORD
  5
BE
102
{ACAD_REACTORS
330
B3
102
}
330
B3
100
AcDbXrecord
  1
{FAEB1C32-E019-11D5-929B-00C0DF256EC4}
  0
DICTIONARYVAR
  5
D6
102
{ACAD_REACTORS
330
D3
102
}
330
D3
100
DictionaryVariables
280
     0
  1
2
  0
DICTIONARYVAR
  5
D7
102
{ACAD_REACTORS
330
D3
102
}
330
D3
100
DictionaryVariables
280
     0
  1
1
  0
DICTIONARY
  5
DA
330
3D
100
AcDbDictionary
280
     1
  3
ACAD_XREC_ROUNDTRIP
360
DB
  0
DICTIONARY
  5
D8
330
3C
100
AcDbDictionary
280
     1
  3
ACAD_XREC_ROUNDTRIP
360
D9
  0
DICTIONARY
  5
DC
330
3E
100
AcDbDictionary
280
     1
  3
ACAD_XREC_ROUNDTRIP
360
DD
  0
XRECORD
  5
DB
102
{ACAD_REACTORS
330
DA
102
}
330
DA
100
AcDbXrecord
102
MATERIAL
148
0.0
149
0.0
149
0.0
 93
        0
 94
      127
282
     0
 72
     1
 77
     1
171
     1
175
     1
179
     1
273
     0
  0
XRECORD
  5
D9
102
{ACAD_REACTORS
330
D8
102
}
330
D8
100
AcDbXrecord
102
MATERIAL
148
0.0
149
0.0
149
0.0
 93
        0
 94
      127
282
     0
 72
     1
 77
     1
171
     1
175
     1
179
     1
273
     0
  0
XRECORD
  5
DD
102
{ACAD_REACTORS
330
DC
102
}
330
DC
100
AcDbXrecord
102
MATERIAL
148
0.0
149
0.0
149
0.0
 93
        0
 94
      127
282
     0
 72
     1
 77
     1
171
     1
175
     1
179
     1
273
     0
  0
ENDSEC
  0
EOF
